  0
SECTION
  2
HEADER
  9
$ACADVER
  1
AC1012
  9
$DWGCODEPAGE
  3
dos932
  9
$INSBASE
 10
0.0
 20
0.0
 30
0.0
  9
$EXTMIN
 10
-399.52490234375
 20
-276.5
 30
0.0
  9
$EXTMAX
 10
405.77491474151611
 20
276.5
 30
0.0
  9
$LIMMIN
 10
-399.52490234375
 20
-276.5
  9
$LIMMAX
 10
405.77491474151611
 20
276.5
  9
$ORTHOMODE
 70
               0
  9
$REGENMODE
 70
               1
  9
$FILLMODE
 70
               1
  9
$QTEXTMODE
 70
               0
  9
$MIRRTEXT
 70
               1
  9
$DRAGMODE
 70
               2
  9
$LTSCALE
 40
1.0
  9
$OSMODE
 70
               0
  9
$ATTMODE
 70
               1
  9
$TEXTSIZE
 40
3.2000000476837158
  9
$TRACEWID
 40
0.05
  9
$TEXTSTYLE
  7
MX_NOTE_STANDARD
  9
$CLAYER
  8
0
  9
$CELTYPE
  6
CONTINUOUS
  9
$CECOLOR
 62
             256
  9
$CELTSCALE
 40
1.0
  9
$DELOBJ
 70
               1
  9
$DISPSILH
 70
               0
  9
$DIMSCALE
 40
1.0
  9
$DIMASZ
 40
2.5
  9
$DIMEXO
 40
1.5
  9
$DIMDLI
 40
3.75
  9
$DIMRND
 40
0.0
  9
$DIMDLE
 40
0.0
  9
$DIMEXE
 40
1.5
  9
$DIMTP
 40
0.0
  9
$DIMTM
 40
0.0
  9
$DIMTXT
 40
3.2000000476837158
  9
$DIMCEN
 40
2.5
  9
$DIMTSZ
 40
0.0
  9
$DIMTOL
 70
               0
  9
$DIMLIM
 70
               0
  9
$DIMTIH
 70
               0
  9
$DIMTOH
 70
               0
  9
$DIMSE1
 70
               0
  9
$DIMSE2
 70
               0
  9
$DIMTAD
 70
               1
  9
$DIMZIN
 70
               8
  9
$DIMBLK
  1

  9
$DIMASO
 70
               1
  9
$DIMSHO
 70
               1
  9
$DIMPOST
  1

  9
$DIMAPOST
  1

  9
$DIMALT
 70
               0
  9
$DIMALTD
 70
               4
  9
$DIMALTF
 40
0.03937007874016
  9
$DIMLFAC
 40
1.0
  9
$DIMTOFL
 70
               1
  9
$DIMTVP
 40
0.0
  9
$DIMTIX
 70
               0
  9
$DIMSOXD
 70
               0
  9
$DIMSAH
 70
               0
  9
$DIMBLK1
  1

  9
$DIMBLK2
  1

  9
$DIMSTYLE
  2
MXDIMSTYLE
  9
$DIMCLRD
 70
               0
  9
$DIMCLRE
 70
               0
  9
$DIMCLRT
 70
               0
  9
$DIMTFAC
 40
1.0
  9
$DIMGAP
 40
1.0
  9
$DIMJUST
 70
               0
  9
$DIMSD1
 70
               0
  9
$DIMSD2
 70
               0
  9
$DIMTOLJ
 70
               1
  9
$DIMTZIN
 70
               0
  9
$DIMALTZ
 70
               0
  9
$DIMALTTZ
 70
               0
  9
$DIMFIT
 70
               3
  9
$DIMUPT
 70
               1
  9
$DIMUNIT
 70
               2
  9
$DIMDEC
 70
               4
  9
$DIMTDEC
 70
               4
  9
$DIMALTU
 70
               2
  9
$DIMALTTD
 70
               4
  9
$DIMTXSTY
  7
MX_NOTE_STANDARD
  9
$DIMAUNIT
 70
               0
  9
$LUNITS
 70
               2
  9
$LUPREC
 70
               4
  9
$SKETCHINC
 40
0.1
  9
$FILLETRAD
 40
0.0
  9
$AUNITS
 70
               0
  9
$AUPREC
 70
               0
  9
$MENU
  1
acad
  9
$ELEVATION
 40
0.0
  9
$PELEVATION
 40
0.0
  9
$THICKNESS
 40
0.0
  9
$LIMCHECK
 70
               0
  9
$BLIPMODE
 70
               1
  9
$CHAMFERA
 40
0.0
  9
$CHAMFERB
 40
0.0
  9
$CHAMFERC
 40
0.0
  9
$CHAMFERD
 40
0.0
  9
$SKPOLY
 70
               0
  9
$TDCREATE
 40
2453517.689722222
  9
$TDUPDATE
 40
2453517.689722222
  9
$TDINDWG
 40
0.0000000000
  9
$TDUSRTIMER
 40
0.0000000000
  9
$USRTIMER
 70
               1
  9
$ANGBASE
 50
0.0
  9
$ANGDIR
 70
               0
  9
$PDMODE
 70
               0
  9
$PDSIZE
 40
0.0
  9
$PLINEWID
 40
0.0
  9
$COORDS
 70
               1
  9
$SPLFRAME
 70
               0
  9
$SPLINETYPE
 70
               6
  9
$SPLINESEGS
 70
               8
  9
$ATTDIA
 70
               0
  9
$ATTREQ
 70
               1
  9
$HANDLING
 70
               1
  9
$HANDSEED
  5
540
  9
$SURFTAB1
 70
               6
  9
$SURFTAB2
 70
               6
  9
$SURFTYPE
 70
               6
  9
$SURFU
 70
               6
  9
$SURFV
 70
               6
  9
$UCSNAME
  2

  9
$UCSORG
 10
0.0
 20
0.0
 30
0.0
  9
$UCSXDIR
 10
1.0
 20
0.0
 30
0.0
  9
$UCSYDIR
 10
0.0
 20
1.0
 30
0.0
  9
$PUCSNAME
  2

  9
$PUCSORG
 10
0.0
 20
0.0
 30
0.0
  9
$PUCSXDIR
 10
1.0
 20
0.0
 30
0.0
  9
$PUCSYDIR
 10
0.0
 20
1.0
 30
0.0
  9
$USERI1
 70
               0
  9
$USERI2
 70
               0
  9
$USERI3
 70
               0
  9
$USERI4
 70
               0
  9
$USERI5
 70
               0
  9
$USERR1
 40
0.0
  9
$USERR2
 40
0.0
  9
$USERR3
 40
0.0
  9
$USERR4
 40
0.0
  9
$USERR5
 40
0.0
  9
$WORLDVIEW
 70
               1
  9
$SHADEDGE
 70
               3
  9
$SHADEDIF
 70
              70
  9
$TILEMODE
 70
               1
  9
$MAXACTVP
 70
              16
  9
$PINSBASE
 10
0.0
 20
0.0
 30
0.0
  9
$PLIMCHECK
 70
               0
  9
$PEXTMIN
 10
1.0000000000000000E+20
 20
1.0000000000000000E+20
 30
1.0000000000000000E+20
  9
$PEXTMAX
 10
-1.0000000000000000E+20
 20
-1.0000000000000000E+20
 30
-1.0000000000000000E+20
  9
$PLIMMIN
 10
0.0
 20
0.0
  9
$PLIMMAX
 10
12.0
 20
9.0
  9
$UNITMODE
 70
               0
  9
$VISRETAIN
 70
               0
  9
$PLINEGEN
 70
               1
  9
$PSLTSCALE
 70
               0
  9
$TREEDEPTH
 70
            3020
  9
$PICKSTYLE
 70
               1
  9
$CMLSTYLE
  2
Standard
  9
$CMLJUST
 70
               0
  9
$CMLSCALE
 40
1.0
  9
$SAVEIMAGES
 70
               0
  0
ENDSEC
  0
SECTION
  2
CLASSES
  0
CLASS
  1
LWPOLYLINE
  2
AcDbPolyline
  3
"AutoCAD"
 90
        0
280
               0
281
               1
  0
CLASS
  1
IMAGE
  2
AcDbRasterImage
  3
ISM
 90
      127
280
               0
281
               1
  0
CLASS
  1
OLE2FRAME
  2
AcDbOle2Frame
  3
""
 90
        0
280
               0
281
               1
  0
CLASS
  1
HATCH
  2
AcDbHatch
  3
"ACAD_SEDONA"
 90
        0
280
               0
281
               1
  0
CLASS
  1
DICTIONARYVAR
  2
AcDbDictionaryVar
  3
"AutoCAD"
 90
        0
280
               0
281
               0
  0
CLASS
  1
RASTERVARIABLES
  2
AcDbRasterVariables
  3
ISM
 90
        0
280
               0
281
               0
  0
CLASS
  1
IMAGEDEF
  2
AcDbRasterImageDef
  3
ISM
 90
        0
280
               0
281
               0
  0
CLASS
  1
IMAGEDEF_REACTOR
  2
AcDbRasterImageDefReactor
  3
ISM
 90
        1
280
               0
281
               0
  0
CLASS
  1
IDBUFFER
  2
AcDbIdBuffer
  3
"Acad"
 90
        0
280
               0
281
               0
  0
CLASS
  1
SPATIAL_FILTER
  2
AcDbSpatialFilter
  3
"Acad"
 90
        0
280
               0
281
               0
  0
CLASS
  1
XRECORD
  2
AcDbXrecord
  3
"<Built In>"
 90
        0
280
               0
281
               0
  0
CLASS
  1
SORTENTSTABLE
  2
AcDbSortentsTable
  3
"AutoCAD"
 90
        0
280
               0
281
               0
  0
CLASS
  1
LAYER_INDEX
  2
AcDbLayerIndex
  3
"Acad"
 90
        0
280
               0
281
               0
  0
CLASS
  1
SPATIAL_INDEX
  2
AcDbSpatialIndex
  3
"Acad"
 90
        0
280
               0
281
               0
  0
CLASS
  1
OBJECT_PTR
  2
CAseDLPNTableRecord
  3
"ASE-LPNTableRecord"
 90
        1
280
               0
281
               0
  0
CLASS
  1
LAYOUT
  2
AcDbLayout
  3
"AutoCAD 2000"
 90
        1
280
               0
281
               0
  0
CLASS
  1
PLOTSETTINGS
  2
AcDbPlotSettings
  3
"AutoCAD 2000"
 90
        1
280
               0
281
               0
  0
CLASS
  1
ACDBDICTIONARYWDFLT
  2
AcDbDictionaryWithDefault
  3
"AutoCAD 2000"
 90
        1
280
               0
281
               0
  0
CLASS
  1
ACDBPLACEHOLDER
  2
AcDbPlaceHolder
  3
"AutoCAD 2000"
 90
        1
280
               0
281
               0
  0
ENDSEC
  0
SECTION
  2
TABLES
  0
TABLE
  2
VPORT
  5
7
100
AcDbSymbolTable
 70
               1
  0
VPORT
  5
15
100
AcDbSymbolTableRecord
100
AcDbViewportTableRecord
  2
*ACTIVE
 70
               0
 10
0.0
 20
0.0
 11
1.0
 21
1.0
 12
3.1250061988830566
 22
0.0
 13
0.0
 23
0.0
 14
1.0
 24
1.0
 15
0.0
 25
0.0
 16
0.0
 26
0.0
 36
1.0
 17
0.0
 27
0.0
 37
0.0
 40
558.52999999999997
 41
1.7320508075688772
 42
50.0
 43
0.0
 44
0.0
 50
0.0
 51
0.0
 71
               0
 72
             100
 73
               1
 74
               1
 75
               0
 76
               0
 77
               0
 78
               0
  0
ENDTAB
  0
TABLE
  2
LTYPE
  5
4
100
AcDbSymbolTable
 70
               4
  0
LTYPE
  5
11
100
AcDbSymbolTableRecord
100
AcDbLinetypeTableRecord
  2
BYBLOCK
 70
              64
  3

 72
              65
 73
               0
 40
0.0
  0
LTYPE
  5
12
100
AcDbSymbolTableRecord
100
AcDbLinetypeTableRecord
  2
BYLAYER
 70
              64
  3

 72
              65
 73
               0
 40
0.0
  0
LTYPE
  5
13
100
AcDbSymbolTableRecord
100
AcDbLinetypeTableRecord
  2
CONTINUOUS
 70
              64
  3
Solid line
 72
              65
 73
               0
 40
0.0
  0
LTYPE
  5
35
100
AcDbSymbolTableRecord
100
AcDbLinetypeTableRecord
  2
DASHED
 70
              64
  3
Dashed __ __ __ __ __ __ __ __ __ __ __ __ __ _
 72
              65
 73
               2
 40
4.0
 49
2.0
 74
               0
 49
-2.0
 74
               0
  0
ENDTAB
  0
TABLE
  2
LAYER
  5
2
100
AcDbSymbolTable
 70
               2
  0
LAYER
  5
14
100
AcDbSymbolTableRecord
100
AcDbLayerTableRecord
  2
0
 70
               0
 62
               7
  6
CONTINUOUS
  0
LAYER
  5
1D
100
AcDbSymbolTableRecord
100
AcDbLayerTableRecord
  2
DEFPOINTS
 70
               0
 62
               7
  6
CONTINUOUS
  0
ENDTAB
  0
TABLE
  2
STYLE
  5
3
100
AcDbSymbolTable
 70
               1
  0
STYLE
  5
17
100
AcDbSymbolTableRecord
100
AcDbTextStyleTableRecord
  2
MX_NOTE_STANDARD
 70
               0
 40
0.0
 41
1.0
 50
0.0
 71
               0
 42
3.2000000476837158
  3
txt.shx
  4
extfont.shx
  0
ENDTAB
  0
TABLE
  2
VIEW
  5
5
100
AcDbSymbolTable
 70
               0
  0
ENDTAB
  0
TABLE
  2
UCS
  5
6
100
AcDbSymbolTable
 70
               0
  0
ENDTAB
  0
TABLE
  2
APPID
  5
8
100
AcDbSymbolTable
 70
               1
  0
APPID
  5
16
100
AcDbSymbolTableRecord
100
AcDbRegAppTableRecord
  2
ACAD
 70
               0
  0
ENDTAB
  0
TABLE
  2
DIMSTYLE
  5
9
100
AcDbSymbolTable
 70
               1
  0
DIMSTYLE
105
18
100
AcDbSymbolTableRecord
100
AcDbDimStyleTableRecord
  2
MXDIMSTYLE
 70
               0
  3

  4

  5

  6

  7

 40
1.0
 41
2.5
 42
1.5
 43
3.75
 44
1.5
 45
0.0
 46
0.0
 47
0.0
 48
0.0
 71
               0
 72
               0
 73
               0
 74
               0
 75
               0
 76
               0
 77
               1
 78
               8
140
3.2000000476837158
141
2.5
142
0.0
143
0.03937007874016
144
1.0
145
0.0
146
1.0
147
1.0
170
               0
171
               4
172
               1
173
               0
174
               0
175
               0
176
               0
177
               0
178
               0
270
               2
271
               4
272
               4
273
               2
274
               4
275
               0
280
               0
281
               0
282
               0
283
               1
284
               0
285
               0
286
               0
287
               3
288
               1
340
17
  0
ENDTAB
  0
TABLE
  2
BLOCK_RECORD
  5
1
100
AcDbSymbolTable
 70
              22
  0
BLOCK_RECORD
  5
A
100
AcDbSymbolTableRecord
100
AcDbBlockTableRecord
  2
*MODEL_SPACE
  0
BLOCK_RECORD
  5
B
100
AcDbSymbolTableRecord
100
AcDbBlockTableRecord
  2
*PAPER_SPACE
  0
BLOCK_RECORD
  5
1E
100
AcDbSymbolTableRecord
100
AcDbBlockTableRecord
  2
RAG20-SS2-1
  0
BLOCK_RECORD
  5
1F
100
AcDbSymbolTableRecord
100
AcDbBlockTableRecord
  2
RAG20-SS2-2
  0
BLOCK_RECORD
  5
20
100
AcDbSymbolTableRecord
100
AcDbBlockTableRecord
  2
RAG20-SS2-3
  0
BLOCK_RECORD
  5
21
100
AcDbSymbolTableRecord
100
AcDbBlockTableRecord
  2
RAG20-SS2-4
  0
BLOCK_RECORD
  5
22
100
AcDbSymbolTableRecord
100
AcDbBlockTableRecord
  2
RAG20-SS2-5
  0
BLOCK_RECORD
  5
23
100
AcDbSymbolTableRecord
100
AcDbBlockTableRecord
  2
RAG20-SS2-6
  0
BLOCK_RECORD
  5
24
100
AcDbSymbolTableRecord
100
AcDbBlockTableRecord
  2
RAG20-SS2-7
  0
BLOCK_RECORD
  5
25
100
AcDbSymbolTableRecord
100
AcDbBlockTableRecord
  2
RAG20-SS2-8
  0
BLOCK_RECORD
  5
26
100
AcDbSymbolTableRecord
100
AcDbBlockTableRecord
  2
RAG20-SS2-9
  0
BLOCK_RECORD
  5
27
100
AcDbSymbolTableRecord
100
AcDbBlockTableRecord
  2
RAG20-SS2-10
  0
BLOCK_RECORD
  5
28
100
AcDbSymbolTableRecord
100
AcDbBlockTableRecord
  2
RAG20-SS2-11
  0
BLOCK_RECORD
  5
29
100
AcDbSymbolTableRecord
100
AcDbBlockTableRecord
  2
RAG20-SS2-12
  0
BLOCK_RECORD
  5
2A
100
AcDbSymbolTableRecord
100
AcDbBlockTableRecord
  2
RAG20-SS2-13
  0
BLOCK_RECORD
  5
2B
100
AcDbSymbolTableRecord
100
AcDbBlockTableRecord
  2
RAG20-SS2-14
  0
BLOCK_RECORD
  5
2C
100
AcDbSymbolTableRecord
100
AcDbBlockTableRecord
  2
RAG20-SS2-15
  0
BLOCK_RECORD
  5
2D
100
AcDbSymbolTableRecord
100
AcDbBlockTableRecord
  2
RAG20-SS2-16
  0
BLOCK_RECORD
  5
2E
100
AcDbSymbolTableRecord
100
AcDbBlockTableRecord
  2
RAG20-SS2-17
  0
BLOCK_RECORD
  5
2F
100
AcDbSymbolTableRecord
100
AcDbBlockTableRecord
  2
RAG20-SS2-18
  0
BLOCK_RECORD
  5
30
100
AcDbSymbolTableRecord
100
AcDbBlockTableRecord
  2
RAG20-SS2-19
  0
BLOCK_RECORD
  5
31
100
AcDbSymbolTableRecord
100
AcDbBlockTableRecord
  2
RAG20-SS2-20
  0
BLOCK_RECORD
  5
32
100
AcDbSymbolTableRecord
100
AcDbBlockTableRecord
  2
RAG20-SS2-21
  0
BLOCK_RECORD
  5
33
100
AcDbSymbolTableRecord
100
AcDbBlockTableRecord
  2
RAG20-SS2-22
  0
ENDTAB
  0
ENDSEC
  0
SECTION
  2
BLOCKS
  0
BLOCK
  5
D
100
AcDbEntity
  8
0
100
AcDbBlockBegin
  2
*MODEL_SPACE
 70
               0
 10
0.0
 20
0.0
 30
0.0
  3
*MODEL_SPACE
  1

  0
ENDBLK
  5
E
100
AcDbEntity
  8
0
100
AcDbBlockEnd
  0
BLOCK
  5
F
100
AcDbEntity
 67
               1
  8
0
100
AcDbBlockBegin
  2
*PAPER_SPACE
 70
               0
 10
0.0
 20
0.0
 30
0.0
  3
*PAPER_SPACE
  1

  0
ENDBLK
  5
10
100
AcDbEntity
 67
               1
  8
0
100
AcDbBlockEnd
  0
BLOCK
  5
34
100
AcDbEntity
  8
0
100
AcDbBlockBegin
  2
RAG20-SS2-1
 70
               0
 10
0.0
 20
0.0
 30
0.0
  3
RAG20-SS2-1
  1

  0
LINE
  5
36
100
AcDbEntity
  8
0
  6
DASHED
 62
               2
100
AcDbLine
 10
-10.0
 20
0.0
 30
0.0
 11
-10.0
 21
-6.0
 31
0.0
  0
LINE
  5
37
100
AcDbEntity
  8
0
  6
DASHED
 62
               2
100
AcDbLine
 10
10.0
 20
0.0
 30
0.0
 11
10.0
 21
-6.0
 31
0.0
  0
LINE
  5
38
100
AcDbEntity
  8
0
  6
CONTINUOUS
 62
               7
100
AcDbLine
 10
27.0
 20
0.0
 30
0.0
 11
27.0
 21
-7.5
 31
0.0
  0
LINE
  5
39
100
AcDbEntity
  8
0
  6
CONTINUOUS
 62
               7
100
AcDbLine
 10
-27.0
 20
0.0
 30
0.0
 11
-27.0
 21
-7.5
 31
0.0
  0
LINE
  5
3A
100
AcDbEntity
  8
0
  6
CONTINUOUS
 62
               2
100
AcDbLine
 10
0.0
 20
5.0
 30
0.0
 11
0.0
 21
-130.0
 31
0.0
  0
LINE
  5
3B
100
AcDbEntity
  8
0
  6
CONTINUOUS
 62
               7
100
AcDbLine
 10
-35.707142142714417
 20
-55.349999999999966
 30
0.0
 11
-35.707142142714417
 21
-69.0
 31
0.0
  0
LINE
  5
3C
100
AcDbEntity
  8
0
  6
CONTINUOUS
 62
               7
100
AcDbLine
 10
35.707142142714424
 20
-55.349999999999966
 30
0.0
 11
35.707142142714424
 21
-69.0
 31
0.0
  0
LINE
  5
3D
100
AcDbEntity
  8
0
  6
CONTINUOUS
 62
               7
100
AcDbLine
 10
-35.707142142714417
 20
-10.0
 30
0.0
 11
-35.707142142714417
 21
-50.650000000000034
 31
0.0
  0
LINE
  5
3E
100
AcDbEntity
  8
0
  6
CONTINUOUS
 62
               7
100
AcDbLine
 10
35.707142142714424
 20
-10.0
 30
0.0
 11
35.707142142714424
 21
-50.650000000000034
 31
0.0
  0
LINE
  5
3F
100
AcDbEntity
  8
0
  6
CONTINUOUS
 62
               2
100
AcDbLine
 10
-21.0
 20
-38.723306770324712
 30
0.0
 11
-21.0
 21
-7.4999999999999432
 31
0.0
  0
LINE
  5
40
100
AcDbEntity
  8
0
  6
CONTINUOUS
 62
               2
100
AcDbLine
 10
21.0
 20
-39.0759618392932
 30
0.0
 11
21.0
 21
-7.4999999999999432
 31
0.0
  0
LINE
  5
41
100
AcDbEntity
  8
0
  6
CONTINUOUS
 62
               2
100
AcDbLine
 10
11.0
 20
-17.5
 30
0.0
 11
31.0
 21
-17.5
 31
0.0
  0
LINE
  5
42
100
AcDbEntity
  8
0
  6
CONTINUOUS
 62
               2
100
AcDbLine
 10
-31.0
 20
-17.5
 30
0.0
 11
-11.0
 21
-17.5
 31
0.0
  0
LINE
  5
43
100
AcDbEntity
  8
0
  6
CONTINUOUS
 62
               7
100
AcDbLine
 10
-27.5
 20
-69.0
 30
0.0
 11
37.999999999999801
 21
-69.0
 31
0.0
  0
LINE
  5
44
100
AcDbEntity
  8
0
  6
CONTINUOUS
 62
               7
100
AcDbLine
 10
27.5
 20
-72.0
 30
0.0
 11
27.5
 21
-69.0
 31
0.0
  0
LINE
  5
45
100
AcDbEntity
  8
0
  6
CONTINUOUS
 62
               7
100
AcDbLine
 10
25.49509756796391
 20
-72.0
 30
0.0
 11
25.49509756796391
 21
-69.0
 31
0.0
  0
LINE
  5
46
100
AcDbEntity
  8
0
  6
CONTINUOUS
 62
               7
100
AcDbLine
 10
27.5
 20
-72.0
 30
0.0
 11
-27.5
 21
-72.0
 31
0.0
  0
LINE
  5
47
100
AcDbEntity
  8
0
  6
CONTINUOUS
 62
               7
100
AcDbLine
 10
-27.5
 20
-72.0
 30
0.0
 11
-27.5
 21
-69.0
 31
0.0
  0
LINE
  5
48
100
AcDbEntity
  8
0
  6
CONTINUOUS
 62
               7
100
AcDbLine
 10
-25.49509756796391
 20
-72.0
 30
0.0
 11
-25.49509756796391
 21
-69.0
 31
0.0
  0
LINE
  5
49
100
AcDbEntity
  8
0
  6
CONTINUOUS
 62
               2
100
AcDbLine
 10
-23.624942347989077
 20
-53.0
 30
0.0
 11
-39.602884048183739
 21
-53.0
 31
0.0
  0
LINE
  5
4A
100
AcDbEntity
  8
0
  6
CONTINUOUS
 62
               7
100
AcDbLine
 10
-37.999999999999773
 20
-69.0
 30
0.0
 11
-37.999999999999773
 21
-55.349999999999966
 31
0.0
  0
LINE
  5
4B
100
AcDbEntity
  8
0
  6
CONTINUOUS
 62
               2
100
AcDbLine
 10
28.247482318725616
 20
-31.0
 30
0.0
 11
13.5
 21
-31.0
 31
0.0
  0
LINE
  5
4C
100
AcDbEntity
  8
0
  6
CONTINUOUS
 62
               2
100
AcDbLine
 10
-28.247482318725588
 20
-31.0
 30
0.0
 11
-13.5
 21
-31.0
 31
0.0
  0
LINE
  5
4D
100
AcDbEntity
  8
0
  6
CONTINUOUS
 62
               7
100
AcDbLine
 10
-27.0
 20
-72.0
 30
0.0
 11
-27.0
 21
-116.0
 31
0.0
  0
LINE
  5
4E
100
AcDbEntity
  8
0
  6
CONTINUOUS
 62
               7
100
AcDbLine
 10
27.0
 20
-72.0
 30
0.0
 11
27.0
 21
-116.0
 31
0.0
  0
LINE
  5
4F
100
AcDbEntity
  8
0
  6
CONTINUOUS
 62
               7
100
AcDbLine
 10
25.0
 20
-91.0
 30
0.0
 11
19.0
 21
-91.0
 31
0.0
  0
LINE
  5
50
100
AcDbEntity
  8
0
  6
CONTINUOUS
 62
               7
100
AcDbLine
 10
25.5
 20
-87.0
 30
0.0
 11
25.5
 21
-90.5
 31
0.0
  0
LINE
  5
51
100
AcDbEntity
  8
0
  6
CONTINUOUS
 62
               7
100
AcDbLine
 10
18.5
 20
-87.0
 30
0.0
 11
18.5
 21
-90.500000000000057
 31
0.0
  0
LINE
  5
52
100
AcDbEntity
  8
0
  6
CONTINUOUS
 62
               7
100
AcDbLine
 10
25.5
 20
-90.5
 30
0.0
 11
18.5
 21
-90.5
 31
0.0
  0
LINE
  5
53
100
AcDbEntity
  8
0
  6
CONTINUOUS
 62
               7
100
AcDbLine
 10
25.5
 20
-90.5
 30
0.0
 11
25.0
 21
-91.0
 31
0.0
  0
LINE
  5
54
100
AcDbEntity
  8
0
  6
CONTINUOUS
 62
               7
100
AcDbLine
 10
19.0
 20
-91.0
 30
0.0
 11
18.5
 21
-90.500000000000057
 31
0.0
  0
LINE
  5
55
100
AcDbEntity
  8
0
  6
CONTINUOUS
 62
               7
100
AcDbLine
 10
-25.5
 20
-90.5
 30
0.0
 11
-18.5
 21
-90.5
 31
0.0
  0
LINE
  5
56
100
AcDbEntity
  8
0
  6
CONTINUOUS
 62
               7
100
AcDbLine
 10
-24.999999999999886
 20
-91.0
 30
0.0
 11
-19.0
 21
-91.0
 31
0.0
  0
LINE
  5
57
100
AcDbEntity
  8
0
  6
CONTINUOUS
 62
               7
100
AcDbLine
 10
-25.5
 20
-87.0
 30
0.0
 11
-25.5
 21
-90.5
 31
0.0
  0
LINE
  5
58
100
AcDbEntity
  8
0
  6
CONTINUOUS
 62
               7
100
AcDbLine
 10
-25.5
 20
-90.5
 30
0.0
 11
-24.999999999999886
 21
-91.0
 31
0.0
  0
LINE
  5
59
100
AcDbEntity
  8
0
  6
CONTINUOUS
 62
               7
100
AcDbLine
 10
-19.0
 20
-91.0
 30
0.0
 11
-18.5
 21
-90.500000000000057
 31
0.0
  0
LINE
  5
5A
100
AcDbEntity
  8
0
  6
CONTINUOUS
 62
               7
100
AcDbLine
 10
-18.5
 20
-87.0
 30
0.0
 11
-18.5
 21
-90.500000000000057
 31
0.0
  0
LINE
  5
5B
100
AcDbEntity
  8
0
  6
CONTINUOUS
 62
               7
100
AcDbLine
 10
3.0
 20
-120.0
 30
0.0
 11
4.0
 21
-119.0
 31
0.0
  0
LINE
  5
5C
100
AcDbEntity
  8
0
  6
CONTINUOUS
 62
               7
100
AcDbLine
 10
4.0
 20
-118.0
 30
0.0
 11
4.0
 21
-119.0
 31
0.0
  0
LINE
  5
5D
100
AcDbEntity
  8
0
  6
CONTINUOUS
 62
               7
100
AcDbLine
 10
27.0
 20
-87.0
 30
0.0
 11
-27.0
 21
-87.0
 31
0.0
  0
LINE
  5
5E
100
AcDbEntity
  8
0
  6
CONTINUOUS
 62
               7
100
AcDbLine
 10
10.0
 20
-118.0
 30
0.0
 11
-10.0
 21
-118.0
 31
0.0
  0
LINE
  5
5F
100
AcDbEntity
  8
0
  6
CONTINUOUS
 62
               7
100
AcDbLine
 10
-3.5
 20
-125.0
 30
0.0
 11
3.0
 21
-125.0
 31
0.0
  0
LINE
  5
60
100
AcDbEntity
  8
0
  6
CONTINUOUS
 62
               7
100
AcDbLine
 10
-4.0
 20
-118.0
 30
0.0
 11
-4.0
 21
-124.5
 31
0.0
  0
LINE
  5
61
100
AcDbEntity
  8
0
  6
CONTINUOUS
 62
               7
100
AcDbLine
 10
3.0
 20
-120.0
 30
0.0
 11
3.0
 21
-125.0
 31
0.0
  0
LINE
  5
62
100
AcDbEntity
  8
0
  6
CONTINUOUS
 62
               7
100
AcDbLine
 10
-3.5
 20
-125.0
 30
0.0
 11
-4.0
 21
-124.5
 31
0.0
  0
LINE
  5
63
100
AcDbEntity
  8
0
  6
CONTINUOUS
 62
               7
100
AcDbLine
 10
-4.0
 20
-124.5
 30
0.0
 11
3.0
 21
-124.5
 31
0.0
  0
LINE
  5
64
100
AcDbEntity
  8
0
  6
CONTINUOUS
 62
               7
100
AcDbLine
 10
-18.0
 20
-87.0
 30
0.0
 11
-18.0
 21
-116.0
 31
0.0
  0
LINE
  5
65
100
AcDbEntity
  8
0
  6
CONTINUOUS
 62
               7
100
AcDbLine
 10
18.0
 20
-87.0
 30
0.0
 11
18.0
 21
-116.0
 31
0.0
  0
LINE
  5
66
100
AcDbEntity
  8
0
  6
CONTINUOUS
 62
               7
100
AcDbLine
 10
27.0
 20
-116.0
 30
0.0
 11
-27.0
 21
-116.0
 31
0.0
  0
LINE
  5
67
100
AcDbEntity
  8
0
  6
CONTINUOUS
 62
               7
100
AcDbLine
 10
-10.0
 20
-116.0
 30
0.0
 11
-10.0
 21
-118.0
 31
0.0
  0
LINE
  5
68
100
AcDbEntity
  8
0
  6
CONTINUOUS
 62
               7
100
AcDbLine
 10
10.0
 20
-116.0
 30
0.0
 11
10.0
 21
-118.0
 31
0.0
  0
LINE
  5
69
100
AcDbEntity
  8
0
  6
CONTINUOUS
 62
               2
100
AcDbLine
 10
-7.5
 20
-99.0
 30
0.0
 11
-7.5
 21
-107.0
 31
0.0
  0
LINE
  5
6A
100
AcDbEntity
  8
0
  6
CONTINUOUS
 62
               2
100
AcDbLine
 10
-3.5
 20
-103.0
 30
0.0
 11
-11.5
 21
-103.0
 31
0.0
  0
LINE
  5
6B
100
AcDbEntity
  8
0
  6
CONTINUOUS
 62
               2
100
AcDbLine
 10
3.5
 20
-103.0
 30
0.0
 11
11.5
 21
-103.0
 31
0.0
  0
LINE
  5
6C
100
AcDbEntity
  8
0
  6
CONTINUOUS
 62
               2
100
AcDbLine
 10
7.5
 20
-99.0
 30
0.0
 11
7.5
 21
-107.0
 31
0.0
  0
CIRCLE
  5
6D
100
AcDbEntity
  8
0
  6
CONTINUOUS
 62
               2
100
AcDbCircle
 10
-7.5
 20
-103.0
 30
0.0
 40
2.5
  0
CIRCLE
  5
6E
100
AcDbEntity
  8
0
  6
CONTINUOUS
 62
               7
100
AcDbCircle
 10
-7.5
 20
-103.0
 30
0.0
 40
2.0999994277954102
  0
CIRCLE
  5
6F
100
AcDbEntity
  8
0
  6
CONTINUOUS
 62
               2
100
AcDbCircle
 10
7.5
 20
-103.0
 30
0.0
 40
2.5
  0
CIRCLE
  5
70
100
AcDbEntity
  8
0
  6
CONTINUOUS
 62
               7
100
AcDbCircle
 10
7.5
 20
-103.0
 30
0.0
 40
2.0999994277954102
  0
LINE
  5
71
100
AcDbEntity
  8
0
  6
CONTINUOUS
 62
               7
100
AcDbLine
 10
-25.5
 20
-7.5
 30
0.0
 11
-25.5
 21
-8.0
 31
0.0
  0
LINE
  5
72
100
AcDbEntity
  8
0
  6
CONTINUOUS
 62
               7
100
AcDbLine
 10
-27.0
 20
-7.5
 30
0.0
 11
27.0
 21
-7.5
 31
0.0
  0
LINE
  5
73
100
AcDbEntity
  8
0
  6
CONTINUOUS
 62
               7
100
AcDbLine
 10
25.5
 20
-7.5
 30
0.0
 11
25.5
 21
-8.0
 31
0.0
  0
LINE
  5
74
100
AcDbEntity
  8
0
  6
CONTINUOUS
 62
               7
100
AcDbLine
 10
-28.0
 20
-8.0
 30
0.0
 11
-28.0
 21
-10.0
 31
0.0
  0
LINE
  5
75
100
AcDbEntity
  8
0
  6
CONTINUOUS
 62
               7
100
AcDbLine
 10
-28.0
 20
-8.0
 30
0.0
 11
28.0
 21
-8.0
 31
0.0
  0
LINE
  5
76
100
AcDbEntity
  8
0
  6
CONTINUOUS
 62
               7
100
AcDbLine
 10
28.0
 20
-8.0
 30
0.0
 11
28.0
 21
-10.0
 31
0.0
  0
LINE
  5
77
100
AcDbEntity
  8
0
  6
CONTINUOUS
 62
               7
100
AcDbLine
 10
-37.999999999999773
 20
-10.0
 30
0.0
 11
37.999999999999773
 21
-10.0
 31
0.0
  0
LINE
  5
78
100
AcDbEntity
  8
0
  6
CONTINUOUS
 62
               7
100
AcDbLine
 10
-27.5
 20
-69.0
 30
0.0
 11
-37.999999999999773
 21
-69.0
 31
0.0
  0
LINE
  5
79
100
AcDbEntity
  8
0
  6
DASHED
 62
               2
100
AcDbLine
 10
10.0
 20
-6.0
 30
0.0
 11
-10.0
 21
-6.0
 31
0.0
  0
CIRCLE
  5
7A
100
AcDbEntity
  8
0
  6
CONTINUOUS
 62
               7
100
AcDbCircle
 10
-21.0
 20
-31.0
 30
0.0
 40
5.5
  0
CIRCLE
  5
7B
100
AcDbEntity
  8
0
  6
CONTINUOUS
 62
               7
100
AcDbCircle
 10
21.0
 20
-31.0
 30
0.0
 40
5.5
  0
CIRCLE
  5
7C
100
AcDbEntity
  8
0
  6
CONTINUOUS
 62
               7
100
AcDbCircle
 10
21.0
 20
-31.0
 30
0.0
 40
3.2999999999999998
  0
CIRCLE
  5
7D
100
AcDbEntity
  8
0
  6
CONTINUOUS
 62
               7
100
AcDbCircle
 10
-21.0
 20
-31.0
 30
0.0
 40
3.2999999999999998
  0
LINE
  5
7E
100
AcDbEntity
  8
0
  6
CONTINUOUS
 62
               7
100
AcDbLine
 10
25.960726710555036
 20
-33.375119050318489
 30
0.0
 11
23.291028043655103
 21
-33.375119050318489
 31
0.0
  0
LINE
  5
7F
100
AcDbEntity
  8
0
  6
CONTINUOUS
 62
               7
100
AcDbLine
 10
18.708971956344897
 20
-33.375119050318489
 30
0.0
 11
16.039273289444964
 21
-33.375119050318489
 31
0.0
  0
LINE
  5
80
100
AcDbEntity
  8
0
  6
CONTINUOUS
 62
               7
100
AcDbLine
 10
-18.708971956344897
 20
-33.375119050318489
 30
0.0
 11
-16.039273289444964
 21
-33.375119050318489
 31
0.0
  0
LINE
  5
81
100
AcDbEntity
  8
0
  6
CONTINUOUS
 62
               7
100
AcDbLine
 10
-25.960726710555036
 20
-33.375119050318489
 30
0.0
 11
-23.291028043655103
 21
-33.375119050318489
 31
0.0
  0
LINE
  5
82
100
AcDbEntity
  8
0
  6
CONTINUOUS
 62
               7
100
AcDbLine
 10
-29.188854381999874
 20
-50.650000000000034
 30
0.0
 11
-37.999999999999773
 21
-50.650000000000034
 31
0.0
  0
LINE
  5
83
100
AcDbEntity
  8
0
  6
CONTINUOUS
 62
               7
100
AcDbLine
 10
-29.188854381999874
 20
-55.349999999999966
 30
0.0
 11
-37.999999999999773
 21
-55.349999999999966
 31
0.0
  0
ARC
  5
84
100
AcDbEntity
  8
0
  6
CONTINUOUS
 62
               7
100
AcDbCircle
 10
-26.900000000000034
 20
-53.0
 30
0.0
 40
2.3999999999999999
100
AcDbArc
 50
221.81031489577748
 51
138.18968510422241
  0
LINE
  5
85
100
AcDbEntity
  8
0
  6
CONTINUOUS
 62
               7
100
AcDbLine
 10
-28.688854381999874
 20
-54.599999999999966
 30
0.0
 11
-29.188854381999874
 21
-54.599999999999966
 31
0.0
  0
LINE
  5
86
100
AcDbEntity
  8
0
  6
CONTINUOUS
 62
               7
100
AcDbLine
 10
-29.188854381999874
 20
-54.599999999999966
 30
0.0
 11
-29.188854381999874
 21
-55.349999999999966
 31
0.0
  0
LINE
  5
87
100
AcDbEntity
  8
0
  6
CONTINUOUS
 62
               7
100
AcDbLine
 10
-28.688854381999874
 20
-51.400000000000034
 30
0.0
 11
-29.188854381999874
 21
-51.400000000000034
 31
0.0
  0
LINE
  5
88
100
AcDbEntity
  8
0
  6
CONTINUOUS
 62
               7
100
AcDbLine
 10
-29.188854381999874
 20
-51.400000000000034
 30
0.0
 11
-29.188854381999874
 21
-50.650000000000034
 31
0.0
  0
LINE
  5
89
100
AcDbEntity
  8
0
  6
CONTINUOUS
 62
               2
100
AcDbLine
 10
-26.900000000000034
 20
-57.357846582220134
 30
0.0
 11
-26.900000000000034
 21
-48.808120569505377
 31
0.0
  0
LINE
  5
8A
100
AcDbEntity
  8
0
  6
CONTINUOUS
 62
               7
100
AcDbLine
 10
-37.999999999999773
 20
-50.650000000000034
 30
0.0
 11
-37.999999999999773
 21
-10.0
 31
0.0
  0
LINE
  5
8B
100
AcDbEntity
  8
0
  6
CONTINUOUS
 62
               7
100
AcDbLine
 10
37.999999999999773
 20
-69.0
 30
0.0
 11
37.999999999999773
 21
-55.349999999999966
 31
0.0
  0
LINE
  5
8C
100
AcDbEntity
  8
0
  6
CONTINUOUS
 62
               2
100
AcDbLine
 10
23.624942347989077
 20
-53.0
 30
0.0
 11
39.602884048183753
 21
-53.0
 31
0.0
  0
LINE
  5
8D
100
AcDbEntity
  8
0
  6
CONTINUOUS
 62
               2
100
AcDbLine
 10
26.900000000000034
 20
-57.11562428485874
 30
0.0
 11
26.900000000000034
 21
-48.808120569505377
 31
0.0
  0
LINE
  5
8E
100
AcDbEntity
  8
0
  6
CONTINUOUS
 62
               7
100
AcDbLine
 10
37.999999999999773
 20
-50.650000000000034
 30
0.0
 11
37.999999999999773
 21
-10.0
 31
0.0
  0
LINE
  5
8F
100
AcDbEntity
  8
0
  6
CONTINUOUS
 62
               7
100
AcDbLine
 10
29.188854381999874
 20
-51.400000000000034
 30
0.0
 11
29.188854381999874
 21
-50.650000000000034
 31
0.0
  0
LINE
  5
90
100
AcDbEntity
  8
0
  6
CONTINUOUS
 62
               7
100
AcDbLine
 10
28.688854381999874
 20
-51.400000000000034
 30
0.0
 11
29.188854381999874
 21
-51.400000000000034
 31
0.0
  0
LINE
  5
91
100
AcDbEntity
  8
0
  6
CONTINUOUS
 62
               7
100
AcDbLine
 10
29.188854381999874
 20
-54.599999999999966
 30
0.0
 11
29.188854381999874
 21
-55.349999999999966
 31
0.0
  0
LINE
  5
92
100
AcDbEntity
  8
0
  6
CONTINUOUS
 62
               7
100
AcDbLine
 10
28.688854381999874
 20
-54.599999999999966
 30
0.0
 11
29.188854381999874
 21
-54.599999999999966
 31
0.0
  0
ARC
  5
93
100
AcDbEntity
  8
0
  6
CONTINUOUS
 62
               7
100
AcDbCircle
 10
26.900000000000034
 20
-53.0
 30
0.0
 40
2.3999999999999999
100
AcDbArc
 50
41.810314895777545
 51
318.18968510422252
  0
LINE
  5
94
100
AcDbEntity
  8
0
  6
CONTINUOUS
 62
               7
100
AcDbLine
 10
29.188854381999874
 20
-55.349999999999966
 30
0.0
 11
37.999999999999773
 21
-55.349999999999966
 31
0.0
  0
LINE
  5
95
100
AcDbEntity
  8
0
  6
CONTINUOUS
 62
               7
100
AcDbLine
 10
29.188854381999874
 20
-50.650000000000034
 30
0.0
 11
37.999999999999773
 21
-50.650000000000034
 31
0.0
  0
LINE
  5
96
100
AcDbEntity
  8
0
  6
CONTINUOUS
 62
               7
100
AcDbLine
 10
27.0
 20
0.0
 30
0.0
 11
-27.0
 21
0.0
 31
0.0
  0
LINE
  5
97
100
AcDbEntity
  8
0
  6
CONTINUOUS
 62
               7
100
AcDbLine
 10
21.000000000000057
 20
-24.42999999999995
 30
0.0
 11
27.000000000000057
 21
-20.96999999999997
 31
0.0
  0
LINE
  5
98
100
AcDbEntity
  8
0
  6
CONTINUOUS
 62
               7
100
AcDbLine
 10
15.000000000000057
 20
-20.96999999999997
 30
0.0
 11
21.000000000000057
 21
-24.42999999999995
 31
0.0
  0
LINE
  5
99
100
AcDbEntity
  8
0
  6
CONTINUOUS
 62
               7
100
AcDbLine
 10
21.000000000000057
 20
-10.579999999999927
 30
0.0
 11
27.000000000000057
 21
-14.039999999999964
 31
0.0
  0
LINE
  5
9A
100
AcDbEntity
  8
0
  6
CONTINUOUS
 62
               7
100
AcDbLine
 10
15.000000000000057
 20
-14.039999999999964
 30
0.0
 11
21.000000000000057
 21
-10.579999999999927
 31
0.0
  0
LINE
  5
9B
100
AcDbEntity
  8
0
  6
CONTINUOUS
 62
               7
100
AcDbLine
 10
15.000000000000057
 20
-14.039999999999964
 30
0.0
 11
15.000000000000057
 21
-20.96999999999997
 31
0.0
  0
LINE
  5
9C
100
AcDbEntity
  8
0
  6
CONTINUOUS
 62
               7
100
AcDbLine
 10
27.000000000000057
 20
-14.039999999999964
 30
0.0
 11
27.000000000000057
 21
-20.96999999999997
 31
0.0
  0
CIRCLE
  5
9D
100
AcDbEntity
  8
0
  6
CONTINUOUS
 62
               7
100
AcDbCircle
 10
21.000000000000057
 20
-17.5
 30
0.0
 40
4.25
  0
CIRCLE
  5
9E
100
AcDbEntity
  8
0
  6
CONTINUOUS
 62
               7
100
AcDbCircle
 10
21.000000000000057
 20
-17.5
 30
0.0
 40
5.0
  0
CIRCLE
  5
9F
100
AcDbEntity
  8
0
  6
CONTINUOUS
 62
               7
100
AcDbCircle
 10
21.000000000000057
 20
-17.5
 30
0.0
 40
6.0
  0
CIRCLE
  5
A0
100
AcDbEntity
  8
0
  6
CONTINUOUS
 62
               7
100
AcDbCircle
 10
21.000000000000057
 20
-17.5
 30
0.0
 40
2.75
  0
CIRCLE
  5
A1
100
AcDbEntity
  8
0
  6
CONTINUOUS
 62
               7
100
AcDbCircle
 10
21.000000000000057
 20
-17.5
 30
0.0
 40
2.1500000953674316
  0
CIRCLE
  5
A2
100
AcDbEntity
  8
0
  6
CONTINUOUS
 62
               7
100
AcDbCircle
 10
21.000000000000057
 20
-17.5
 30
0.0
 40
2.25
  0
CIRCLE
  5
A3
100
AcDbEntity
  8
0
  6
CONTINUOUS
 62
               7
100
AcDbCircle
 10
21.000000000000057
 20
-17.5
 30
0.0
 40
3.9500000000000002
  0
LINE
  5
A4
100
AcDbEntity
  8
0
  6
CONTINUOUS
 62
               7
100
AcDbLine
 10
25.500000000000057
 20
-15.32055052822966
 30
0.0
 11
25.500000000000057
 21
-19.679449471770283
 31
0.0
  0
LINE
  5
A5
100
AcDbEntity
  8
0
  6
CONTINUOUS
 62
               7
100
AcDbLine
 10
16.500000000000057
 20
-15.32055052822966
 30
0.0
 11
16.500000000000057
 21
-19.679449471770283
 31
0.0
  0
LINE
  5
A6
100
AcDbEntity
  8
0
  6
CONTINUOUS
 62
               2
100
AcDbLine
 10
22.060660171779887
 20
-18.560660171779773
 30
0.0
 11
19.939339828220227
 21
-16.439339828220113
 31
0.0
  0
LINE
  5
A7
100
AcDbEntity
  8
0
  6
CONTINUOUS
 62
               2
100
AcDbLine
 10
19.939339828220227
 20
-18.560660171779773
 30
0.0
 11
22.060660171779887
 21
-16.439339828220113
 31
0.0
  0
LINE
  5
A8
100
AcDbEntity
  8
0
  6
CONTINUOUS
 62
               7
100
AcDbLine
 10
-20.999999999999943
 20
-24.42999999999995
 30
0.0
 11
-14.999999999999943
 21
-20.96999999999997
 31
0.0
  0
LINE
  5
A9
100
AcDbEntity
  8
0
  6
CONTINUOUS
 62
               7
100
AcDbLine
 10
-26.999999999999943
 20
-20.96999999999997
 30
0.0
 11
-20.999999999999943
 21
-24.42999999999995
 31
0.0
  0
LINE
  5
AA
100
AcDbEntity
  8
0
  6
CONTINUOUS
 62
               7
100
AcDbLine
 10
-20.999999999999943
 20
-10.579999999999927
 30
0.0
 11
-14.999999999999943
 21
-14.039999999999964
 31
0.0
  0
LINE
  5
AB
100
AcDbEntity
  8
0
  6
CONTINUOUS
 62
               7
100
AcDbLine
 10
-26.999999999999943
 20
-14.039999999999964
 30
0.0
 11
-20.999999999999943
 21
-10.579999999999927
 31
0.0
  0
LINE
  5
AC
100
AcDbEntity
  8
0
  6
CONTINUOUS
 62
               7
100
AcDbLine
 10
-26.999999999999943
 20
-14.039999999999964
 30
0.0
 11
-26.999999999999943
 21
-20.96999999999997
 31
0.0
  0
LINE
  5
AD
100
AcDbEntity
  8
0
  6
CONTINUOUS
 62
               7
100
AcDbLine
 10
-14.999999999999943
 20
-14.039999999999964
 30
0.0
 11
-14.999999999999943
 21
-20.96999999999997
 31
0.0
  0
CIRCLE
  5
AE
100
AcDbEntity
  8
0
  6
CONTINUOUS
 62
               7
100
AcDbCircle
 10
-20.999999999999943
 20
-17.5
 30
0.0
 40
4.25
  0
CIRCLE
  5
AF
100
AcDbEntity
  8
0
  6
CONTINUOUS
 62
               7
100
AcDbCircle
 10
-20.999999999999943
 20
-17.5
 30
0.0
 40
5.0
  0
CIRCLE
  5
B0
100
AcDbEntity
  8
0
  6
CONTINUOUS
 62
               7
100
AcDbCircle
 10
-20.999999999999943
 20
-17.5
 30
0.0
 40
6.0
  0
CIRCLE
  5
B1
100
AcDbEntity
  8
0
  6
CONTINUOUS
 62
               7
100
AcDbCircle
 10
-20.999999999999943
 20
-17.5
 30
0.0
 40
2.75
  0
CIRCLE
  5
B2
100
AcDbEntity
  8
0
  6
CONTINUOUS
 62
               7
100
AcDbCircle
 10
-20.999999999999943
 20
-17.5
 30
0.0
 40
2.1500000953674316
  0
CIRCLE
  5
B3
100
AcDbEntity
  8
0
  6
CONTINUOUS
 62
               7
100
AcDbCircle
 10
-20.999999999999943
 20
-17.5
 30
0.0
 40
2.25
  0
CIRCLE
  5
B4
100
AcDbEntity
  8
0
  6
CONTINUOUS
 62
               7
100
AcDbCircle
 10
-20.999999999999943
 20
-17.5
 30
0.0
 40
3.9500000000000002
  0
LINE
  5
B5
100
AcDbEntity
  8
0
  6
CONTINUOUS
 62
               7
100
AcDbLine
 10
-16.499999999999943
 20
-15.32055052822966
 30
0.0
 11
-16.499999999999943
 21
-19.679449471770283
 31
0.0
  0
LINE
  5
B6
100
AcDbEntity
  8
0
  6
CONTINUOUS
 62
               7
100
AcDbLine
 10
-25.499999999999943
 20
-15.32055052822966
 30
0.0
 11
-25.499999999999943
 21
-19.679449471770283
 31
0.0
  0
LINE
  5
B7
100
AcDbEntity
  8
0
  6
CONTINUOUS
 62
               2
100
AcDbLine
 10
-19.939339828220113
 20
-18.560660171779773
 30
0.0
 11
-22.060660171779773
 21
-16.439339828220113
 31
0.0
  0
LINE
  5
B8
100
AcDbEntity
  8
0
  6
CONTINUOUS
 62
               2
100
AcDbLine
 10
-22.060660171779773
 20
-18.560660171779773
 30
0.0
 11
-19.939339828220113
 21
-16.439339828220113
 31
0.0
  0
CIRCLE
  5
B9
100
AcDbEntity
  8
0
  6
CONTINUOUS
 62
               2
100
AcDbCircle
 10
21.0
 20
-17.5
 30
0.0
 40
4.5
  0
CIRCLE
  5
BA
100
AcDbEntity
  8
0
  6
CONTINUOUS
 62
               2
100
AcDbCircle
 10
-21.0
 20
-17.5
 30
0.0
 40
4.5
  0
LINE
  5
BB
100
AcDbEntity
  8
0
  6
CONTINUOUS
 62
               2
100
AcDbLine
 10
-33.0
 20
-13.0
 30
0.0
 11
-33.0
 21
-7.0
 31
0.0
  0
LINE
  5
BC
100
AcDbEntity
  8
0
  6
CONTINUOUS
 62
               2
100
AcDbLine
 10
33.0
 20
-13.0
 30
0.0
 11
33.0
 21
-7.0
 31
0.0
  0
ENDBLK
  5
BD
100
AcDbEntity
  8
0
100
AcDbBlockEnd
  0
BLOCK
  5
BE
100
AcDbEntity
  8
0
100
AcDbBlockBegin
  2
RAG20-SS2-2
 70
               0
 10
0.0
 20
0.0
 30
0.0
  3
RAG20-SS2-2
  1

  0
LINE
  5
BF
100
AcDbEntity
  8
0
  6
CONTINUOUS
 62
               7
100
AcDbLine
 10
-4.0
 20
-118.0
 30
0.0
 11
-4.0
 21
-124.5
 31
0.0
  0
LINE
  5
C0
100
AcDbEntity
  8
0
  6
CONTINUOUS
 62
               7
100
AcDbLine
 10
4.0
 20
-118.0
 30
0.0
 11
4.0
 21
-124.5
 31
0.0
  0
LINE
  5
C1
100
AcDbEntity
  8
0
  6
CONTINUOUS
 62
               2
100
AcDbLine
 10
0.0
 20
-130.0
 30
0.0
 11
0.0
 21
5.0
 31
0.0
  0
LINE
  5
C2
100
AcDbEntity
  8
0
  6
CONTINUOUS
 62
               7
100
AcDbLine
 10
-25.922962793631257
 20
-55.349999999999966
 30
0.0
 11
-25.922962793631257
 21
-69.0
 31
0.0
  0
LINE
  5
C3
100
AcDbEntity
  8
0
  6
CONTINUOUS
 62
               7
100
AcDbLine
 10
25.922962793631626
 20
-55.349999999999966
 30
0.0
 11
25.922962793631626
 21
-69.0
 31
0.0
  0
LINE
  5
C4
100
AcDbEntity
  8
0
  6
CONTINUOUS
 62
               7
100
AcDbLine
 10
25.922962793631626
 20
-10.0
 30
0.0
 11
25.922962793631626
 21
-50.650000000000034
 31
0.0
  0
LINE
  5
C5
100
AcDbEntity
  8
0
  6
CONTINUOUS
 62
               7
100
AcDbLine
 10
-25.922962793631257
 20
-10.0
 30
0.0
 11
-25.922962793631257
 21
-50.650000000000034
 31
0.0
  0
LINE
  5
C6
100
AcDbEntity
  8
0
  6
CONTINUOUS
 62
               7
100
AcDbLine
 10
28.999999999999773
 20
-69.0
 30
0.0
 11
28.999999999999773
 21
-10.0
 31
0.0
  0
LINE
  5
C7
100
AcDbEntity
  8
0
  6
CONTINUOUS
 62
               7
100
AcDbLine
 10
-28.999999999999773
 20
-69.0
 30
0.0
 11
-28.999999999999773
 21
-10.0
 31
0.0
  0
LINE
  5
C8
100
AcDbEntity
  8
0
  6
CONTINUOUS
 62
               7
100
AcDbLine
 10
-25.5
 20
-7.5
 30
0.0
 11
-25.5
 21
-8.0
 31
0.0
  0
LINE
  5
C9
100
AcDbEntity
  8
0
  6
CONTINUOUS
 62
               7
100
AcDbLine
 10
25.5
 20
-7.5
 30
0.0
 11
25.5
 21
-8.0
 31
0.0
  0
ARC
  5
CA
100
AcDbEntity
  8
0
  6
CONTINUOUS
 62
               7
100
AcDbCircle
 10
0.0
 20
-47.0
 30
0.0
 40
2.0
100
AcDbArc
 50
180.0
 51
0.0
  0
ARC
  5
CB
100
AcDbEntity
  8
0
  6
CONTINUOUS
 62
               7
100
AcDbCircle
 10
0.0
 20
-45.0
 30
0.0
 40
2.0
100
AcDbArc
 50
0.0
 51
180.0
  0
LINE
  5
CC
100
AcDbEntity
  8
0
  6
CONTINUOUS
 62
               7
100
AcDbLine
 10
-2.0
 20
-45.0
 30
0.0
 11
-2.0
 21
-47.0
 31
0.0
  0
LINE
  5
CD
100
AcDbEntity
  8
0
  6
CONTINUOUS
 62
               7
100
AcDbLine
 10
2.0
 20
-45.0
 30
0.0
 11
2.0
 21
-47.0
 31
0.0
  0
LINE
  5
CE
100
AcDbEntity
  8
0
  6
CONTINUOUS
 62
               7
100
AcDbLine
 10
28.0
 20
-8.0
 30
0.0
 11
28.0
 21
-10.0
 31
0.0
  0
LINE
  5
CF
100
AcDbEntity
  8
0
  6
CONTINUOUS
 62
               7
100
AcDbLine
 10
-28.0
 20
-8.0
 30
0.0
 11
-28.0
 21
-10.0
 31
0.0
  0
LINE
  5
D0
100
AcDbEntity
  8
0
  6
CONTINUOUS
 62
               7
100
AcDbLine
 10
28.999999999999773
 20
-10.0
 30
0.0
 11
-28.999999999999773
 21
-10.0
 31
0.0
  0
LINE
  5
D1
100
AcDbEntity
  8
0
  6
CONTINUOUS
 62
               7
100
AcDbLine
 10
-28.0
 20
-8.0
 30
0.0
 11
28.0
 21
-8.0
 31
0.0
  0
LINE
  5
D2
100
AcDbEntity
  8
0
  6
CONTINUOUS
 62
               7
100
AcDbLine
 10
27.0
 20
0.0
 30
0.0
 11
-27.0
 21
0.0
 31
0.0
  0
LINE
  5
D3
100
AcDbEntity
  8
0
  6
CONTINUOUS
 62
               7
100
AcDbLine
 10
27.0
 20
-7.5
 30
0.0
 11
-27.0
 21
-7.5
 31
0.0
  0
LINE
  5
D4
100
AcDbEntity
  8
0
  6
CONTINUOUS
 62
               7
100
AcDbLine
 10
27.0
 20
0.0
 30
0.0
 11
27.0
 21
-7.5
 31
0.0
  0
LINE
  5
D5
100
AcDbEntity
  8
0
  6
CONTINUOUS
 62
               7
100
AcDbLine
 10
-27.0
 20
0.0
 30
0.0
 11
-27.0
 21
-7.5
 31
0.0
  0
LINE
  5
D6
100
AcDbEntity
  8
0
  6
CONTINUOUS
 62
               7
100
AcDbLine
 10
10.0
 20
-116.0
 30
0.0
 11
10.0
 21
-118.0
 31
0.0
  0
LINE
  5
D7
100
AcDbEntity
  8
0
  6
CONTINUOUS
 62
               7
100
AcDbLine
 10
-10.0
 20
-116.0
 30
0.0
 11
-10.0
 21
-118.0
 31
0.0
  0
LINE
  5
D8
100
AcDbEntity
  8
0
  6
CONTINUOUS
 62
               7
100
AcDbLine
 10
27.0
 20
-116.0
 30
0.0
 11
-27.0
 21
-116.0
 31
0.0
  0
LINE
  5
D9
100
AcDbEntity
  8
0
  6
CONTINUOUS
 62
               7
100
AcDbLine
 10
18.0
 20
-87.0
 30
0.0
 11
18.0
 21
-116.0
 31
0.0
  0
LINE
  5
DA
100
AcDbEntity
  8
0
  6
CONTINUOUS
 62
               7
100
AcDbLine
 10
-18.0
 20
-87.0
 30
0.0
 11
-18.0
 21
-116.0
 31
0.0
  0
LINE
  5
DB
100
AcDbEntity
  8
0
  6
CONTINUOUS
 62
               7
100
AcDbLine
 10
10.0
 20
-118.0
 30
0.0
 11
-10.0
 21
-118.0
 31
0.0
  0
LINE
  5
DC
100
AcDbEntity
  8
0
  6
CONTINUOUS
 62
               7
100
AcDbLine
 10
27.0
 20
-87.0
 30
0.0
 11
-27.0
 21
-87.0
 31
0.0
  0
LINE
  5
DD
100
AcDbEntity
  8
0
  6
CONTINUOUS
 62
               7
100
AcDbLine
 10
-18.5
 20
-87.0
 30
0.0
 11
-18.5
 21
-90.500000000000057
 31
0.0
  0
LINE
  5
DE
100
AcDbEntity
  8
0
  6
CONTINUOUS
 62
               7
100
AcDbLine
 10
-19.0
 20
-91.0
 30
0.0
 11
-18.5
 21
-90.500000000000057
 31
0.0
  0
LINE
  5
DF
100
AcDbEntity
  8
0
  6
CONTINUOUS
 62
               7
100
AcDbLine
 10
-25.5
 20
-90.5
 30
0.0
 11
-24.999999999999886
 21
-91.0
 31
0.0
  0
LINE
  5
E0
100
AcDbEntity
  8
0
  6
CONTINUOUS
 62
               7
100
AcDbLine
 10
-25.5
 20
-87.0
 30
0.0
 11
-25.5
 21
-90.5
 31
0.0
  0
LINE
  5
E1
100
AcDbEntity
  8
0
  6
CONTINUOUS
 62
               7
100
AcDbLine
 10
-24.999999999999886
 20
-91.0
 30
0.0
 11
-19.0
 21
-91.0
 31
0.0
  0
LINE
  5
E2
100
AcDbEntity
  8
0
  6
CONTINUOUS
 62
               7
100
AcDbLine
 10
-25.5
 20
-90.5
 30
0.0
 11
-18.5
 21
-90.5
 31
0.0
  0
LINE
  5
E3
100
AcDbEntity
  8
0
  6
CONTINUOUS
 62
               7
100
AcDbLine
 10
19.0
 20
-91.0
 30
0.0
 11
18.5
 21
-90.500000000000057
 31
0.0
  0
LINE
  5
E4
100
AcDbEntity
  8
0
  6
CONTINUOUS
 62
               7
100
AcDbLine
 10
25.5
 20
-90.5
 30
0.0
 11
25.0
 21
-91.0
 31
0.0
  0
LINE
  5
E5
100
AcDbEntity
  8
0
  6
CONTINUOUS
 62
               7
100
AcDbLine
 10
25.5
 20
-90.5
 30
0.0
 11
18.5
 21
-90.5
 31
0.0
  0
LINE
  5
E6
100
AcDbEntity
  8
0
  6
CONTINUOUS
 62
               7
100
AcDbLine
 10
18.5
 20
-87.0
 30
0.0
 11
18.5
 21
-90.500000000000057
 31
0.0
  0
LINE
  5
E7
100
AcDbEntity
  8
0
  6
CONTINUOUS
 62
               7
100
AcDbLine
 10
25.5
 20
-87.0
 30
0.0
 11
25.5
 21
-90.5
 31
0.0
  0
LINE
  5
E8
100
AcDbEntity
  8
0
  6
CONTINUOUS
 62
               7
100
AcDbLine
 10
25.0
 20
-91.0
 30
0.0
 11
19.0
 21
-91.0
 31
0.0
  0
LINE
  5
E9
100
AcDbEntity
  8
0
  6
CONTINUOUS
 62
               7
100
AcDbLine
 10
27.0
 20
-72.0
 30
0.0
 11
27.0
 21
-116.0
 31
0.0
  0
LINE
  5
EA
100
AcDbEntity
  8
0
  6
CONTINUOUS
 62
               7
100
AcDbLine
 10
-27.0
 20
-72.0
 30
0.0
 11
-27.0
 21
-116.0
 31
0.0
  0
LINE
  5
EB
100
AcDbEntity
  8
0
  6
CONTINUOUS
 62
               7
100
AcDbLine
 10
27.5
 20
-72.0
 30
0.0
 11
-27.5
 21
-72.0
 31
0.0
  0
LINE
  5
EC
100
AcDbEntity
  8
0
  6
CONTINUOUS
 62
               7
100
AcDbLine
 10
27.5
 20
-72.0
 30
0.0
 11
27.5
 21
-69.0
 31
0.0
  0
LINE
  5
ED
100
AcDbEntity
  8
0
  6
CONTINUOUS
 62
               7
100
AcDbLine
 10
-28.999999999999773
 20
-69.0
 30
0.0
 11
28.999999999999773
 21
-69.0
 31
0.0
  0
LINE
  5
EE
100
AcDbEntity
  8
0
  6
CONTINUOUS
 62
               7
100
AcDbLine
 10
-27.5
 20
-72.0
 30
0.0
 11
-27.5
 21
-69.0
 31
0.0
  0
LINE
  5
EF
100
AcDbEntity
  8
0
  6
CONTINUOUS
 62
               7
100
AcDbLine
 10
-25.49509756796391
 20
-72.0
 30
0.0
 11
-25.49509756796391
 21
-69.0
 31
0.0
  0
LINE
  5
F0
100
AcDbEntity
  8
0
  6
CONTINUOUS
 62
               7
100
AcDbLine
 10
25.49509756796391
 20
-72.0
 30
0.0
 11
25.49509756796391
 21
-69.0
 31
0.0
  0
CIRCLE
  5
F1
100
AcDbEntity
  8
0
  6
CONTINUOUS
 62
               7
100
AcDbCircle
 10
0.0
 20
-31.0
 30
0.0
 40
2.0
  0
LINE
  5
F2
100
AcDbEntity
  8
0
  6
CONTINUOUS
 62
               2
100
AcDbLine
 10
21.0
 20
-30.0
 30
0.0
 11
21.0
 21
-42.0
 31
0.0
  0
LINE
  5
F3
100
AcDbEntity
  8
0
  6
CONTINUOUS
 62
               2
100
AcDbLine
 10
15.0
 20
-36.0
 30
0.0
 11
27.0
 21
-36.0
 31
0.0
  0
CIRCLE
  5
F4
100
AcDbEntity
  8
0
  6
CONTINUOUS
 62
               7
100
AcDbCircle
 10
21.0
 20
-36.0
 30
0.0
 40
3.2999999999999998
  0
LINE
  5
F5
100
AcDbEntity
  8
0
  6
CONTINUOUS
 62
               2
100
AcDbLine
 10
-21.0
 20
-30.0
 30
0.0
 11
-21.0
 21
-42.0
 31
0.0
  0
LINE
  5
F6
100
AcDbEntity
  8
0
  6
CONTINUOUS
 62
               2
100
AcDbLine
 10
-27.0
 20
-36.0
 30
0.0
 11
-15.0
 21
-36.0
 31
0.0
  0
CIRCLE
  5
F7
100
AcDbEntity
  8
0
  6
CONTINUOUS
 62
               7
100
AcDbCircle
 10
-21.0
 20
-36.0
 30
0.0
 40
3.2999999999999998
  0
LINE
  5
F8
100
AcDbEntity
  8
0
  6
CONTINUOUS
 62
               7
100
AcDbLine
 10
28.999999999999773
 20
-50.650000000000034
 30
0.0
 11
-28.999999999999773
 21
-50.650000000000034
 31
0.0
  0
LINE
  5
F9
100
AcDbEntity
  8
0
  6
CONTINUOUS
 62
               7
100
AcDbLine
 10
28.999999999999773
 20
-55.349999999999966
 30
0.0
 11
-28.999999999999773
 21
-55.349999999999966
 31
0.0
  0
LINE
  5
FA
100
AcDbEntity
  8
0
  6
CONTINUOUS
 62
               7
100
AcDbLine
 10
28.999999999999773
 20
-51.400000000000034
 30
0.0
 11
-28.999999999999773
 21
-51.400000000000034
 31
0.0
  0
LINE
  5
FB
100
AcDbEntity
  8
0
  6
CONTINUOUS
 62
               7
100
AcDbLine
 10
28.999999999999773
 20
-54.599999999999966
 30
0.0
 11
-28.999999999999773
 21
-54.599999999999966
 31
0.0
  0
LINE
  5
FC
100
AcDbEntity
  8
0
  6
CONTINUOUS
 62
               2
100
AcDbLine
 10
32.067031670537574
 20
-53.0
 30
0.0
 11
-33.078779945353517
 21
-53.0
 31
0.0
  0
LINE
  5
FD
100
AcDbEntity
  8
0
  6
CONTINUOUS
 62
               7
100
AcDbLine
 10
13.0
 20
-69.0
 30
0.0
 11
13.0
 21
-55.349999999999966
 31
0.0
  0
LINE
  5
FE
100
AcDbEntity
  8
0
  6
CONTINUOUS
 62
               7
100
AcDbLine
 10
13.5
 20
-69.0
 30
0.0
 11
13.5
 21
-55.349999999999966
 31
0.0
  0
LINE
  5
FF
100
AcDbEntity
  8
0
  6
CONTINUOUS
 62
               7
100
AcDbLine
 10
13.5
 20
-50.650000000000034
 30
0.0
 11
13.5
 21
-10.0
 31
0.0
  0
LINE
  5
100
100
AcDbEntity
  8
0
  6
CONTINUOUS
 62
               7
100
AcDbLine
 10
13.0
 20
-50.650000000000034
 30
0.0
 11
13.0
 21
-10.0
 31
0.0
  0
LINE
  5
101
100
AcDbEntity
  8
0
  6
CONTINUOUS
 62
               7
100
AcDbLine
 10
-13.5
 20
-50.650000000000034
 30
0.0
 11
-13.5
 21
-10.0
 31
0.0
  0
LINE
  5
102
100
AcDbEntity
  8
0
  6
CONTINUOUS
 62
               7
100
AcDbLine
 10
-13.0
 20
-50.650000000000034
 30
0.0
 11
-13.0
 21
-10.0
 31
0.0
  0
LINE
  5
103
100
AcDbEntity
  8
0
  6
CONTINUOUS
 62
               7
100
AcDbLine
 10
-13.0
 20
-69.0
 30
0.0
 11
-13.0
 21
-55.349999999999966
 31
0.0
  0
LINE
  5
104
100
AcDbEntity
  8
0
  6
CONTINUOUS
 62
               7
100
AcDbLine
 10
-13.5
 20
-69.0
 30
0.0
 11
-13.5
 21
-55.349999999999966
 31
0.0
  0
LINE
  5
105
100
AcDbEntity
  8
0
  6
CONTINUOUS
 62
               7
100
AcDbLine
 10
4.0
 20
-124.5
 30
0.0
 11
-4.0
 21
-124.5
 31
0.0
  0
LINE
  5
106
100
AcDbEntity
  8
0
  6
CONTINUOUS
 62
               7
100
AcDbLine
 10
-3.5
 20
-125.0
 30
0.0
 11
-4.0
 21
-124.5
 31
0.0
  0
LINE
  5
107
100
AcDbEntity
  8
0
  6
CONTINUOUS
 62
               7
100
AcDbLine
 10
3.5
 20
-125.0
 30
0.0
 11
4.0
 21
-124.5
 31
0.0
  0
LINE
  5
108
100
AcDbEntity
  8
0
  6
CONTINUOUS
 62
               7
100
AcDbLine
 10
3.5
 20
-125.0
 30
0.0
 11
-3.5
 21
-125.0
 31
0.0
  0
LINE
  5
109
100
AcDbEntity
  8
0
  6
CONTINUOUS
 62
               7
100
AcDbLine
 10
31.999999999999773
 20
-22.5
 30
0.0
 11
50.749999999999773
 21
-22.5
 31
0.0
  0
LINE
  5
10A
100
AcDbEntity
  8
0
  6
CONTINUOUS
 62
               2
100
AcDbLine
 10
31.999999999999773
 20
-22.0
 30
0.0
 11
51.291499999999786
 21
-22.0
 31
0.0
  0
LINE
  5
10B
100
AcDbEntity
  8
0
  6
CONTINUOUS
 62
               2
100
AcDbLine
 10
31.999999999999773
 20
-13.0
 30
0.0
 11
51.291499999999786
 21
-13.0
 31
0.0
  0
LINE
  5
10C
100
AcDbEntity
  8
0
  6
CONTINUOUS
 62
               7
100
AcDbLine
 10
31.999999999999773
 20
-12.5
 30
0.0
 11
50.749999999999773
 21
-12.5
 31
0.0
  0
LINE
  5
10D
100
AcDbEntity
  8
0
  6
CONTINUOUS
 62
               7
100
AcDbLine
 10
31.999999999999773
 20
-11.5
 30
0.0
 11
31.999999999999773
 21
-23.5
 31
0.0
  0
LINE
  5
10E
100
AcDbEntity
  8
0
  6
CONTINUOUS
 62
               7
100
AcDbLine
 10
28.999999999999773
 20
-11.5
 30
0.0
 11
29.529999999999774
 21
-10.579999999999984
 31
0.0
  0
LINE
  5
10F
100
AcDbEntity
  8
0
  6
CONTINUOUS
 62
               7
100
AcDbLine
 10
28.999999999999773
 20
-23.5
 30
0.0
 11
29.529999999999774
 21
-24.430000000000007
 31
0.0
  0
LINE
  5
110
100
AcDbEntity
  8
0
  6
CONTINUOUS
 62
               7
100
AcDbLine
 10
31.459999999999781
 20
-24.430000000000007
 30
0.0
 11
29.529999999999774
 21
-24.430000000000007
 31
0.0
  0
LINE
  5
111
100
AcDbEntity
  8
0
  6
CONTINUOUS
 62
               7
100
AcDbLine
 10
31.999999999999773
 20
-11.5
 30
0.0
 11
31.459999999999781
 21
-10.579999999999984
 31
0.0
  0
LINE
  5
112
100
AcDbEntity
  8
0
  6
CONTINUOUS
 62
               7
100
AcDbLine
 10
31.459999999999781
 20
-10.579999999999984
 30
0.0
 11
29.529999999999774
 21
-10.579999999999984
 31
0.0
  0
LINE
  5
113
100
AcDbEntity
  8
0
  6
CONTINUOUS
 62
               7
100
AcDbLine
 10
31.999999999999773
 20
-23.5
 30
0.0
 11
31.459999999999781
 21
-24.430000000000007
 31
0.0
  0
LINE
  5
114
100
AcDbEntity
  8
0
  6
CONTINUOUS
 62
               7
100
AcDbLine
 10
29.529999999999774
 20
-14.04000000000002
 30
0.0
 11
31.459999999999781
 21
-14.04000000000002
 31
0.0
  0
LINE
  5
115
100
AcDbEntity
  8
0
  6
CONTINUOUS
 62
               7
100
AcDbLine
 10
29.529999999999774
 20
-20.96999999999997
 30
0.0
 11
31.459999999999781
 21
-20.96999999999997
 31
0.0
  0
ARC
  5
116
100
AcDbEntity
  8
0
  6
CONTINUOUS
 62
               7
100
AcDbCircle
 10
28.932411533030319
 20
-12.31137406947613
 30
0.0
 40
3.0621644413774511
100
AcDbArc
 50
325.63164932368653
 51
25.771424868782155
  0
ARC
  5
117
100
AcDbEntity
  8
0
  6
CONTINUOUS
 62
               7
100
AcDbCircle
 10
20.535829648821505
 20
-17.505000000000052
 30
0.0
 40
11.46052890845629
100
AcDbArc
 50
342.401672458223
 51
17.598327541777007
  0
ARC
  5
118
100
AcDbEntity
  8
0
  6
CONTINUOUS
 62
               7
100
AcDbCircle
 10
28.933213968164495
 20
-22.69856561677193
 30
0.0
 40
3.0614680697606365
100
AcDbArc
 50
334.22102920742719
 51
34.375896600104006
  0
ARC
  5
119
100
AcDbEntity
  8
0
  6
CONTINUOUS
 62
               7
100
AcDbCircle
 10
32.067506484994681
 20
-12.310628597533082
 30
0.0
 40
3.070775896912977
100
AcDbArc
 50
154.32155933418125
 51
214.27536647335003
  0
ARC
  5
11A
100
AcDbEntity
  8
0
  6
CONTINUOUS
 62
               7
100
AcDbCircle
 10
40.46414593634023
 20
-17.505000000000052
 30
0.0
 40
11.470038027713356
100
AcDbArc
 50
162.41673834634932
 51
197.58326165365068
  0
ARC
  5
11B
100
AcDbEntity
  8
0
  6
CONTINUOUS
 62
               7
100
AcDbCircle
 10
32.066706166420801
 20
-22.699311247802882
 30
0.0
 40
3.0700807101012773
100
AcDbArc
 50
145.7171496658257
 51
205.68592452664308
  0
LINE
  5
11C
100
AcDbEntity
  8
0
  6
CONTINUOUS
 62
               7
100
AcDbLine
 10
56.499999999999773
 20
-13.550000000000011
 30
0.0
 11
56.499999999999773
 21
-21.449999999999989
 31
0.0
  0
LINE
  5
11D
100
AcDbEntity
  8
0
  6
CONTINUOUS
 62
               7
100
AcDbLine
 10
51.499999999999773
 20
-21.75
 30
0.0
 11
56.19999999999979
 21
-21.75
 31
0.0
  0
LINE
  5
11E
100
AcDbEntity
  8
0
  6
CONTINUOUS
 62
               7
100
AcDbLine
 10
51.499999999999773
 20
-13.25
 30
0.0
 11
56.19999999999979
 21
-13.25
 31
0.0
  0
LINE
  5
11F
100
AcDbEntity
  8
0
  6
CONTINUOUS
 62
               7
100
AcDbLine
 10
47.499999999999773
 20
-15.32055052822966
 30
0.0
 11
47.499999999999773
 21
-19.67944947177034
 31
0.0
  0
LINE
  5
120
100
AcDbEntity
  8
0
  6
CONTINUOUS
 62
               7
100
AcDbLine
 10
50.749999999999773
 20
-19.67944947177034
 30
0.0
 11
47.499999999999773
 21
-19.67944947177034
 31
0.0
  0
LINE
  5
121
100
AcDbEntity
  8
0
  6
CONTINUOUS
 62
               7
100
AcDbLine
 10
50.749999999999773
 20
-15.32055052822966
 30
0.0
 11
47.499999999999773
 21
-15.32055052822966
 31
0.0
  0
LINE
  5
122
100
AcDbEntity
  8
0
  6
CONTINUOUS
 62
               7
100
AcDbLine
 10
51.499999999999773
 20
-21.75
 30
0.0
 11
51.499999999999773
 21
-13.25
 31
0.0
  0
LINE
  5
123
100
AcDbEntity
  8
0
  6
CONTINUOUS
 62
               7
100
AcDbLine
 10
51.499999999999773
 20
-13.25
 30
0.0
 11
50.749999999999773
 21
-12.5
 31
0.0
  0
LINE
  5
124
100
AcDbEntity
  8
0
  6
CONTINUOUS
 62
               7
100
AcDbLine
 10
50.749999999999773
 20
-22.5
 30
0.0
 11
51.499999999999773
 21
-21.75
 31
0.0
  0
LINE
  5
125
100
AcDbEntity
  8
0
  6
CONTINUOUS
 62
               7
100
AcDbLine
 10
50.749999999999773
 20
-12.5
 30
0.0
 11
50.749999999999773
 21
-15.32055052822966
 31
0.0
  0
LINE
  5
126
100
AcDbEntity
  8
0
  6
CONTINUOUS
 62
               7
100
AcDbLine
 10
50.749999999999773
 20
-22.5
 30
0.0
 11
50.749999999999773
 21
-19.67944947177034
 31
0.0
  0
LINE
  5
127
100
AcDbEntity
  8
0
  6
CONTINUOUS
 62
               2
100
AcDbLine
 10
50.749999999999773
 20
-19.67944947177034
 30
0.0
 11
47.499999999999773
 21
-15.32055052822966
 31
0.0
  0
LINE
  5
128
100
AcDbEntity
  8
0
  6
CONTINUOUS
 62
               2
100
AcDbLine
 10
47.499999999999773
 20
-19.67944947177034
 30
0.0
 11
50.749999999999773
 21
-15.32055052822966
 31
0.0
  0
LINE
  5
129
100
AcDbEntity
  8
0
  6
CONTINUOUS
 62
               7
100
AcDbLine
 10
56.19999999999979
 20
-13.25
 30
0.0
 11
56.499999999999773
 21
-13.550000000000011
 31
0.0
  0
LINE
  5
12A
100
AcDbEntity
  8
0
  6
CONTINUOUS
 62
               7
100
AcDbLine
 10
56.19999999999979
 20
-21.75
 30
0.0
 11
56.499999999999773
 21
-21.449999999999989
 31
0.0
  0
LINE
  5
12B
100
AcDbEntity
  8
0
  6
CONTINUOUS
 62
               7
100
AcDbLine
 10
56.19999999999979
 20
-21.75
 30
0.0
 11
56.19999999999979
 21
-13.25
 31
0.0
  0
SPLINE
  5
12C
100
AcDbEntity
  8
0
  6
CONTINUOUS
 62
               7
100
AcDbSpline
210
0.0
220
0.0
230
1.0
 70
               0
 71
               3
 72
               0
 73
               0
 74
               5
 44
0.000001
 12
-0.4170288281141489
 22
0.9088932591463861
 32
0.0
 13
0.4170288281141492
 23
0.908893259146386
 33
0.0
 11
47.499999999999773
 21
-19.67944947177034
 31
0.0
 11
47.133436898969734
 21
-18.617306428390361
 31
0.0
 11
46.999999999999773
 21
-17.5
 31
0.0
 11
47.133436898969734
 21
-16.382693571609639
 31
0.0
 11
47.499999999999773
 21
-15.32055052822966
 31
0.0
  0
SPLINE
  5
12D
100
AcDbEntity
  8
0
  6
CONTINUOUS
 62
               7
100
AcDbSpline
210
0.0
220
0.0
230
1.0
 70
               0
 71
               3
 72
               0
 73
               0
 74
               5
 44
0.000001
 12
0.417028828114149
 22
0.908893259146386
 32
0.0
 13
-0.4170288281141489
 23
0.9088932591463861
 33
0.0
 11
50.749999999999773
 21
-19.67944947177034
 31
0.0
 11
51.116563101029811
 21
-18.617306428390361
 31
0.0
 11
51.249999999999773
 21
-17.5
 31
0.0
 11
51.116563101029811
 21
-16.382693571609639
 31
0.0
 11
50.749999999999773
 21
-15.32055052822966
 31
0.0
  0
LINE
  5
12E
100
AcDbEntity
  8
0
  6
CONTINUOUS
 62
               2
100
AcDbLine
 10
23.999999999999773
 20
-17.5
 30
0.0
 11
59.048551767337301
 21
-17.5
 31
0.0
  0
LINE
  5
12F
100
AcDbEntity
  8
0
  6
CONTINUOUS
 62
               2
100
AcDbLine
 10
31.0
 20
-103.0
 30
0.0
 11
23.0
 21
-103.0
 31
0.0
  0
LINE
  5
130
100
AcDbEntity
  8
0
  6
CONTINUOUS
 62
               2
100
AcDbLine
 10
5.0
 20
-47.0
 30
0.0
 11
-5.0
 21
-47.0
 31
0.0
  0
LINE
  5
131
100
AcDbEntity
  8
0
  6
CONTINUOUS
 62
               2
100
AcDbLine
 10
5.0
 20
-45.0
 30
0.0
 11
-5.0
 21
-45.0
 31
0.0
  0
LINE
  5
132
100
AcDbEntity
  8
0
  6
CONTINUOUS
 62
               2
100
AcDbLine
 10
-5.0
 20
-31.0
 30
0.0
 11
5.0
 21
-31.0
 31
0.0
  0
LINE
  5
133
100
AcDbEntity
  8
0
  6
CONTINUOUS
 62
               2
100
AcDbLine
 10
-5.0
 20
-46.0
 30
0.0
 11
5.0
 21
-46.0
 31
0.0
  0
LINE
  5
134
100
AcDbEntity
  8
0
  6
CONTINUOUS
 62
               2
100
AcDbLine
 10
-24.0
 20
-13.0
 30
0.0
 11
-24.0
 21
-7.0
 31
0.0
  0
LINE
  5
135
100
AcDbEntity
  8
0
  6
CONTINUOUS
 62
               2
100
AcDbLine
 10
-15.0
 20
-13.0
 30
0.0
 11
-15.0
 21
-7.0
 31
0.0
  0
LINE
  5
136
100
AcDbEntity
  8
0
  6
CONTINUOUS
 62
               2
100
AcDbLine
 10
15.0
 20
-13.0
 30
0.0
 11
15.0
 21
-7.0
 31
0.0
  0
LINE
  5
137
100
AcDbEntity
  8
0
  6
CONTINUOUS
 62
               2
100
AcDbLine
 10
24.0
 20
-13.0
 30
0.0
 11
24.0
 21
-7.0
 31
0.0
  0
LINE
  5
138
100
AcDbEntity
  8
0
  6
CONTINUOUS
 62
               2
100
AcDbLine
 10
-31.999999999999773
 20
-31.0
 30
0.0
 11
-25.999999999999773
 21
-31.0
 31
0.0
  0
ENDBLK
  5
139
100
AcDbEntity
  8
0
100
AcDbBlockEnd
  0
BLOCK
  5
13A
100
AcDbEntity
  8
0
100
AcDbBlockBegin
  2
RAG20-SS2-3
 70
               0
 10
0.0
 20
0.0
 30
0.0
  3
RAG20-SS2-3
  1

  0
LINE
  5
13B
100
AcDbEntity
  8
0
  6
CONTINUOUS
 62
               7
100
AcDbLine
 10
-27.0
 20
0.0
 30
0.0
 11
-27.0
 21
-7.5
 31
0.0
  0
LINE
  5
13C
100
AcDbEntity
  8
0
  6
CONTINUOUS
 62
               7
100
AcDbLine
 10
27.0
 20
0.0
 30
0.0
 11
27.0
 21
-7.5
 31
0.0
  0
LINE
  5
13D
100
AcDbEntity
  8
0
  6
CONTINUOUS
 62
               2
100
AcDbLine
 10
0.0
 20
-130.0
 30
0.0
 11
0.0
 21
5.0
 31
0.0
  0
LINE
  5
13E
100
AcDbEntity
  8
0
  6
CONTINUOUS
 62
               7
100
AcDbLine
 10
-25.922962793631257
 20
-55.349999999999966
 30
0.0
 11
-25.922962793631257
 21
-69.0
 31
0.0
  0
LINE
  5
13F
100
AcDbEntity
  8
0
  6
CONTINUOUS
 62
               7
100
AcDbLine
 10
-25.922962793631257
 20
-10.0
 30
0.0
 11
-25.922962793631257
 21
-50.650000000000034
 31
0.0
  0
LINE
  5
140
100
AcDbEntity
  8
0
  6
CONTINUOUS
 62
               7
100
AcDbLine
 10
-13.5
 20
-50.650000000000034
 30
0.0
 11
-13.5
 21
-10.0
 31
0.0
  0
LINE
  5
141
100
AcDbEntity
  8
0
  6
CONTINUOUS
 62
               7
100
AcDbLine
 10
-13.0
 20
-50.650000000000034
 30
0.0
 11
-13.0
 21
-10.0
 31
0.0
  0
LINE
  5
142
100
AcDbEntity
  8
0
  6
CONTINUOUS
 62
               7
100
AcDbLine
 10
-13.0
 20
-69.0
 30
0.0
 11
-13.0
 21
-55.349999999999966
 31
0.0
  0
LINE
  5
143
100
AcDbEntity
  8
0
  6
CONTINUOUS
 62
               7
100
AcDbLine
 10
-13.5
 20
-69.0
 30
0.0
 11
-13.5
 21
-55.349999999999966
 31
0.0
  0
LINE
  5
144
100
AcDbEntity
  8
0
  6
CONTINUOUS
 62
               7
100
AcDbLine
 10
13.0
 20
-69.0
 30
0.0
 11
13.0
 21
-55.349999999999966
 31
0.0
  0
LINE
  5
145
100
AcDbEntity
  8
0
  6
CONTINUOUS
 62
               7
100
AcDbLine
 10
13.5
 20
-69.0
 30
0.0
 11
13.5
 21
-55.349999999999966
 31
0.0
  0
LINE
  5
146
100
AcDbEntity
  8
0
  6
CONTINUOUS
 62
               7
100
AcDbLine
 10
13.5
 20
-50.650000000000034
 30
0.0
 11
13.5
 21
-10.0
 31
0.0
  0
LINE
  5
147
100
AcDbEntity
  8
0
  6
CONTINUOUS
 62
               7
100
AcDbLine
 10
13.0
 20
-50.650000000000034
 30
0.0
 11
13.0
 21
-10.0
 31
0.0
  0
LINE
  5
148
100
AcDbEntity
  8
0
  6
CONTINUOUS
 62
               7
100
AcDbLine
 10
25.922962793631626
 20
-55.349999999999966
 30
0.0
 11
25.922962793631626
 21
-69.0
 31
0.0
  0
LINE
  5
149
100
AcDbEntity
  8
0
  6
CONTINUOUS
 62
               7
100
AcDbLine
 10
25.922962793631626
 20
-10.0
 30
0.0
 11
25.922962793631626
 21
-50.650000000000034
 31
0.0
  0
LINE
  5
14A
100
AcDbEntity
  8
0
  6
CONTINUOUS
 62
               7
100
AcDbLine
 10
28.999999999999773
 20
-50.650000000000034
 30
0.0
 11
-28.999999999999773
 21
-50.650000000000034
 31
0.0
  0
LINE
  5
14B
100
AcDbEntity
  8
0
  6
CONTINUOUS
 62
               7
100
AcDbLine
 10
28.999999999999773
 20
-55.349999999999966
 30
0.0
 11
-28.999999999999773
 21
-55.349999999999966
 31
0.0
  0
LINE
  5
14C
100
AcDbEntity
  8
0
  6
CONTINUOUS
 62
               7
100
AcDbLine
 10
28.999999999999773
 20
-51.400000000000034
 30
0.0
 11
-28.999999999999773
 21
-51.400000000000034
 31
0.0
  0
LINE
  5
14D
100
AcDbEntity
  8
0
  6
CONTINUOUS
 62
               7
100
AcDbLine
 10
28.999999999999773
 20
-54.599999999999966
 30
0.0
 11
-28.999999999999773
 21
-54.599999999999966
 31
0.0
  0
LINE
  5
14E
100
AcDbEntity
  8
0
  6
CONTINUOUS
 62
               2
100
AcDbLine
 10
32.067031670537574
 20
-53.0
 30
0.0
 11
-33.078779945353517
 21
-53.0
 31
0.0
  0
LINE
  5
14F
100
AcDbEntity
  8
0
  6
CONTINUOUS
 62
               7
100
AcDbLine
 10
2.6457513110646005
 20
-124.5
 30
0.0
 11
4.0
 21
-124.5
 31
0.0
  0
LINE
  5
150
100
AcDbEntity
  8
0
  6
CONTINUOUS
 62
               7
100
AcDbLine
 10
-27.5
 20
-72.0
 30
0.0
 11
27.5
 21
-72.0
 31
0.0
  0
LINE
  5
151
100
AcDbEntity
  8
0
  6
CONTINUOUS
 62
               7
100
AcDbLine
 10
27.0
 20
-72.0
 30
0.0
 11
27.0
 21
-116.0
 31
0.0
  0
LINE
  5
152
100
AcDbEntity
  8
0
  6
CONTINUOUS
 62
               7
100
AcDbLine
 10
-27.0
 20
-72.0
 30
0.0
 11
-27.0
 21
-116.0
 31
0.0
  0
LINE
  5
153
100
AcDbEntity
  8
0
  6
CONTINUOUS
 62
               7
100
AcDbLine
 10
-25.0
 20
-91.0
 30
0.0
 11
-19.0
 21
-91.0
 31
0.0
  0
LINE
  5
154
100
AcDbEntity
  8
0
  6
CONTINUOUS
 62
               7
100
AcDbLine
 10
-25.5
 20
-87.0
 30
0.0
 11
-25.5
 21
-90.5
 31
0.0
  0
LINE
  5
155
100
AcDbEntity
  8
0
  6
CONTINUOUS
 62
               7
100
AcDbLine
 10
-18.5
 20
-87.0
 30
0.0
 11
-18.5
 21
-90.500000000000057
 31
0.0
  0
LINE
  5
156
100
AcDbEntity
  8
0
  6
CONTINUOUS
 62
               7
100
AcDbLine
 10
-25.5
 20
-90.5
 30
0.0
 11
-18.5
 21
-90.5
 31
0.0
  0
LINE
  5
157
100
AcDbEntity
  8
0
  6
CONTINUOUS
 62
               7
100
AcDbLine
 10
-25.5
 20
-90.5
 30
0.0
 11
-25.0
 21
-91.0
 31
0.0
  0
LINE
  5
158
100
AcDbEntity
  8
0
  6
CONTINUOUS
 62
               7
100
AcDbLine
 10
-19.0
 20
-91.0
 30
0.0
 11
-18.5
 21
-90.500000000000057
 31
0.0
  0
LINE
  5
159
100
AcDbEntity
  8
0
  6
CONTINUOUS
 62
               7
100
AcDbLine
 10
25.5
 20
-90.5
 30
0.0
 11
18.5
 21
-90.5
 31
0.0
  0
LINE
  5
15A
100
AcDbEntity
  8
0
  6
CONTINUOUS
 62
               7
100
AcDbLine
 10
24.999999999999886
 20
-91.0
 30
0.0
 11
19.0
 21
-91.0
 31
0.0
  0
LINE
  5
15B
100
AcDbEntity
  8
0
  6
CONTINUOUS
 62
               7
100
AcDbLine
 10
25.5
 20
-87.0
 30
0.0
 11
25.5
 21
-90.5
 31
0.0
  0
LINE
  5
15C
100
AcDbEntity
  8
0
  6
CONTINUOUS
 62
               7
100
AcDbLine
 10
25.5
 20
-90.5
 30
0.0
 11
24.999999999999886
 21
-91.0
 31
0.0
  0
LINE
  5
15D
100
AcDbEntity
  8
0
  6
CONTINUOUS
 62
               7
100
AcDbLine
 10
19.0
 20
-91.0
 30
0.0
 11
18.5
 21
-90.500000000000057
 31
0.0
  0
LINE
  5
15E
100
AcDbEntity
  8
0
  6
CONTINUOUS
 62
               7
100
AcDbLine
 10
18.5
 20
-87.0
 30
0.0
 11
18.5
 21
-90.500000000000057
 31
0.0
  0
LINE
  5
15F
100
AcDbEntity
  8
0
  6
CONTINUOUS
 62
               7
100
AcDbLine
 10
4.0
 20
-118.0
 30
0.0
 11
4.0
 21
-124.5
 31
0.0
  0
LINE
  5
160
100
AcDbEntity
  8
0
  6
CONTINUOUS
 62
               7
100
AcDbLine
 10
-27.0
 20
-87.0
 30
0.0
 11
27.0
 21
-87.0
 31
0.0
  0
LINE
  5
161
100
AcDbEntity
  8
0
  6
CONTINUOUS
 62
               7
100
AcDbLine
 10
-10.0
 20
-118.0
 30
0.0
 11
10.0
 21
-118.0
 31
0.0
  0
LINE
  5
162
100
AcDbEntity
  8
0
  6
CONTINUOUS
 62
               7
100
AcDbLine
 10
-3.5
 20
-125.0
 30
0.0
 11
3.5
 21
-125.0
 31
0.0
  0
LINE
  5
163
100
AcDbEntity
  8
0
  6
CONTINUOUS
 62
               7
100
AcDbLine
 10
-4.0
 20
-118.0
 30
0.0
 11
-4.0
 21
-124.5
 31
0.0
  0
LINE
  5
164
100
AcDbEntity
  8
0
  6
CONTINUOUS
 62
               7
100
AcDbLine
 10
-3.5
 20
-125.0
 30
0.0
 11
-4.0
 21
-124.5
 31
0.0
  0
LINE
  5
165
100
AcDbEntity
  8
0
  6
CONTINUOUS
 62
               7
100
AcDbLine
 10
-4.0
 20
-124.5
 30
0.0
 11
-2.6457513110646005
 21
-124.5
 31
0.0
  0
LINE
  5
166
100
AcDbEntity
  8
0
  6
CONTINUOUS
 62
               7
100
AcDbLine
 10
18.0
 20
-87.0
 30
0.0
 11
18.0
 21
-116.0
 31
0.0
  0
LINE
  5
167
100
AcDbEntity
  8
0
  6
CONTINUOUS
 62
               7
100
AcDbLine
 10
-18.0
 20
-87.0
 30
0.0
 11
-18.0
 21
-116.0
 31
0.0
  0
LINE
  5
168
100
AcDbEntity
  8
0
  6
CONTINUOUS
 62
               7
100
AcDbLine
 10
-27.0
 20
-116.0
 30
0.0
 11
27.0
 21
-116.0
 31
0.0
  0
LINE
  5
169
100
AcDbEntity
  8
0
  6
CONTINUOUS
 62
               7
100
AcDbLine
 10
10.0
 20
-116.0
 30
0.0
 11
10.0
 21
-118.0
 31
0.0
  0
LINE
  5
16A
100
AcDbEntity
  8
0
  6
CONTINUOUS
 62
               7
100
AcDbLine
 10
-10.0
 20
-116.0
 30
0.0
 11
-10.0
 21
-118.0
 31
0.0
  0
LINE
  5
16B
100
AcDbEntity
  8
0
  6
CONTINUOUS
 62
               7
100
AcDbLine
 10
2.6457513110646005
 20
-125.0
 30
0.0
 11
2.6457513110646005
 21
-120.0
 31
0.0
  0
LINE
  5
16C
100
AcDbEntity
  8
0
  6
CONTINUOUS
 62
               7
100
AcDbLine
 10
-2.6457513110646005
 20
-125.0
 30
0.0
 11
-2.6457513110646005
 21
-120.0
 31
0.0
  0
LINE
  5
16D
100
AcDbEntity
  8
0
  6
CONTINUOUS
 62
               7
100
AcDbLine
 10
2.6457513110646005
 20
-120.0
 30
0.0
 11
-2.6457513110646005
 21
-120.0
 31
0.0
  0
ARC
  5
16E
100
AcDbEntity
  8
0
  6
CONTINUOUS
 62
               7
100
AcDbCircle
 10
0.0000000000000568
 20
-123.00000000000051
 30
0.0
 40
4.0000000000003455
100
AcDbArc
 50
48.590377890734665
 51
131.40962210926534
  0
LINE
  5
16F
100
AcDbEntity
  8
0
  6
CONTINUOUS
 62
               7
100
AcDbLine
 10
3.5
 20
-125.0
 30
0.0
 11
4.0
 21
-124.5
 31
0.0
  0
LINE
  5
170
100
AcDbEntity
  8
0
  6
CONTINUOUS
 62
               2
100
AcDbLine
 10
2.6457513110646005
 20
-120.0
 30
0.0
 11
-2.6457513110646005
 21
-125.0
 31
0.0
  0
LINE
  5
171
100
AcDbEntity
  8
0
  6
CONTINUOUS
 62
               2
100
AcDbLine
 10
-2.6457513110646005
 20
-120.0
 30
0.0
 11
2.6457513110646005
 21
-125.0
 31
0.0
  0
LINE
  5
172
100
AcDbEntity
  8
0
  6
CONTINUOUS
 62
               7
100
AcDbLine
 10
-27.5
 20
-72.0
 30
0.0
 11
-27.5
 21
-69.0
 31
0.0
  0
LINE
  5
173
100
AcDbEntity
  8
0
  6
CONTINUOUS
 62
               7
100
AcDbLine
 10
27.5
 20
-72.0
 30
0.0
 11
27.5
 21
-69.0
 31
0.0
  0
LINE
  5
174
100
AcDbEntity
  8
0
  6
CONTINUOUS
 62
               7
100
AcDbLine
 10
25.49509756796391
 20
-72.0
 30
0.0
 11
25.49509756796391
 21
-69.0
 31
0.0
  0
LINE
  5
175
100
AcDbEntity
  8
0
  6
CONTINUOUS
 62
               7
100
AcDbLine
 10
-25.49509756796391
 20
-72.0
 30
0.0
 11
-25.49509756796391
 21
-69.0
 31
0.0
  0
CIRCLE
  5
176
100
AcDbEntity
  8
0
  6
CONTINUOUS
 62
               7
100
AcDbCircle
 10
21.0
 20
-36.0
 30
0.0
 40
3.2999999999999998
  0
LINE
  5
177
100
AcDbEntity
  8
0
  6
CONTINUOUS
 62
               2
100
AcDbLine
 10
27.0
 20
-36.0
 30
0.0
 11
15.0
 21
-36.0
 31
0.0
  0
LINE
  5
178
100
AcDbEntity
  8
0
  6
CONTINUOUS
 62
               2
100
AcDbLine
 10
21.0
 20
-30.0
 30
0.0
 11
21.0
 21
-42.0
 31
0.0
  0
CIRCLE
  5
179
100
AcDbEntity
  8
0
  6
CONTINUOUS
 62
               7
100
AcDbCircle
 10
-21.0
 20
-36.0
 30
0.0
 40
3.2999999999999998
  0
LINE
  5
17A
100
AcDbEntity
  8
0
  6
CONTINUOUS
 62
               2
100
AcDbLine
 10
-15.0
 20
-36.0
 30
0.0
 11
-27.0
 21
-36.0
 31
0.0
  0
LINE
  5
17B
100
AcDbEntity
  8
0
  6
CONTINUOUS
 62
               2
100
AcDbLine
 10
-21.0
 20
-30.0
 30
0.0
 11
-21.0
 21
-42.0
 31
0.0
  0
CIRCLE
  5
17C
100
AcDbEntity
  8
0
  6
CONTINUOUS
 62
               7
100
AcDbCircle
 10
0.0
 20
-31.0
 30
0.0
 40
2.0
  0
LINE
  5
17D
100
AcDbEntity
  8
0
  6
CONTINUOUS
 62
               7
100
AcDbLine
 10
28.999999999999773
 20
-69.0
 30
0.0
 11
-28.999999999999773
 21
-69.0
 31
0.0
  0
LINE
  5
17E
100
AcDbEntity
  8
0
  6
CONTINUOUS
 62
               7
100
AcDbLine
 10
-27.0
 20
-7.5
 30
0.0
 11
27.0
 21
-7.5
 31
0.0
  0
LINE
  5
17F
100
AcDbEntity
  8
0
  6
CONTINUOUS
 62
               7
100
AcDbLine
 10
28.0
 20
-8.0
 30
0.0
 11
-28.0
 21
-8.0
 31
0.0
  0
LINE
  5
180
100
AcDbEntity
  8
0
  6
CONTINUOUS
 62
               7
100
AcDbLine
 10
-28.999999999999773
 20
-10.0
 30
0.0
 11
28.999999999999773
 21
-10.0
 31
0.0
  0
LINE
  5
181
100
AcDbEntity
  8
0
  6
CONTINUOUS
 62
               7
100
AcDbLine
 10
28.0
 20
-8.0
 30
0.0
 11
28.0
 21
-10.0
 31
0.0
  0
LINE
  5
182
100
AcDbEntity
  8
0
  6
CONTINUOUS
 62
               7
100
AcDbLine
 10
-28.0
 20
-8.0
 30
0.0
 11
-28.0
 21
-10.0
 31
0.0
  0
LINE
  5
183
100
AcDbEntity
  8
0
  6
CONTINUOUS
 62
               7
100
AcDbLine
 10
-2.0
 20
-45.0
 30
0.0
 11
-2.0
 21
-47.0
 31
0.0
  0
LINE
  5
184
100
AcDbEntity
  8
0
  6
CONTINUOUS
 62
               7
100
AcDbLine
 10
2.0
 20
-45.0
 30
0.0
 11
2.0
 21
-47.0
 31
0.0
  0
ARC
  5
185
100
AcDbEntity
  8
0
  6
CONTINUOUS
 62
               7
100
AcDbCircle
 10
0.0
 20
-45.0
 30
0.0
 40
2.0
100
AcDbArc
 50
0.0
 51
180.0
  0
ARC
  5
186
100
AcDbEntity
  8
0
  6
CONTINUOUS
 62
               7
100
AcDbCircle
 10
0.0
 20
-47.0
 30
0.0
 40
2.0
100
AcDbArc
 50
180.0
 51
0.0
  0
LINE
  5
187
100
AcDbEntity
  8
0
  6
CONTINUOUS
 62
               7
100
AcDbLine
 10
-25.5
 20
-7.5
 30
0.0
 11
-25.5
 21
-8.0
 31
0.0
  0
LINE
  5
188
100
AcDbEntity
  8
0
  6
CONTINUOUS
 62
               7
100
AcDbLine
 10
25.5
 20
-7.5
 30
0.0
 11
25.5
 21
-8.0
 31
0.0
  0
LINE
  5
189
100
AcDbEntity
  8
0
  6
CONTINUOUS
 62
               7
100
AcDbLine
 10
28.999999999999773
 20
-69.0
 30
0.0
 11
28.999999999999773
 21
-10.0
 31
0.0
  0
LINE
  5
18A
100
AcDbEntity
  8
0
  6
CONTINUOUS
 62
               7
100
AcDbLine
 10
-28.999999999999773
 20
-69.0
 30
0.0
 11
-28.999999999999773
 21
-10.0
 31
0.0
  0
LINE
  5
18B
100
AcDbEntity
  8
0
  6
CONTINUOUS
 62
               7
100
AcDbLine
 10
-27.0
 20
0.0
 30
0.0
 11
27.0
 21
0.0
 31
0.0
  0
LINE
  5
18C
100
AcDbEntity
  8
0
  6
CONTINUOUS
 62
               7
100
AcDbLine
 10
-31.459999999999781
 20
-24.430000000000007
 30
0.0
 11
-29.529999999999774
 21
-24.430000000000007
 31
0.0
  0
LINE
  5
18D
100
AcDbEntity
  8
0
  6
CONTINUOUS
 62
               7
100
AcDbLine
 10
-31.459999999999781
 20
-10.579999999999984
 30
0.0
 11
-29.529999999999774
 21
-10.579999999999984
 31
0.0
  0
LINE
  5
18E
100
AcDbEntity
  8
0
  6
CONTINUOUS
 62
               7
100
AcDbLine
 10
-29.529999999999774
 20
-14.04000000000002
 30
0.0
 11
-31.459999999999781
 21
-14.04000000000002
 31
0.0
  0
LINE
  5
18F
100
AcDbEntity
  8
0
  6
CONTINUOUS
 62
               7
100
AcDbLine
 10
-29.529999999999774
 20
-20.96999999999997
 30
0.0
 11
-31.459999999999781
 21
-20.96999999999997
 31
0.0
  0
LINE
  5
190
100
AcDbEntity
  8
0
  6
CONTINUOUS
 62
               2
100
AcDbLine
 10
-23.999999999999773
 20
-17.5
 30
0.0
 11
-59.048551767337301
 21
-17.5
 31
0.0
  0
SPLINE
  5
191
100
AcDbEntity
  8
0
  6
CONTINUOUS
 62
               7
100
AcDbSpline
210
0.0
220
0.0
230
1.0
 70
               0
 71
               3
 72
               0
 73
               0
 74
               5
 44
0.000001
 12
-0.4170288281141489
 22
0.9088932591463861
 32
0.0
 13
0.4170288281141488
 23
0.9088932591463861
 33
0.0
 11
-50.749999999999773
 21
-19.67944947177034
 31
0.0
 11
-51.116563101029811
 21
-18.617306428390361
 31
0.0
 11
-51.249999999999773
 21
-17.5
 31
0.0
 11
-51.116563101029811
 21
-16.382693571609639
 31
0.0
 11
-50.749999999999773
 21
-15.32055052822966
 31
0.0
  0
SPLINE
  5
192
100
AcDbEntity
  8
0
  6
CONTINUOUS
 62
               7
100
AcDbSpline
210
0.0
220
0.0
230
1.0
 70
               0
 71
               3
 72
               0
 73
               0
 74
               5
 44
0.000001
 12
0.417028828114149
 22
0.908893259146386
 32
0.0
 13
-0.4170288281141493
 23
0.9088932591463859
 33
0.0
 11
-47.499999999999773
 21
-19.67944947177034
 31
0.0
 11
-47.133436898969734
 21
-18.617306428390361
 31
0.0
 11
-46.999999999999773
 21
-17.5
 31
0.0
 11
-47.133436898969734
 21
-16.382693571609639
 31
0.0
 11
-47.499999999999773
 21
-15.32055052822966
 31
0.0
  0
LINE
  5
193
100
AcDbEntity
  8
0
  6
CONTINUOUS
 62
               7
100
AcDbLine
 10
-56.19999999999979
 20
-21.75
 30
0.0
 11
-56.19999999999979
 21
-13.25
 31
0.0
  0
LINE
  5
194
100
AcDbEntity
  8
0
  6
CONTINUOUS
 62
               7
100
AcDbLine
 10
-56.19999999999979
 20
-21.75
 30
0.0
 11
-56.499999999999773
 21
-21.449999999999989
 31
0.0
  0
LINE
  5
195
100
AcDbEntity
  8
0
  6
CONTINUOUS
 62
               7
100
AcDbLine
 10
-56.19999999999979
 20
-13.25
 30
0.0
 11
-56.499999999999773
 21
-13.550000000000011
 31
0.0
  0
LINE
  5
196
100
AcDbEntity
  8
0
  6
CONTINUOUS
 62
               2
100
AcDbLine
 10
-47.499999999999773
 20
-19.67944947177034
 30
0.0
 11
-50.749999999999773
 21
-15.32055052822966
 31
0.0
  0
LINE
  5
197
100
AcDbEntity
  8
0
  6
CONTINUOUS
 62
               2
100
AcDbLine
 10
-50.749999999999773
 20
-19.67944947177034
 30
0.0
 11
-47.499999999999773
 21
-15.32055052822966
 31
0.0
  0
LINE
  5
198
100
AcDbEntity
  8
0
  6
CONTINUOUS
 62
               7
100
AcDbLine
 10
-50.749999999999773
 20
-22.5
 30
0.0
 11
-50.749999999999773
 21
-19.67944947177034
 31
0.0
  0
LINE
  5
199
100
AcDbEntity
  8
0
  6
CONTINUOUS
 62
               7
100
AcDbLine
 10
-50.749999999999773
 20
-12.5
 30
0.0
 11
-50.749999999999773
 21
-15.32055052822966
 31
0.0
  0
LINE
  5
19A
100
AcDbEntity
  8
0
  6
CONTINUOUS
 62
               7
100
AcDbLine
 10
-50.749999999999773
 20
-22.5
 30
0.0
 11
-51.499999999999773
 21
-21.75
 31
0.0
  0
LINE
  5
19B
100
AcDbEntity
  8
0
  6
CONTINUOUS
 62
               7
100
AcDbLine
 10
-51.499999999999773
 20
-13.25
 30
0.0
 11
-50.749999999999773
 21
-12.5
 31
0.0
  0
LINE
  5
19C
100
AcDbEntity
  8
0
  6
CONTINUOUS
 62
               7
100
AcDbLine
 10
-51.499999999999773
 20
-21.75
 30
0.0
 11
-51.499999999999773
 21
-13.25
 31
0.0
  0
LINE
  5
19D
100
AcDbEntity
  8
0
  6
CONTINUOUS
 62
               7
100
AcDbLine
 10
-50.749999999999773
 20
-15.32055052822966
 30
0.0
 11
-47.499999999999773
 21
-15.32055052822966
 31
0.0
  0
LINE
  5
19E
100
AcDbEntity
  8
0
  6
CONTINUOUS
 62
               7
100
AcDbLine
 10
-50.749999999999773
 20
-19.67944947177034
 30
0.0
 11
-47.499999999999773
 21
-19.67944947177034
 31
0.0
  0
LINE
  5
19F
100
AcDbEntity
  8
0
  6
CONTINUOUS
 62
               7
100
AcDbLine
 10
-47.499999999999773
 20
-15.32055052822966
 30
0.0
 11
-47.499999999999773
 21
-19.67944947177034
 31
0.0
  0
LINE
  5
1A0
100
AcDbEntity
  8
0
  6
CONTINUOUS
 62
               7
100
AcDbLine
 10
-51.499999999999773
 20
-13.25
 30
0.0
 11
-56.19999999999979
 21
-13.25
 31
0.0
  0
LINE
  5
1A1
100
AcDbEntity
  8
0
  6
CONTINUOUS
 62
               7
100
AcDbLine
 10
-51.499999999999773
 20
-21.75
 30
0.0
 11
-56.19999999999979
 21
-21.75
 31
0.0
  0
LINE
  5
1A2
100
AcDbEntity
  8
0
  6
CONTINUOUS
 62
               7
100
AcDbLine
 10
-56.499999999999773
 20
-13.550000000000011
 30
0.0
 11
-56.499999999999773
 21
-21.449999999999989
 31
0.0
  0
ARC
  5
1A3
100
AcDbEntity
  8
0
  6
CONTINUOUS
 62
               7
100
AcDbCircle
 10
-28.933213968164495
 20
-22.69856561677193
 30
0.0
 40
3.0614680697606365
100
AcDbArc
 50
145.624103399896
 51
205.77897079257284
  0
ARC
  5
1A4
100
AcDbEntity
  8
0
  6
CONTINUOUS
 62
               7
100
AcDbCircle
 10
-20.535829648821505
 20
-17.505000000000052
 30
0.0
 40
11.46052890845629
100
AcDbArc
 50
162.401672458223
 51
197.598327541777
  0
ARC
  5
1A5
100
AcDbEntity
  8
0
  6
CONTINUOUS
 62
               7
100
AcDbCircle
 10
-28.932411533030319
 20
-12.31137406947613
 30
0.0
 40
3.0621644413774511
100
AcDbArc
 50
154.22857513121784
 51
214.3683506763135
  0
LINE
  5
1A6
100
AcDbEntity
  8
0
  6
CONTINUOUS
 62
               7
100
AcDbLine
 10
-31.999999999999773
 20
-23.5
 30
0.0
 11
-31.459999999999781
 21
-24.430000000000007
 31
0.0
  0
LINE
  5
1A7
100
AcDbEntity
  8
0
  6
CONTINUOUS
 62
               7
100
AcDbLine
 10
-31.999999999999773
 20
-11.5
 30
0.0
 11
-31.459999999999781
 21
-10.579999999999984
 31
0.0
  0
LINE
  5
1A8
100
AcDbEntity
  8
0
  6
CONTINUOUS
 62
               7
100
AcDbLine
 10
-31.999999999999773
 20
-11.5
 30
0.0
 11
-31.999999999999773
 21
-23.5
 31
0.0
  0
LINE
  5
1A9
100
AcDbEntity
  8
0
  6
CONTINUOUS
 62
               7
100
AcDbLine
 10
-31.999999999999773
 20
-12.5
 30
0.0
 11
-50.749999999999773
 21
-12.5
 31
0.0
  0
LINE
  5
1AA
100
AcDbEntity
  8
0
  6
CONTINUOUS
 62
               2
100
AcDbLine
 10
-31.999999999999773
 20
-13.0
 30
0.0
 11
-51.249999999999773
 21
-13.0
 31
0.0
  0
LINE
  5
1AB
100
AcDbEntity
  8
0
  6
CONTINUOUS
 62
               2
100
AcDbLine
 10
-31.999999999999773
 20
-22.0
 30
0.0
 11
-51.249999999999773
 21
-22.0
 31
0.0
  0
LINE
  5
1AC
100
AcDbEntity
  8
0
  6
CONTINUOUS
 62
               7
100
AcDbLine
 10
-31.999999999999773
 20
-22.5
 30
0.0
 11
-50.749999999999773
 21
-22.5
 31
0.0
  0
LINE
  5
1AD
100
AcDbEntity
  8
0
  6
CONTINUOUS
 62
               7
100
AcDbLine
 10
-28.999999999999773
 20
-11.5
 30
0.0
 11
-29.529999999999774
 21
-10.579999999999984
 31
0.0
  0
ARC
  5
1AE
100
AcDbEntity
  8
0
  6
CONTINUOUS
 62
               7
100
AcDbCircle
 10
-32.067506484994681
 20
-12.310628597533082
 30
0.0
 40
3.070775896912977
100
AcDbArc
 50
325.72463352664994
 51
25.678440665818762
  0
ARC
  5
1AF
100
AcDbEntity
  8
0
  6
CONTINUOUS
 62
               7
100
AcDbCircle
 10
-32.066706166420801
 20
-22.699311247802882
 30
0.0
 40
3.0700807101012773
100
AcDbArc
 50
334.31407547335687
 51
34.282850334174292
  0
ARC
  5
1B0
100
AcDbEntity
  8
0
  6
CONTINUOUS
 62
               7
100
AcDbCircle
 10
-40.46414593634023
 20
-17.505000000000052
 30
0.0
 40
11.470038027713356
100
AcDbArc
 50
342.41673834634935
 51
17.583261653650673
  0
LINE
  5
1B1
100
AcDbEntity
  8
0
  6
CONTINUOUS
 62
               7
100
AcDbLine
 10
-28.999999999999773
 20
-23.5
 30
0.0
 11
-29.529999999999774
 21
-24.430000000000007
 31
0.0
  0
LINE
  5
1B2
100
AcDbEntity
  8
0
  6
CONTINUOUS
 62
               2
100
AcDbLine
 10
-23.0
 20
-103.0
 30
0.0
 11
-31.0
 21
-103.0
 31
0.0
  0
LINE
  5
1B3
100
AcDbEntity
  8
0
  6
CONTINUOUS
 62
               2
100
AcDbLine
 10
5.0
 20
-46.0
 30
0.0
 11
-5.0
 21
-46.0
 31
0.0
  0
LINE
  5
1B4
100
AcDbEntity
  8
0
  6
CONTINUOUS
 62
               2
100
AcDbLine
 10
5.0
 20
-31.0
 30
0.0
 11
-5.0
 21
-31.0
 31
0.0
  0
LINE
  5
1B5
100
AcDbEntity
  8
0
  6
CONTINUOUS
 62
               2
100
AcDbLine
 10
-5.0
 20
-45.0
 30
0.0
 11
5.0
 21
-45.0
 31
0.0
  0
LINE
  5
1B6
100
AcDbEntity
  8
0
  6
CONTINUOUS
 62
               2
100
AcDbLine
 10
-5.0
 20
-47.0
 30
0.0
 11
5.0
 21
-47.0
 31
0.0
  0
LINE
  5
1B7
100
AcDbEntity
  8
0
  6
CONTINUOUS
 62
               2
100
AcDbLine
 10
25.999999999999773
 20
-31.0
 30
0.0
 11
31.999999999999773
 21
-31.0
 31
0.0
  0
ENDBLK
  5
1B8
100
AcDbEntity
  8
0
100
AcDbBlockEnd
  0
BLOCK
  5
1B9
100
AcDbEntity
  8
0
100
AcDbBlockBegin
  2
RAG20-SS2-4
 70
               0
 10
0.0
 20
0.0
 30
0.0
  3
RAG20-SS2-4
  1

  0
ARC
  5
1BA
100
AcDbEntity
  8
0
  6
CONTINUOUS
 62
               7
100
AcDbCircle
 10
0.0
 20
-0.000000000000199
 30
0.0
 40
46.0
100
AcDbArc
 50
34.301152756791538
 51
39.082207297359645
  0
ARC
  5
1BB
100
AcDbEntity
  8
0
  6
CONTINUOUS
 62
               7
100
AcDbCircle
 10
0.0
 20
-0.000000000000199
 30
0.0
 40
46.0
100
AcDbArc
 50
320.91779270264101
 51
325.69884724320843
  0
ARC
  5
1BC
100
AcDbEntity
  8
0
  6
CONTINUOUS
 62
               7
100
AcDbCircle
 10
0.0
 20
-0.000000000000199
 30
0.0
 40
46.0
100
AcDbArc
 50
214.30115275679154
 51
219.08220729735899
  0
ARC
  5
1BD
100
AcDbEntity
  8
0
  6
CONTINUOUS
 62
               7
100
AcDbCircle
 10
0.0
 20
-0.000000000000199
 30
0.0
 40
46.0
100
AcDbArc
 50
140.91779270264036
 51
145.69884724320841
  0
CIRCLE
  5
1BE
100
AcDbEntity
  8
0
  6
CONTINUOUS
 62
               7
100
AcDbCircle
 10
0.0
 20
-0.000000000000199
 30
0.0
 40
6.0
  0
CIRCLE
  5
1BF
100
AcDbEntity
  8
0
  6
CONTINUOUS
 62
               7
100
AcDbCircle
 10
33.0
 20
-15.0
 30
0.0
 40
2.5
  0
CIRCLE
  5
1C0
100
AcDbEntity
  8
0
  6
CONTINUOUS
 62
               2
100
AcDbCircle
 10
33.0
 20
-15.0
 30
0.0
 40
3.0
  0
CIRCLE
  5
1C1
100
AcDbEntity
  8
0
  6
CONTINUOUS
 62
               7
100
AcDbCircle
 10
33.0
 20
-24.0
 30
0.0
 40
2.75
  0
CIRCLE
  5
1C2
100
AcDbEntity
  8
0
  6
CONTINUOUS
 62
               7
100
AcDbCircle
 10
-33.0
 20
-15.0
 30
0.0
 40
2.5
  0
CIRCLE
  5
1C3
100
AcDbEntity
  8
0
  6
CONTINUOUS
 62
               2
100
AcDbCircle
 10
-33.0
 20
-15.0
 30
0.0
 40
3.0
  0
CIRCLE
  5
1C4
100
AcDbEntity
  8
0
  6
CONTINUOUS
 62
               7
100
AcDbCircle
 10
-33.0
 20
-24.0
 30
0.0
 40
2.75
  0
CIRCLE
  5
1C5
100
AcDbEntity
  8
0
  6
CONTINUOUS
 62
               7
100
AcDbCircle
 10
-33.0
 20
15.0
 30
0.0
 40
2.5
  0
CIRCLE
  5
1C6
100
AcDbEntity
  8
0
  6
CONTINUOUS
 62
               2
100
AcDbCircle
 10
-33.0
 20
15.0
 30
0.0
 40
3.0
  0
CIRCLE
  5
1C7
100
AcDbEntity
  8
0
  6
CONTINUOUS
 62
               7
100
AcDbCircle
 10
-33.0
 20
24.0
 30
0.0
 40
2.75
  0
LINE
  5
1C8
100
AcDbEntity
  8
0
  6
CONTINUOUS
 62
               2
100
AcDbLine
 10
-22.0
 20
-5.000000000000199
 30
0.0
 11
-22.0
 21
5.0
 31
0.0
  0
LINE
  5
1C9
100
AcDbEntity
  8
0
  6
CONTINUOUS
 62
               2
100
AcDbLine
 10
-20.0
 20
-5.000000000000199
 30
0.0
 11
-20.0
 21
5.0
 31
0.0
  0
LINE
  5
1CA
100
AcDbEntity
  8
0
  6
CONTINUOUS
 62
               2
100
AcDbLine
 10
-21.0
 20
-5.000000000000199
 30
0.0
 11
-21.0
 21
5.0
 31
0.0
  0
LINE
  5
1CB
100
AcDbEntity
  8
0
  6
CONTINUOUS
 62
               2
100
AcDbLine
 10
0.0
 20
-34.0
 30
0.0
 11
0.0
 21
34.0
 31
0.0
  0
LINE
  5
1CC
100
AcDbEntity
  8
0
  6
CONTINUOUS
 62
               7
100
AcDbLine
 10
-38.0
 20
25.922962793631257
 30
0.0
 11
-38.0
 21
13.5
 31
0.0
  0
LINE
  5
1CD
100
AcDbEntity
  8
0
  6
CONTINUOUS
 62
               7
100
AcDbLine
 10
-35.707142142714417
 20
-29.0
 30
0.0
 11
35.707142142714424
 21
-29.0
 31
0.0
  0
CIRCLE
  5
1CE
100
AcDbEntity
  8
0
  6
CONTINUOUS
 62
               7
100
AcDbCircle
 10
0.0
 20
0.0
 30
0.0
 40
28.0
  0
LINE
  5
1CF
100
AcDbEntity
  8
0
  6
CONTINUOUS
 62
               2
100
AcDbLine
 10
33.0
 20
7.0
 30
0.0
 11
33.0
 21
32.217005020325246
 31
0.0
  0
LINE
  5
1D0
100
AcDbEntity
  8
0
  6
CONTINUOUS
 62
               2
100
AcDbLine
 10
26.0
 20
24.0
 30
0.0
 11
40.0
 21
24.0
 31
0.0
  0
CIRCLE
  5
1D1
100
AcDbEntity
  8
0
  6
CONTINUOUS
 62
               7
100
AcDbCircle
 10
33.0
 20
15.0
 30
0.0
 40
2.5
  0
CIRCLE
  5
1D2
100
AcDbEntity
  8
0
  6
CONTINUOUS
 62
               2
100
AcDbCircle
 10
33.0
 20
15.0
 30
0.0
 40
3.0
  0
LINE
  5
1D3
100
AcDbEntity
  8
0
  6
CONTINUOUS
 62
               7
100
AcDbLine
 10
-20.0
 20
1.999999999999801
 30
0.0
 11
-22.0
 21
1.999999999999801
 31
0.0
  0
LINE
  5
1D4
100
AcDbEntity
  8
0
  6
CONTINUOUS
 62
               7
100
AcDbLine
 10
-20.0
 20
-2.000000000000199
 30
0.0
 11
-22.0
 21
-2.000000000000199
 31
0.0
  0
ARC
  5
1D5
100
AcDbEntity
  8
0
  6
CONTINUOUS
 62
               7
100
AcDbCircle
 10
-20.0
 20
-0.000000000000199
 30
0.0
 40
2.0
100
AcDbArc
 50
270.0
 51
90.0
  0
ARC
  5
1D6
100
AcDbEntity
  8
0
  6
CONTINUOUS
 62
               7
100
AcDbCircle
 10
-22.0
 20
-0.000000000000199
 30
0.0
 40
2.0
100
AcDbArc
 50
89.999999999999972
 51
270.0
  0
CIRCLE
  5
1D7
100
AcDbEntity
  8
0
  6
CONTINUOUS
 62
               7
100
AcDbCircle
 10
14.849242404917504
 20
14.849242404917305
 30
0.0
 40
2.1000000000000001
  0
CIRCLE
  5
1D8
100
AcDbEntity
  8
0
  6
CONTINUOUS
 62
               2
100
AcDbCircle
 10
14.849242404917504
 20
14.849242404917305
 30
0.0
 40
2.5
  0
LINE
  5
1D9
100
AcDbEntity
  8
0
  6
CONTINUOUS
 62
               2
100
AcDbLine
 10
12.020815280171313
 20
12.020815280171121
 30
0.0
 11
17.67766952966371
 21
17.67766952966349
 31
0.0
  0
CIRCLE
  5
1DA
100
AcDbEntity
  8
0
  6
CONTINUOUS
 62
               7
100
AcDbCircle
 10
14.849242404917504
 20
-14.849242404917703
 30
0.0
 40
2.1000000000000001
  0
CIRCLE
  5
1DB
100
AcDbEntity
  8
0
  6
CONTINUOUS
 62
               2
100
AcDbCircle
 10
14.849242404917504
 20
-14.849242404917703
 30
0.0
 40
2.5
  0
LINE
  5
1DC
100
AcDbEntity
  8
0
  6
CONTINUOUS
 62
               2
100
AcDbLine
 10
12.020815280171313
 20
-12.020815280171519
 30
0.0
 11
17.67766952966371
 21
-17.677669529663888
 31
0.0
  0
CIRCLE
  5
1DD
100
AcDbEntity
  8
0
  6
CONTINUOUS
 62
               7
100
AcDbCircle
 10
-14.849242404917504
 20
-14.849242404917703
 30
0.0
 40
2.1000000000000001
  0
CIRCLE
  5
1DE
100
AcDbEntity
  8
0
  6
CONTINUOUS
 62
               2
100
AcDbCircle
 10
-14.849242404917504
 20
-14.849242404917703
 30
0.0
 40
2.5
  0
LINE
  5
1DF
100
AcDbEntity
  8
0
  6
CONTINUOUS
 62
               2
100
AcDbLine
 10
-12.020815280171306
 20
-12.020815280171519
 30
0.0
 11
-17.677669529663703
 21
-17.677669529663888
 31
0.0
  0
CIRCLE
  5
1E0
100
AcDbEntity
  8
0
  6
CONTINUOUS
 62
               7
100
AcDbCircle
 10
-14.849242404917504
 20
14.849242404917305
 30
0.0
 40
2.1000000000000001
  0
CIRCLE
  5
1E1
100
AcDbEntity
  8
0
  6
CONTINUOUS
 62
               2
100
AcDbCircle
 10
-14.849242404917504
 20
14.849242404917305
 30
0.0
 40
2.5
  0
LINE
  5
1E2
100
AcDbEntity
  8
0
  6
CONTINUOUS
 62
               2
100
AcDbLine
 10
-12.020815280171306
 20
12.020815280171121
 30
0.0
 11
-17.677669529663703
 21
17.67766952966349
 31
0.0
  0
CIRCLE
  5
1E3
100
AcDbEntity
  8
0
  6
CONTINUOUS
 62
               7
100
AcDbCircle
 10
0.0
 20
-0.000000000000199
 30
0.0
 40
27.0
  0
CIRCLE
  5
1E4
100
AcDbEntity
  8
0
  6
CONTINUOUS
 62
               2
100
AcDbCircle
 10
0.0
 20
-0.000000000000199
 30
0.0
 40
21.0
  0
LINE
  5
1E5
100
AcDbEntity
  8
0
  6
CONTINUOUS
 62
               2
100
AcDbLine
 10
-43.0
 20
0.0
 30
0.0
 11
43.0
 21
0.0
 31
0.0
  0
LINE
  5
1E6
100
AcDbEntity
  8
0
  6
CONTINUOUS
 62
               7
100
AcDbLine
 10
-35.70714214271409
 20
29.0
 30
0.0
 11
35.70714214271409
 21
29.0
 31
0.0
  0
LINE
  5
1E7
100
AcDbEntity
  8
0
  6
CONTINUOUS
 62
               2
100
AcDbLine
 10
26.0
 20
15.0
 30
0.0
 11
40.0
 21
15.0
 31
0.0
  0
CIRCLE
  5
1E8
100
AcDbEntity
  8
0
  6
CONTINUOUS
 62
               7
100
AcDbCircle
 10
33.0
 20
24.0
 30
0.0
 40
2.75
  0
LINE
  5
1E9
100
AcDbEntity
  8
0
  6
CONTINUOUS
 62
               2
100
AcDbLine
 10
33.0
 20
-7.0
 30
0.0
 11
33.0
 21
-32.217005020325246
 31
0.0
  0
LINE
  5
1EA
100
AcDbEntity
  8
0
  6
CONTINUOUS
 62
               2
100
AcDbLine
 10
26.0
 20
-24.0
 30
0.0
 11
40.0
 21
-24.0
 31
0.0
  0
LINE
  5
1EB
100
AcDbEntity
  8
0
  6
CONTINUOUS
 62
               2
100
AcDbLine
 10
-33.0
 20
7.0
 30
0.0
 11
-33.0
 21
32.217005020325246
 31
0.0
  0
LINE
  5
1EC
100
AcDbEntity
  8
0
  6
CONTINUOUS
 62
               2
100
AcDbLine
 10
-26.0
 20
24.0
 30
0.0
 11
-40.0
 21
24.0
 31
0.0
  0
LINE
  5
1ED
100
AcDbEntity
  8
0
  6
CONTINUOUS
 62
               2
100
AcDbLine
 10
-33.0
 20
-7.0
 30
0.0
 11
-33.0
 21
-30.346453552246288
 31
0.0
  0
LINE
  5
1EE
100
AcDbEntity
  8
0
  6
CONTINUOUS
 62
               2
100
AcDbLine
 10
-26.0
 20
-24.0
 30
0.0
 11
-40.0
 21
-24.0
 31
0.0
  0
LINE
  5
1EF
100
AcDbEntity
  8
0
  6
CONTINUOUS
 62
               2
100
AcDbLine
 10
-26.0
 20
15.0
 30
0.0
 11
-40.0
 21
15.0
 31
0.0
  0
LINE
  5
1F0
100
AcDbEntity
  8
0
  6
CONTINUOUS
 62
               2
100
AcDbLine
 10
-26.0
 20
-15.0
 30
0.0
 11
-40.0
 21
-15.0
 31
0.0
  0
LINE
  5
1F1
100
AcDbEntity
  8
0
  6
CONTINUOUS
 62
               2
100
AcDbLine
 10
26.0
 20
-15.0
 30
0.0
 11
40.0
 21
-15.0
 31
0.0
  0
LINE
  5
1F2
100
AcDbEntity
  8
0
  6
CONTINUOUS
 62
               7
100
AcDbLine
 10
-37.5
 20
13.0
 30
0.0
 11
-38.0
 21
13.5
 31
0.0
  0
LINE
  5
1F3
100
AcDbEntity
  8
0
  6
CONTINUOUS
 62
               7
100
AcDbLine
 10
-37.5
 20
-13.0
 30
0.0
 11
-37.5
 21
13.0
 31
0.0
  0
LINE
  5
1F4
100
AcDbEntity
  8
0
  6
CONTINUOUS
 62
               7
100
AcDbLine
 10
-38.0
 20
-13.5
 30
0.0
 11
-38.0
 21
-25.922962793631626
 31
0.0
  0
LINE
  5
1F5
100
AcDbEntity
  8
0
  6
CONTINUOUS
 62
               7
100
AcDbLine
 10
-37.5
 20
-13.0
 30
0.0
 11
-38.0
 21
-13.5
 31
0.0
  0
LINE
  5
1F6
100
AcDbEntity
  8
0
  6
CONTINUOUS
 62
               7
100
AcDbLine
 10
38.0
 20
25.922962793631257
 30
0.0
 11
38.0
 21
13.5
 31
0.0
  0
LINE
  5
1F7
100
AcDbEntity
  8
0
  6
CONTINUOUS
 62
               7
100
AcDbLine
 10
37.5
 20
-13.0
 30
0.0
 11
37.5
 21
13.0
 31
0.0
  0
LINE
  5
1F8
100
AcDbEntity
  8
0
  6
CONTINUOUS
 62
               7
100
AcDbLine
 10
37.5
 20
13.0
 30
0.0
 11
38.0
 21
13.5
 31
0.0
  0
LINE
  5
1F9
100
AcDbEntity
  8
0
  6
CONTINUOUS
 62
               7
100
AcDbLine
 10
38.0
 20
-13.5
 30
0.0
 11
38.0
 21
-25.922962793631626
 31
0.0
  0
LINE
  5
1FA
100
AcDbEntity
  8
0
  6
CONTINUOUS
 62
               7
100
AcDbLine
 10
37.5
 20
-13.0
 30
0.0
 11
38.0
 21
-13.5
 31
0.0
  0
LINE
  5
1FB
100
AcDbEntity
  8
0
  6
CONTINUOUS
 62
               2
100
AcDbLine
 10
-21.0
 20
-60.77248674321487
 30
0.0
 11
-21.0
 21
-24.0
 31
0.0
  0
LINE
  5
1FC
100
AcDbEntity
  8
0
  6
CONTINUOUS
 62
               7
100
AcDbLine
 10
-27.0
 20
-29.000000000000227
 30
0.0
 11
-27.0
 21
-32.000000000000227
 31
0.0
  0
LINE
  5
1FD
100
AcDbEntity
  8
0
  6
CONTINUOUS
 62
               7
100
AcDbLine
 10
-15.0
 20
-29.000000000000227
 30
0.0
 11
-15.0
 21
-32.000000000000227
 31
0.0
  0
ARC
  5
1FE
100
AcDbEntity
  8
0
  6
CONTINUOUS
 62
               7
100
AcDbCircle
 10
-23.994999999986135
 20
-37.693189602211135
 30
0.0
 40
8.6931896022109498
100
AcDbArc
 50
69.847345766811202
 51
110.22287706715629
  0
ARC
  5
1FF
100
AcDbEntity
  8
0
  6
CONTINUOUS
 62
               7
100
AcDbCircle
 10
-18.005000000013922
 20
-37.693189602211135
 30
0.0
 40
8.6931896022109498
100
AcDbArc
 50
69.77712293284371
 51
110.15265423318878
  0
ARC
  5
200
100
AcDbEntity
  8
0
  6
CONTINUOUS
 62
               7
100
AcDbCircle
 10
-18.005000000013922
 20
-23.306810397789263
 30
0.0
 40
8.6931896022109498
100
AcDbArc
 50
249.84734576681123
 51
290.22287706715628
  0
ARC
  5
201
100
AcDbEntity
  8
0
  6
CONTINUOUS
 62
               7
100
AcDbCircle
 10
-23.994999999986135
 20
-23.306810397789263
 30
0.0
 40
8.6931896022109498
100
AcDbArc
 50
249.77712293284372
 51
290.1526542331888
  0
LINE
  5
202
100
AcDbEntity
  8
0
  6
CONTINUOUS
 62
               7
100
AcDbLine
 10
-27.0
 20
-32.000000000000227
 30
0.0
 11
-15.0
 21
-32.000000000000227
 31
0.0
  0
LINE
  5
203
100
AcDbEntity
  8
0
  6
CONTINUOUS
 62
               2
100
AcDbLine
 10
21.0
 20
-60.77248674321487
 30
0.0
 11
21.0
 21
-24.0
 31
0.0
  0
LINE
  5
204
100
AcDbEntity
  8
0
  6
CONTINUOUS
 62
               7
100
AcDbLine
 10
15.0
 20
-29.000000000000227
 30
0.0
 11
15.0
 21
-32.000000000000227
 31
0.0
  0
LINE
  5
205
100
AcDbEntity
  8
0
  6
CONTINUOUS
 62
               7
100
AcDbLine
 10
27.0
 20
-29.000000000000227
 30
0.0
 11
27.0
 21
-32.000000000000227
 31
0.0
  0
ARC
  5
206
100
AcDbEntity
  8
0
  6
CONTINUOUS
 62
               7
100
AcDbCircle
 10
18.005000000013865
 20
-37.693189602211135
 30
0.0
 40
8.6931896022109498
100
AcDbArc
 50
69.847345766811202
 51
110.22287706715629
  0
ARC
  5
207
100
AcDbEntity
  8
0
  6
CONTINUOUS
 62
               7
100
AcDbCircle
 10
23.994999999986078
 20
-37.693189602211135
 30
0.0
 40
8.6931896022109498
100
AcDbArc
 50
69.77712293284371
 51
110.15265423318878
  0
ARC
  5
208
100
AcDbEntity
  8
0
  6
CONTINUOUS
 62
               7
100
AcDbCircle
 10
23.994999999986078
 20
-23.306810397789263
 30
0.0
 40
8.6931896022109498
100
AcDbArc
 50
249.84734576681123
 51
290.22287706715628
  0
ARC
  5
209
100
AcDbEntity
  8
0
  6
CONTINUOUS
 62
               7
100
AcDbCircle
 10
18.005000000013865
 20
-23.306810397789263
 30
0.0
 40
8.6931896022109498
100
AcDbArc
 50
249.77712293284372
 51
290.1526542331888
  0
LINE
  5
20A
100
AcDbEntity
  8
0
  6
CONTINUOUS
 62
               7
100
AcDbLine
 10
15.0
 20
-32.000000000000227
 30
0.0
 11
27.0
 21
-32.000000000000227
 31
0.0
  0
LINE
  5
20B
100
AcDbEntity
  8
0
  6
CONTINUOUS
 62
               7
100
AcDbLine
 10
-26.0
 20
-32.000000000000227
 30
0.0
 11
-26.0
 21
-47.000000000000057
 31
0.0
  0
LINE
  5
20C
100
AcDbEntity
  8
0
  6
CONTINUOUS
 62
               2
100
AcDbLine
 10
-25.5
 20
-32.000000000000227
 30
0.0
 11
-25.5
 21
-47.500000000000057
 31
0.0
  0
LINE
  5
20D
100
AcDbEntity
  8
0
  6
CONTINUOUS
 62
               2
100
AcDbLine
 10
-16.5
 20
-32.000000000000227
 30
0.0
 11
-16.5
 21
-47.500000000000057
 31
0.0
  0
LINE
  5
20E
100
AcDbEntity
  8
0
  6
CONTINUOUS
 62
               7
100
AcDbLine
 10
-16.0
 20
-32.000000000000227
 30
0.0
 11
-16.0
 21
-47.000000000000057
 31
0.0
  0
LINE
  5
20F
100
AcDbEntity
  8
0
  6
CONTINUOUS
 62
               7
100
AcDbLine
 10
-16.5
 20
-47.500000000000057
 30
0.0
 11
-16.0
 21
-47.000000000000057
 31
0.0
  0
LINE
  5
210
100
AcDbEntity
  8
0
  6
CONTINUOUS
 62
               7
100
AcDbLine
 10
-16.5
 20
-47.500000000000057
 30
0.0
 11
-16.5
 21
-51.250000000000057
 31
0.0
  0
LINE
  5
211
100
AcDbEntity
  8
0
  6
CONTINUOUS
 62
               7
100
AcDbLine
 10
-16.5
 20
-51.250000000000057
 30
0.0
 11
-16.75
 21
-51.500000000000057
 31
0.0
  0
LINE
  5
212
100
AcDbEntity
  8
0
  6
CONTINUOUS
 62
               7
100
AcDbLine
 10
-25.5
 20
-47.500000000000057
 30
0.0
 11
-26.0
 21
-47.000000000000057
 31
0.0
  0
LINE
  5
213
100
AcDbEntity
  8
0
  6
CONTINUOUS
 62
               7
100
AcDbLine
 10
-25.5
 20
-47.500000000000057
 30
0.0
 11
-25.5
 21
-51.250000000000057
 31
0.0
  0
LINE
  5
214
100
AcDbEntity
  8
0
  6
CONTINUOUS
 62
               7
100
AcDbLine
 10
-17.050000000000011
 20
-56.500000000000057
 30
0.0
 11
-24.949999999999989
 21
-56.500000000000057
 31
0.0
  0
LINE
  5
215
100
AcDbEntity
  8
0
  6
CONTINUOUS
 62
               7
100
AcDbLine
 10
-25.25
 20
-51.500000000000057
 30
0.0
 11
-25.25
 21
-56.200000000000102
 31
0.0
  0
LINE
  5
216
100
AcDbEntity
  8
0
  6
CONTINUOUS
 62
               7
100
AcDbLine
 10
-16.75
 20
-51.500000000000057
 30
0.0
 11
-16.75
 21
-56.200000000000102
 31
0.0
  0
LINE
  5
217
100
AcDbEntity
  8
0
  6
CONTINUOUS
 62
               7
100
AcDbLine
 10
-25.25
 20
-51.500000000000057
 30
0.0
 11
-16.75
 21
-51.500000000000057
 31
0.0
  0
LINE
  5
218
100
AcDbEntity
  8
0
  6
CONTINUOUS
 62
               7
100
AcDbLine
 10
-25.5
 20
-51.250000000000057
 30
0.0
 11
-25.25
 21
-51.500000000000057
 31
0.0
  0
LINE
  5
219
100
AcDbEntity
  8
0
  6
CONTINUOUS
 62
               7
100
AcDbLine
 10
-25.5
 20
-50.750000000000057
 30
0.0
 11
-16.5
 21
-50.750000000000057
 31
0.0
  0
LINE
  5
21A
100
AcDbEntity
  8
0
  6
CONTINUOUS
 62
               7
100
AcDbLine
 10
-16.75
 20
-56.200000000000102
 30
0.0
 11
-17.050000000000011
 21
-56.500000000000057
 31
0.0
  0
LINE
  5
21B
100
AcDbEntity
  8
0
  6
CONTINUOUS
 62
               7
100
AcDbLine
 10
-25.25
 20
-56.200000000000102
 30
0.0
 11
-24.949999999999989
 21
-56.500000000000057
 31
0.0
  0
LINE
  5
21C
100
AcDbEntity
  8
0
  6
CONTINUOUS
 62
               7
100
AcDbLine
 10
-25.25
 20
-56.200000000000102
 30
0.0
 11
-16.75
 21
-56.200000000000102
 31
0.0
  0
LINE
  5
21D
100
AcDbEntity
  8
0
  6
CONTINUOUS
 62
               7
100
AcDbLine
 10
16.0
 20
-32.000000000000227
 30
0.0
 11
16.0
 21
-47.000000000000057
 31
0.0
  0
LINE
  5
21E
100
AcDbEntity
  8
0
  6
CONTINUOUS
 62
               2
100
AcDbLine
 10
16.5
 20
-32.000000000000227
 30
0.0
 11
16.5
 21
-47.500000000000057
 31
0.0
  0
LINE
  5
21F
100
AcDbEntity
  8
0
  6
CONTINUOUS
 62
               2
100
AcDbLine
 10
25.5
 20
-32.000000000000227
 30
0.0
 11
25.5
 21
-47.500000000000057
 31
0.0
  0
LINE
  5
220
100
AcDbEntity
  8
0
  6
CONTINUOUS
 62
               7
100
AcDbLine
 10
26.0
 20
-32.000000000000227
 30
0.0
 11
26.0
 21
-47.000000000000057
 31
0.0
  0
LINE
  5
221
100
AcDbEntity
  8
0
  6
CONTINUOUS
 62
               7
100
AcDbLine
 10
25.5
 20
-47.500000000000057
 30
0.0
 11
26.0
 21
-47.000000000000057
 31
0.0
  0
LINE
  5
222
100
AcDbEntity
  8
0
  6
CONTINUOUS
 62
               7
100
AcDbLine
 10
25.5
 20
-47.500000000000057
 30
0.0
 11
25.5
 21
-51.250000000000057
 31
0.0
  0
LINE
  5
223
100
AcDbEntity
  8
0
  6
CONTINUOUS
 62
               7
100
AcDbLine
 10
25.5
 20
-51.250000000000057
 30
0.0
 11
25.25
 21
-51.500000000000057
 31
0.0
  0
LINE
  5
224
100
AcDbEntity
  8
0
  6
CONTINUOUS
 62
               7
100
AcDbLine
 10
16.5
 20
-47.500000000000057
 30
0.0
 11
16.0
 21
-47.000000000000057
 31
0.0
  0
LINE
  5
225
100
AcDbEntity
  8
0
  6
CONTINUOUS
 62
               7
100
AcDbLine
 10
16.5
 20
-47.500000000000057
 30
0.0
 11
16.5
 21
-51.250000000000057
 31
0.0
  0
LINE
  5
226
100
AcDbEntity
  8
0
  6
CONTINUOUS
 62
               7
100
AcDbLine
 10
24.949999999999989
 20
-56.500000000000057
 30
0.0
 11
17.050000000000011
 21
-56.500000000000057
 31
0.0
  0
LINE
  5
227
100
AcDbEntity
  8
0
  6
CONTINUOUS
 62
               7
100
AcDbLine
 10
16.75
 20
-51.500000000000057
 30
0.0
 11
16.75
 21
-56.200000000000102
 31
0.0
  0
LINE
  5
228
100
AcDbEntity
  8
0
  6
CONTINUOUS
 62
               7
100
AcDbLine
 10
25.25
 20
-51.500000000000057
 30
0.0
 11
25.25
 21
-56.200000000000102
 31
0.0
  0
LINE
  5
229
100
AcDbEntity
  8
0
  6
CONTINUOUS
 62
               7
100
AcDbLine
 10
16.75
 20
-51.500000000000057
 30
0.0
 11
25.25
 21
-51.500000000000057
 31
0.0
  0
LINE
  5
22A
100
AcDbEntity
  8
0
  6
CONTINUOUS
 62
               7
100
AcDbLine
 10
16.5
 20
-51.250000000000057
 30
0.0
 11
16.75
 21
-51.500000000000057
 31
0.0
  0
LINE
  5
22B
100
AcDbEntity
  8
0
  6
CONTINUOUS
 62
               7
100
AcDbLine
 10
16.5
 20
-50.750000000000057
 30
0.0
 11
25.5
 21
-50.750000000000057
 31
0.0
  0
LINE
  5
22C
100
AcDbEntity
  8
0
  6
CONTINUOUS
 62
               7
100
AcDbLine
 10
25.25
 20
-56.200000000000102
 30
0.0
 11
24.949999999999989
 21
-56.500000000000057
 31
0.0
  0
LINE
  5
22D
100
AcDbEntity
  8
0
  6
CONTINUOUS
 62
               7
100
AcDbLine
 10
16.75
 20
-56.200000000000102
 30
0.0
 11
17.050000000000011
 21
-56.500000000000057
 31
0.0
  0
LINE
  5
22E
100
AcDbEntity
  8
0
  6
CONTINUOUS
 62
               7
100
AcDbLine
 10
16.75
 20
-56.200000000000102
 30
0.0
 11
25.25
 21
-56.200000000000102
 31
0.0
  0
CIRCLE
  5
22F
100
AcDbEntity
  8
0
  6
CONTINUOUS
 62
               7
100
AcDbCircle
 10
0.0
 20
0.0
 30
0.0
 40
10.0
  0
LINE
  5
230
100
AcDbEntity
  8
0
  6
CONTINUOUS
 62
               7
100
AcDbLine
 10
-21.000000000000028
 20
-29.532214142128453
 30
0.0
 11
-21.000000000000028
 21
-31.467785857871945
 31
0.0
  0
LINE
  5
231
100
AcDbEntity
  8
0
  6
CONTINUOUS
 62
               7
100
AcDbLine
 10
20.999999999999972
 20
-29.532214142128453
 30
0.0
 11
20.999999999999972
 21
-31.467785857871945
 31
0.0
  0
LINE
  5
232
100
AcDbEntity
  8
0
  6
CONTINUOUS
 62
               2
100
AcDbLine
 10
-21.0
 20
26.0
 30
0.0
 11
-21.0
 21
32.0
 31
0.0
  0
LINE
  5
233
100
AcDbEntity
  8
0
  6
CONTINUOUS
 62
               2
100
AcDbLine
 10
21.0
 20
26.0
 30
0.0
 11
21.0
 21
32.0
 31
0.0
  0
ENDBLK
  5
234
100
AcDbEntity
  8
0
100
AcDbBlockEnd
  0
BLOCK
  5
235
100
AcDbEntity
  8
0
100
AcDbBlockBegin
  2
RAG20-SS2-5
 70
               0
 10
0.0
 20
0.0
 30
0.0
  3
RAG20-SS2-5
  1

  0
ARC
  5
236
100
AcDbEntity
  8
0
  6
CONTINUOUS
 62
               7
100
AcDbCircle
 10
0.0
 20
0.0
 30
0.0
 40
37.5
100
AcDbArc
 50
222.83342806606726
 51
227.1665719339328
  0
ARC
  5
237
100
AcDbEntity
  8
0
  6
CONTINUOUS
 62
               7
100
AcDbCircle
 10
0.0
 20
0.0
 30
0.0
 40
37.5
100
AcDbArc
 50
42.833428066067235
 51
47.166571933932808
  0
ARC
  5
238
100
AcDbEntity
  8
0
  6
CONTINUOUS
 62
               7
100
AcDbCircle
 10
0.0
 20
0.0
 30
0.0
 40
46.0
100
AcDbArc
 50
320.91779270264101
 51
325.69884724320843
  0
ARC
  5
239
100
AcDbEntity
  8
0
  6
CONTINUOUS
 62
               7
100
AcDbCircle
 10
0.0
 20
0.0
 30
0.0
 40
46.0
100
AcDbArc
 50
34.301152756791538
 51
39.082207297359638
  0
ARC
  5
23A
100
AcDbEntity
  8
0
  6
CONTINUOUS
 62
               7
100
AcDbCircle
 10
0.0
 20
0.0
 30
0.0
 40
46.0
100
AcDbArc
 50
214.30115275679154
 51
219.08220729735896
  0
ARC
  5
23B
100
AcDbEntity
  8
0
  6
CONTINUOUS
 62
               7
100
AcDbCircle
 10
0.0
 20
0.0
 30
0.0
 40
46.0
100
AcDbArc
 50
140.91779270264036
 51
145.69884724320846
  0
CIRCLE
  5
23C
100
AcDbEntity
  8
0
  6
CONTINUOUS
 62
               7
100
AcDbCircle
 10
-33.0
 20
-15.0
 30
0.0
 40
2.5
  0
CIRCLE
  5
23D
100
AcDbEntity
  8
0
  6
CONTINUOUS
 62
               7
100
AcDbCircle
 10
-33.0
 20
-24.0
 30
0.0
 40
2.75
  0
CIRCLE
  5
23E
100
AcDbEntity
  8
0
  6
CONTINUOUS
 62
               2
100
AcDbCircle
 10
-33.0
 20
-15.0
 30
0.0
 40
3.0
  0
CIRCLE
  5
23F
100
AcDbEntity
  8
0
  6
CONTINUOUS
 62
               7
100
AcDbCircle
 10
-33.0
 20
24.0
 30
0.0
 40
2.75
  0
CIRCLE
  5
240
100
AcDbEntity
  8
0
  6
CONTINUOUS
 62
               2
100
AcDbCircle
 10
-33.0
 20
15.0
 30
0.0
 40
3.0
  0
CIRCLE
  5
241
100
AcDbEntity
  8
0
  6
CONTINUOUS
 62
               7
100
AcDbCircle
 10
-33.0
 20
15.0
 30
0.0
 40
2.5
  0
CIRCLE
  5
242
100
AcDbEntity
  8
0
  6
CONTINUOUS
 62
               7
100
AcDbCircle
 10
33.0
 20
24.0
 30
0.0
 40
2.75
  0
CIRCLE
  5
243
100
AcDbEntity
  8
0
  6
CONTINUOUS
 62
               2
100
AcDbCircle
 10
33.0
 20
15.0
 30
0.0
 40
3.0
  0
CIRCLE
  5
244
100
AcDbEntity
  8
0
  6
CONTINUOUS
 62
               7
100
AcDbCircle
 10
33.0
 20
15.0
 30
0.0
 40
2.5
  0
CIRCLE
  5
245
100
AcDbEntity
  8
0
  6
CONTINUOUS
 62
               7
100
AcDbCircle
 10
33.0
 20
-24.0
 30
0.0
 40
2.75
  0
CIRCLE
  5
246
100
AcDbEntity
  8
0
  6
CONTINUOUS
 62
               2
100
AcDbCircle
 10
33.0
 20
-15.0
 30
0.0
 40
3.0
  0
CIRCLE
  5
247
100
AcDbEntity
  8
0
  6
CONTINUOUS
 62
               7
100
AcDbCircle
 10
33.0
 20
-15.0
 30
0.0
 40
2.5
  0
ARC
  5
248
100
AcDbEntity
  8
0
  6
CONTINUOUS
 62
               7
100
AcDbCircle
 10
-23.994999999986078
 20
37.693189602211163
 30
0.0
 40
8.6931896022109498
100
AcDbArc
 50
249.77712293284372
 51
290.1526542331888
  0
ARC
  5
249
100
AcDbEntity
  8
0
  6
CONTINUOUS
 62
               7
100
AcDbCircle
 10
-18.005000000013865
 20
37.693189602211163
 30
0.0
 40
8.6931896022109498
100
AcDbArc
 50
249.84734576681123
 51
290.22287706715628
  0
LINE
  5
24A
100
AcDbEntity
  8
0
  6
CONTINUOUS
 62
               7
100
AcDbLine
 10
-15.0
 20
32.000000000000256
 30
0.0
 11
-27.0
 21
32.000000000000256
 31
0.0
  0
ARC
  5
24B
100
AcDbEntity
  8
0
  6
CONTINUOUS
 62
               7
100
AcDbCircle
 10
-18.005000000013865
 20
23.306810397789292
 30
0.0
 40
8.6931896022109498
100
AcDbArc
 50
69.777122932843668
 51
110.15265423318878
  0
ARC
  5
24C
100
AcDbEntity
  8
0
  6
CONTINUOUS
 62
               7
100
AcDbCircle
 10
-23.994999999986078
 20
23.306810397789292
 30
0.0
 40
8.6931896022109498
100
AcDbArc
 50
69.847345766811202
 51
110.22287706715629
  0
LINE
  5
24D
100
AcDbEntity
  8
0
  6
CONTINUOUS
 62
               7
100
AcDbLine
 10
-15.0
 20
29.000000000000256
 30
0.0
 11
-15.0
 21
32.000000000000256
 31
0.0
  0
LINE
  5
24E
100
AcDbEntity
  8
0
  6
CONTINUOUS
 62
               7
100
AcDbLine
 10
-27.0
 20
29.000000000000256
 30
0.0
 11
-27.0
 21
32.000000000000256
 31
0.0
  0
LINE
  5
24F
100
AcDbEntity
  8
0
  6
CONTINUOUS
 62
               7
100
AcDbLine
 10
27.0
 20
32.000000000000256
 30
0.0
 11
15.0
 21
32.000000000000256
 31
0.0
  0
ARC
  5
250
100
AcDbEntity
  8
0
  6
CONTINUOUS
 62
               7
100
AcDbCircle
 10
23.994999999986135
 20
23.306810397789292
 30
0.0
 40
8.6931896022109498
100
AcDbArc
 50
69.777122932843668
 51
110.15265423318878
  0
ARC
  5
251
100
AcDbEntity
  8
0
  6
CONTINUOUS
 62
               7
100
AcDbCircle
 10
18.005000000013922
 20
23.306810397789292
 30
0.0
 40
8.6931896022109498
100
AcDbArc
 50
69.847345766811202
 51
110.22287706715629
  0
LINE
  5
252
100
AcDbEntity
  8
0
  6
CONTINUOUS
 62
               7
100
AcDbLine
 10
27.0
 20
29.000000000000256
 30
0.0
 11
27.0
 21
32.000000000000256
 31
0.0
  0
LINE
  5
253
100
AcDbEntity
  8
0
  6
CONTINUOUS
 62
               7
100
AcDbLine
 10
15.0
 20
29.000000000000256
 30
0.0
 11
15.0
 21
32.000000000000256
 31
0.0
  0
ARC
  5
254
100
AcDbEntity
  8
0
  6
CONTINUOUS
 62
               7
100
AcDbCircle
 10
23.994999999986135
 20
37.693189602211163
 30
0.0
 40
8.6931896022109498
100
AcDbArc
 50
249.84734576681123
 51
290.22287706715628
  0
ARC
  5
255
100
AcDbEntity
  8
0
  6
CONTINUOUS
 62
               7
100
AcDbCircle
 10
18.005000000013922
 20
37.693189602211163
 30
0.0
 40
8.6931896022109498
100
AcDbArc
 50
249.77712293284372
 51
290.1526542331888
  0
LINE
  5
256
100
AcDbEntity
  8
0
  6
CONTINUOUS
 62
               2
100
AcDbLine
 10
0.0
 20
34.0
 30
0.0
 11
0.0
 21
-34.0
 31
0.0
  0
LINE
  5
257
100
AcDbEntity
  8
0
  6
CONTINUOUS
 62
               2
100
AcDbLine
 10
-43.0
 20
0.0
 30
0.0
 11
43.0
 21
0.0
 31
0.0
  0
ARC
  5
258
100
AcDbEntity
  8
0
  6
CONTINUOUS
 62
               7
100
AcDbCircle
 10
0.0
 20
0.0
 30
0.0
 40
37.5
100
AcDbArc
 50
132.8334280660672
 51
137.16657193393274
  0
ARC
  5
259
100
AcDbEntity
  8
0
  6
CONTINUOUS
 62
               7
100
AcDbCircle
 10
0.0
 20
0.0
 30
0.0
 40
37.5
100
AcDbArc
 50
312.8334280660672
 51
317.16657193393274
  0
LINE
  5
25A
100
AcDbEntity
  8
0
  6
CONTINUOUS
 62
               7
100
AcDbLine
 10
-27.5
 20
-25.495097567963938
 30
0.0
 11
-27.5
 21
25.49509756796391
 31
0.0
  0
LINE
  5
25B
100
AcDbEntity
  8
0
  6
CONTINUOUS
 62
               7
100
AcDbLine
 10
-25.49509756796391
 20
-27.5
 30
0.0
 11
25.49509756796391
 21
-27.5
 31
0.0
  0
LINE
  5
25C
100
AcDbEntity
  8
0
  6
CONTINUOUS
 62
               7
100
AcDbLine
 10
27.5
 20
-25.49509756796391
 30
0.0
 11
27.5
 21
25.49509756796391
 31
0.0
  0
LINE
  5
25D
100
AcDbEntity
  8
0
  6
CONTINUOUS
 62
               7
100
AcDbLine
 10
-25.49509756796391
 20
27.500000000000028
 30
0.0
 11
25.49509756796391
 21
27.500000000000028
 31
0.0
  0
LINE
  5
25E
100
AcDbEntity
  8
0
  6
CONTINUOUS
 62
               7
100
AcDbLine
 10
-35.707142142714247
 20
29.0
 30
0.0
 11
35.707142142714247
 21
29.0
 31
0.0
  0
LINE
  5
25F
100
AcDbEntity
  8
0
  6
CONTINUOUS
 62
               7
100
AcDbLine
 10
-35.707142142714247
 20
-29.0
 30
0.0
 11
35.707142142714247
 21
-29.0
 31
0.0
  0
LINE
  5
260
100
AcDbEntity
  8
0
  6
CONTINUOUS
 62
               7
100
AcDbLine
 10
-24.5
 20
27.000000000000028
 30
0.0
 11
24.5
 21
27.000000000000028
 31
0.0
  0
LINE
  5
261
100
AcDbEntity
  8
0
  6
CONTINUOUS
 62
               7
100
AcDbLine
 10
-24.5
 20
-27.0
 30
0.0
 11
24.5
 21
-27.0
 31
0.0
  0
LINE
  5
262
100
AcDbEntity
  8
0
  6
CONTINUOUS
 62
               7
100
AcDbLine
 10
-27.0
 20
-24.5
 30
0.0
 11
-27.0
 21
24.500000000000028
 31
0.0
  0
LINE
  5
263
100
AcDbEntity
  8
0
  6
CONTINUOUS
 62
               7
100
AcDbLine
 10
27.0
 20
-24.5
 30
0.0
 11
27.0
 21
24.500000000000028
 31
0.0
  0
LINE
  5
264
100
AcDbEntity
  8
0
  6
CONTINUOUS
 62
               7
100
AcDbLine
 10
-25.5
 20
17.999999999999972
 30
0.0
 11
-22.0
 21
17.999999999999972
 31
0.0
  0
LINE
  5
265
100
AcDbEntity
  8
0
  6
CONTINUOUS
 62
               7
100
AcDbLine
 10
-25.5
 20
-18.0
 30
0.0
 11
-22.0
 21
-18.0
 31
0.0
  0
LINE
  5
266
100
AcDbEntity
  8
0
  6
CONTINUOUS
 62
               7
100
AcDbLine
 10
-18.0
 20
-25.5
 30
0.0
 11
-18.0
 21
-22.0
 31
0.0
  0
LINE
  5
267
100
AcDbEntity
  8
0
  6
CONTINUOUS
 62
               7
100
AcDbLine
 10
18.0
 20
-25.5
 30
0.0
 11
18.0
 21
-22.0
 31
0.0
  0
LINE
  5
268
100
AcDbEntity
  8
0
  6
CONTINUOUS
 62
               7
100
AcDbLine
 10
22.0
 20
-18.0
 30
0.0
 11
25.5
 21
-18.0
 31
0.0
  0
LINE
  5
269
100
AcDbEntity
  8
0
  6
CONTINUOUS
 62
               7
100
AcDbLine
 10
22.0
 20
17.999999999999972
 30
0.0
 11
25.5
 21
17.999999999999972
 31
0.0
  0
LINE
  5
26A
100
AcDbEntity
  8
0
  6
CONTINUOUS
 62
               7
100
AcDbLine
 10
-18.0
 20
22.000000000000028
 30
0.0
 11
-18.0
 21
25.500000000000028
 31
0.0
  0
LINE
  5
26B
100
AcDbEntity
  8
0
  6
CONTINUOUS
 62
               7
100
AcDbLine
 10
18.0
 20
22.000000000000028
 30
0.0
 11
18.0
 21
25.500000000000028
 31
0.0
  0
LINE
  5
26C
100
AcDbEntity
  8
0
  6
CONTINUOUS
 62
               7
100
AcDbLine
 10
3.0
 20
2.6457513110646005
 30
0.0
 11
3.0
 21
-2.6457513110646005
 31
0.0
  0
LINE
  5
26D
100
AcDbEntity
  8
0
  6
CONTINUOUS
 62
               2
100
AcDbLine
 10
-8.5
 20
7.0
 30
0.0
 11
-13.5
 21
7.0
 31
0.0
  0
LINE
  5
26E
100
AcDbEntity
  8
0
  6
CONTINUOUS
 62
               2
100
AcDbLine
 10
-11.0
 20
4.5
 30
0.0
 11
-11.0
 21
9.5
 31
0.0
  0
LINE
  5
26F
100
AcDbEntity
  8
0
  6
CONTINUOUS
 62
               2
100
AcDbLine
 10
11.0
 20
-4.5
 30
0.0
 11
11.0
 21
-9.5
 31
0.0
  0
LINE
  5
270
100
AcDbEntity
  8
0
  6
CONTINUOUS
 62
               2
100
AcDbLine
 10
8.5
 20
-7.0
 30
0.0
 11
13.5
 21
-7.0
 31
0.0
  0
ARC
  5
271
100
AcDbEntity
  8
0
  6
CONTINUOUS
 62
               7
100
AcDbCircle
 10
-24.5
 20
-24.5
 30
0.0
 40
2.5
100
AcDbArc
 50
180.0
 51
270.0
  0
ARC
  5
272
100
AcDbEntity
  8
0
  6
CONTINUOUS
 62
               7
100
AcDbCircle
 10
-24.5
 20
24.500000000000028
 30
0.0
 40
2.5
100
AcDbArc
 50
90.0
 51
180.0
  0
ARC
  5
273
100
AcDbEntity
  8
0
  6
CONTINUOUS
 62
               7
100
AcDbCircle
 10
24.5
 20
24.500000000000028
 30
0.0
 40
2.5
100
AcDbArc
 50
0.0
 51
90.0
  0
ARC
  5
274
100
AcDbEntity
  8
0
  6
CONTINUOUS
 62
               7
100
AcDbCircle
 10
24.5
 20
-24.5
 30
0.0
 40
2.5
100
AcDbArc
 50
270.0
 51
0.0
  0
ARC
  5
275
100
AcDbEntity
  8
0
  6
CONTINUOUS
 62
               7
100
AcDbCircle
 10
22.0
 20
-22.0
 30
0.0
 40
4.0
100
AcDbArc
 50
90.0
 51
180.0
  0
ARC
  5
276
100
AcDbEntity
  8
0
  6
CONTINUOUS
 62
               7
100
AcDbCircle
 10
-22.0
 20
-22.0
 30
0.0
 40
4.0
100
AcDbArc
 50
0.0
 51
90.0
  0
ARC
  5
277
100
AcDbEntity
  8
0
  6
CONTINUOUS
 62
               7
100
AcDbCircle
 10
-22.0
 20
22.000000000000028
 30
0.0
 40
4.0
100
AcDbArc
 50
270.0
 51
0.0
  0
ARC
  5
278
100
AcDbEntity
  8
0
  6
CONTINUOUS
 62
               7
100
AcDbCircle
 10
22.0
 20
22.000000000000028
 30
0.0
 40
4.0
100
AcDbArc
 50
180.0
 51
270.0
  0
ARC
  5
279
100
AcDbEntity
  8
0
  6
CONTINUOUS
 62
               7
100
AcDbCircle
 10
16.5
 20
-25.5
 30
0.0
 40
1.5
100
AcDbArc
 50
270.0
 51
0.0
  0
ARC
  5
27A
100
AcDbEntity
  8
0
  6
CONTINUOUS
 62
               7
100
AcDbCircle
 10
25.5
 20
-16.5
 30
0.0
 40
1.5
100
AcDbArc
 50
270.0
 51
0.0
  0
ARC
  5
27B
100
AcDbEntity
  8
0
  6
CONTINUOUS
 62
               7
100
AcDbCircle
 10
25.5
 20
16.499999999999972
 30
0.0
 40
1.5
100
AcDbArc
 50
0.0
 51
90.0
  0
ARC
  5
27C
100
AcDbEntity
  8
0
  6
CONTINUOUS
 62
               7
100
AcDbCircle
 10
16.5
 20
25.500000000000028
 30
0.0
 40
1.5
100
AcDbArc
 50
0.0
 51
90.0
  0
ARC
  5
27D
100
AcDbEntity
  8
0
  6
CONTINUOUS
 62
               7
100
AcDbCircle
 10
-16.5
 20
25.500000000000028
 30
0.0
 40
1.5
100
AcDbArc
 50
90.0
 51
180.0
  0
ARC
  5
27E
100
AcDbEntity
  8
0
  6
CONTINUOUS
 62
               7
100
AcDbCircle
 10
-25.5
 20
16.499999999999972
 30
0.0
 40
1.5
100
AcDbArc
 50
90.0
 51
180.0
  0
ARC
  5
27F
100
AcDbEntity
  8
0
  6
CONTINUOUS
 62
               7
100
AcDbCircle
 10
-25.5
 20
-16.5
 30
0.0
 40
1.5
100
AcDbArc
 50
180.0
 51
270.0
  0
ARC
  5
280
100
AcDbEntity
  8
0
  6
CONTINUOUS
 62
               7
100
AcDbCircle
 10
-16.5
 20
-25.5
 30
0.0
 40
1.5
100
AcDbArc
 50
180.0
 51
270.0
  0
CIRCLE
  5
281
100
AcDbEntity
  8
0
  6
CONTINUOUS
 62
               7
100
AcDbCircle
 10
0.0
 20
0.0
 30
0.0
 40
4.0
  0
CIRCLE
  5
282
100
AcDbEntity
  8
0
  6
CONTINUOUS
 62
               7
100
AcDbCircle
 10
0.0
 20
0.0
 30
0.0
 40
10.0
  0
CIRCLE
  5
283
100
AcDbEntity
  8
0
  6
CONTINUOUS
 62
               2
100
AcDbCircle
 10
-11.0
 20
7.0
 30
0.0
 40
1.5
  0
CIRCLE
  5
284
100
AcDbEntity
  8
0
  6
CONTINUOUS
 62
               2
100
AcDbCircle
 10
-11.0
 20
7.0
 30
0.0
 40
1.25
  0
CIRCLE
  5
285
100
AcDbEntity
  8
0
  6
CONTINUOUS
 62
               2
100
AcDbCircle
 10
11.0
 20
-7.0
 30
0.0
 40
1.5
  0
CIRCLE
  5
286
100
AcDbEntity
  8
0
  6
CONTINUOUS
 62
               2
100
AcDbCircle
 10
11.0
 20
-7.0
 30
0.0
 40
1.25
  0
LINE
  5
287
100
AcDbEntity
  8
0
  6
CONTINUOUS
 62
               7
100
AcDbLine
 10
-23.5
 20
22.866025686264067
 30
0.0
 11
-23.5
 21
21.13397431373599
 31
0.0
  0
LINE
  5
288
100
AcDbEntity
  8
0
  6
CONTINUOUS
 62
               7
100
AcDbLine
 10
-20.5
 20
22.866025388240843
 30
0.0
 11
-20.5
 21
21.133974611759214
 31
0.0
  0
LINE
  5
289
100
AcDbEntity
  8
0
  6
CONTINUOUS
 62
               7
100
AcDbLine
 10
-23.500000399862074
 20
22.866025261046076
 30
0.0
 11
-22.000000247230219
 21
23.7320506056532
 31
0.0
  0
LINE
  5
28A
100
AcDbEntity
  8
0
  6
CONTINUOUS
 62
               7
100
AcDbLine
 10
-22.000000642559996
 20
20.267949981834505
 30
0.0
 11
-20.500000489928141
 21
21.133975326441629
 31
0.0
  0
LINE
  5
28B
100
AcDbEntity
  8
0
  6
CONTINUOUS
 62
               7
100
AcDbLine
 10
-22.000000642559996
 20
23.732050018165552
 30
0.0
 11
-20.500000489928141
 21
22.866024673558428
 31
0.0
  0
LINE
  5
28C
100
AcDbEntity
  8
0
  6
CONTINUOUS
 62
               7
100
AcDbLine
 10
-23.500000399862074
 20
21.133974738953981
 30
0.0
 11
-22.000000247230219
 21
20.267949394346743
 31
0.0
  0
CIRCLE
  5
28D
100
AcDbEntity
  8
0
  6
CONTINUOUS
 62
               7
100
AcDbCircle
 10
-22.0
 20
22.000000000000028
 30
0.0
 40
3.5
  0
CIRCLE
  5
28E
100
AcDbEntity
  8
0
  6
CONTINUOUS
 62
               7
100
AcDbCircle
 10
-22.0
 20
22.000000119209318
 30
0.0
 40
2.9803848266601563
  0
LINE
  5
28F
100
AcDbEntity
  8
0
  6
CONTINUOUS
 62
               7
100
AcDbLine
 10
22.000000642559996
 20
20.267949981834505
 30
0.0
 11
20.500000489928141
 21
21.133975326441629
 31
0.0
  0
LINE
  5
290
100
AcDbEntity
  8
0
  6
CONTINUOUS
 62
               7
100
AcDbLine
 10
23.500000399862074
 20
21.133974738953981
 30
0.0
 11
22.000000247230219
 21
20.267949394346743
 31
0.0
  0
CIRCLE
  5
291
100
AcDbEntity
  8
0
  6
CONTINUOUS
 62
               7
100
AcDbCircle
 10
22.0
 20
22.000000000000028
 30
0.0
 40
3.5
  0
CIRCLE
  5
292
100
AcDbEntity
  8
0
  6
CONTINUOUS
 62
               7
100
AcDbCircle
 10
22.0
 20
22.000000119209318
 30
0.0
 40
2.9803848266601563
  0
LINE
  5
293
100
AcDbEntity
  8
0
  6
CONTINUOUS
 62
               7
100
AcDbLine
 10
22.000000642559996
 20
23.732050018165552
 30
0.0
 11
20.500000489928141
 21
22.866024673558428
 31
0.0
  0
LINE
  5
294
100
AcDbEntity
  8
0
  6
CONTINUOUS
 62
               7
100
AcDbLine
 10
23.500000399862074
 20
22.866025261046076
 30
0.0
 11
22.000000247230219
 21
23.7320506056532
 31
0.0
  0
LINE
  5
295
100
AcDbEntity
  8
0
  6
CONTINUOUS
 62
               7
100
AcDbLine
 10
20.5
 20
22.866025388240843
 30
0.0
 11
20.5
 21
21.133974611759214
 31
0.0
  0
LINE
  5
296
100
AcDbEntity
  8
0
  6
CONTINUOUS
 62
               7
100
AcDbLine
 10
23.5
 20
22.866025686264067
 30
0.0
 11
23.5
 21
21.13397431373599
 31
0.0
  0
LINE
  5
297
100
AcDbEntity
  8
0
  6
CONTINUOUS
 62
               7
100
AcDbLine
 10
22.000000642559996
 20
-20.267949981834477
 30
0.0
 11
20.500000489928141
 21
-21.1339753264416
 31
0.0
  0
LINE
  5
298
100
AcDbEntity
  8
0
  6
CONTINUOUS
 62
               7
100
AcDbLine
 10
23.500000399862074
 20
-21.133974738953953
 30
0.0
 11
22.000000247230219
 21
-20.267949394346772
 31
0.0
  0
CIRCLE
  5
299
100
AcDbEntity
  8
0
  6
CONTINUOUS
 62
               7
100
AcDbCircle
 10
22.0
 20
-22.0
 30
0.0
 40
3.5
  0
CIRCLE
  5
29A
100
AcDbEntity
  8
0
  6
CONTINUOUS
 62
               7
100
AcDbCircle
 10
22.0
 20
-22.00000011920929
 30
0.0
 40
2.9803848266601563
  0
LINE
  5
29B
100
AcDbEntity
  8
0
  6
CONTINUOUS
 62
               7
100
AcDbLine
 10
22.000000642559996
 20
-23.732050018165523
 30
0.0
 11
20.500000489928141
 21
-22.8660246735584
 31
0.0
  0
LINE
  5
29C
100
AcDbEntity
  8
0
  6
CONTINUOUS
 62
               7
100
AcDbLine
 10
23.500000399862074
 20
-22.866025261046047
 30
0.0
 11
22.000000247230219
 21
-23.732050605653228
 31
0.0
  0
LINE
  5
29D
100
AcDbEntity
  8
0
  6
CONTINUOUS
 62
               7
100
AcDbLine
 10
20.5
 20
-22.866025388240814
 30
0.0
 11
20.5
 21
-21.133974611759186
 31
0.0
  0
LINE
  5
29E
100
AcDbEntity
  8
0
  6
CONTINUOUS
 62
               7
100
AcDbLine
 10
23.5
 20
-22.866025686264038
 30
0.0
 11
23.5
 21
-21.133974313735962
 31
0.0
  0
LINE
  5
29F
100
AcDbEntity
  8
0
  6
CONTINUOUS
 62
               7
100
AcDbLine
 10
-22.000000642559996
 20
-20.267949981834477
 30
0.0
 11
-20.500000489928141
 21
-21.1339753264416
 31
0.0
  0
LINE
  5
2A0
100
AcDbEntity
  8
0
  6
CONTINUOUS
 62
               7
100
AcDbLine
 10
-23.500000399862074
 20
-21.133974738953953
 30
0.0
 11
-22.000000247230219
 21
-20.267949394346772
 31
0.0
  0
CIRCLE
  5
2A1
100
AcDbEntity
  8
0
  6
CONTINUOUS
 62
               7
100
AcDbCircle
 10
-22.0
 20
-22.0
 30
0.0
 40
3.5
  0
CIRCLE
  5
2A2
100
AcDbEntity
  8
0
  6
CONTINUOUS
 62
               7
100
AcDbCircle
 10
-22.0
 20
-22.00000011920929
 30
0.0
 40
2.9803848266601563
  0
LINE
  5
2A3
100
AcDbEntity
  8
0
  6
CONTINUOUS
 62
               7
100
AcDbLine
 10
-22.000000642559996
 20
-23.732050018165523
 30
0.0
 11
-20.500000489928141
 21
-22.8660246735584
 31
0.0
  0
LINE
  5
2A4
100
AcDbEntity
  8
0
  6
CONTINUOUS
 62
               7
100
AcDbLine
 10
-23.500000399862074
 20
-22.866025261046047
 30
0.0
 11
-22.000000247230219
 21
-23.732050605653228
 31
0.0
  0
LINE
  5
2A5
100
AcDbEntity
  8
0
  6
CONTINUOUS
 62
               7
100
AcDbLine
 10
-20.5
 20
-22.866025388240814
 30
0.0
 11
-20.5
 21
-21.133974611759186
 31
0.0
  0
LINE
  5
2A6
100
AcDbEntity
  8
0
  6
CONTINUOUS
 62
               7
100
AcDbLine
 10
-23.5
 20
-22.866025686264038
 30
0.0
 11
-23.5
 21
-21.133974313735962
 31
0.0
  0
ARC
  5
2A7
100
AcDbEntity
  8
0
  6
CONTINUOUS
 62
               7
100
AcDbCircle
 10
0.0
 20
0.0
 30
0.0
 40
3.5
100
AcDbArc
 50
31.00271913387407
 51
328.997280866126
  0
LINE
  5
2A8
100
AcDbEntity
  8
0
  6
CONTINUOUS
 62
               2
100
AcDbLine
 10
33.0
 20
7.3021731150576557
 30
0.0
 11
33.0
 21
32.217005020325246
 31
0.0
  0
LINE
  5
2A9
100
AcDbEntity
  8
0
  6
CONTINUOUS
 62
               2
100
AcDbLine
 10
26.100475416221173
 20
24.0
 30
0.0
 11
39.509058679356059
 21
24.0
 31
0.0
  0
LINE
  5
2AA
100
AcDbEntity
  8
0
  6
CONTINUOUS
 62
               2
100
AcDbLine
 10
26.0
 20
15.0
 30
0.0
 11
40.0
 21
15.0
 31
0.0
  0
LINE
  5
2AB
100
AcDbEntity
  8
0
  6
CONTINUOUS
 62
               2
100
AcDbLine
 10
33.0
 20
-7.2401007710379304
 30
0.0
 11
33.0
 21
-32.217005020325246
 31
0.0
  0
LINE
  5
2AC
100
AcDbEntity
  8
0
  6
CONTINUOUS
 62
               2
100
AcDbLine
 10
26.100475416221173
 20
-24.0
 30
0.0
 11
39.509058679356059
 21
-24.0
 31
0.0
  0
LINE
  5
2AD
100
AcDbEntity
  8
0
  6
CONTINUOUS
 62
               2
100
AcDbLine
 10
26.0
 20
-15.0
 30
0.0
 11
40.0
 21
-15.0
 31
0.0
  0
LINE
  5
2AE
100
AcDbEntity
  8
0
  6
CONTINUOUS
 62
               2
100
AcDbLine
 10
-33.0
 20
-7.2401007710379304
 30
0.0
 11
-33.0
 21
-32.217005020325246
 31
0.0
  0
LINE
  5
2AF
100
AcDbEntity
  8
0
  6
CONTINUOUS
 62
               2
100
AcDbLine
 10
-26.100475416221173
 20
-24.0
 30
0.0
 11
-39.509058679356059
 21
-24.0
 31
0.0
  0
LINE
  5
2B0
100
AcDbEntity
  8
0
  6
CONTINUOUS
 62
               2
100
AcDbLine
 10
-26.0
 20
-15.0
 30
0.0
 11
-40.0
 21
-15.0
 31
0.0
  0
LINE
  5
2B1
100
AcDbEntity
  8
0
  6
CONTINUOUS
 62
               2
100
AcDbLine
 10
-33.0
 20
7.3021731150576557
 30
0.0
 11
-33.0
 21
32.217005020325246
 31
0.0
  0
LINE
  5
2B2
100
AcDbEntity
  8
0
  6
CONTINUOUS
 62
               2
100
AcDbLine
 10
-26.100475416221173
 20
24.0
 30
0.0
 11
-39.509058679356059
 21
24.0
 31
0.0
  0
LINE
  5
2B3
100
AcDbEntity
  8
0
  6
CONTINUOUS
 62
               2
100
AcDbLine
 10
-26.0
 20
15.0
 30
0.0
 11
-40.0
 21
15.0
 31
0.0
  0
LINE
  5
2B4
100
AcDbEntity
  8
0
  6
CONTINUOUS
 62
               7
100
AcDbLine
 10
-37.5
 20
13.000000000000142
 30
0.0
 11
-37.5
 21
-12.999999999999858
 31
0.0
  0
LINE
  5
2B5
100
AcDbEntity
  8
0
  6
CONTINUOUS
 62
               7
100
AcDbLine
 10
-38.0
 20
13.500000000000142
 30
0.0
 11
-38.0
 21
25.922962793631427
 31
0.0
  0
LINE
  5
2B6
100
AcDbEntity
  8
0
  6
CONTINUOUS
 62
               7
100
AcDbLine
 10
-37.5
 20
13.000000000000142
 30
0.0
 11
-38.0
 21
13.500000000000142
 31
0.0
  0
LINE
  5
2B7
100
AcDbEntity
  8
0
  6
CONTINUOUS
 62
               7
100
AcDbLine
 10
-38.0
 20
-25.922962793631427
 30
0.0
 11
-38.0
 21
-13.499999999999858
 31
0.0
  0
LINE
  5
2B8
100
AcDbEntity
  8
0
  6
CONTINUOUS
 62
               7
100
AcDbLine
 10
-37.5
 20
-12.999999999999858
 30
0.0
 11
-38.0
 21
-13.499999999999858
 31
0.0
  0
LINE
  5
2B9
100
AcDbEntity
  8
0
  6
CONTINUOUS
 62
               7
100
AcDbLine
 10
37.5
 20
13.000000000000142
 30
0.0
 11
37.5
 21
-12.999999999999858
 31
0.0
  0
LINE
  5
2BA
100
AcDbEntity
  8
0
  6
CONTINUOUS
 62
               7
100
AcDbLine
 10
38.0
 20
13.500000000000142
 30
0.0
 11
38.0
 21
25.922962793631427
 31
0.0
  0
LINE
  5
2BB
100
AcDbEntity
  8
0
  6
CONTINUOUS
 62
               7
100
AcDbLine
 10
37.5
 20
13.000000000000142
 30
0.0
 11
38.0
 21
13.500000000000142
 31
0.0
  0
LINE
  5
2BC
100
AcDbEntity
  8
0
  6
CONTINUOUS
 62
               7
100
AcDbLine
 10
38.0
 20
-25.922962793631427
 30
0.0
 11
38.0
 21
-13.499999999999858
 31
0.0
  0
LINE
  5
2BD
100
AcDbEntity
  8
0
  6
CONTINUOUS
 62
               7
100
AcDbLine
 10
37.5
 20
-12.999999999999858
 30
0.0
 11
38.0
 21
-13.499999999999858
 31
0.0
  0
LINE
  5
2BE
100
AcDbEntity
  8
0
  6
CONTINUOUS
 62
               2
100
AcDbLine
 10
-21.0
 20
60.772486743214841
 30
0.0
 11
-21.0
 21
24.0
 31
0.0
  0
LINE
  5
2BF
100
AcDbEntity
  8
0
  6
CONTINUOUS
 62
               7
100
AcDbLine
 10
-26.0
 20
32.000000000000227
 30
0.0
 11
-26.0
 21
47.000000000000057
 31
0.0
  0
LINE
  5
2C0
100
AcDbEntity
  8
0
  6
CONTINUOUS
 62
               2
100
AcDbLine
 10
-25.5
 20
32.000000000000256
 30
0.0
 11
-25.5
 21
47.500000000000057
 31
0.0
  0
LINE
  5
2C1
100
AcDbEntity
  8
0
  6
CONTINUOUS
 62
               2
100
AcDbLine
 10
-16.5
 20
32.000000000000227
 30
0.0
 11
-16.5
 21
47.500000000000057
 31
0.0
  0
LINE
  5
2C2
100
AcDbEntity
  8
0
  6
CONTINUOUS
 62
               7
100
AcDbLine
 10
-16.0
 20
32.000000000000227
 30
0.0
 11
-16.0
 21
47.000000000000057
 31
0.0
  0
LINE
  5
2C3
100
AcDbEntity
  8
0
  6
CONTINUOUS
 62
               7
100
AcDbLine
 10
-25.25
 20
56.200000000000102
 30
0.0
 11
-16.75
 21
56.200000000000102
 31
0.0
  0
LINE
  5
2C4
100
AcDbEntity
  8
0
  6
CONTINUOUS
 62
               7
100
AcDbLine
 10
-25.25
 20
56.200000000000102
 30
0.0
 11
-24.949999999999989
 21
56.500000000000057
 31
0.0
  0
LINE
  5
2C5
100
AcDbEntity
  8
0
  6
CONTINUOUS
 62
               7
100
AcDbLine
 10
-16.75
 20
56.200000000000102
 30
0.0
 11
-17.050000000000011
 21
56.500000000000057
 31
0.0
  0
LINE
  5
2C6
100
AcDbEntity
  8
0
  6
CONTINUOUS
 62
               7
100
AcDbLine
 10
-25.5
 20
50.750000000000057
 30
0.0
 11
-16.5
 21
50.750000000000057
 31
0.0
  0
LINE
  5
2C7
100
AcDbEntity
  8
0
  6
CONTINUOUS
 62
               7
100
AcDbLine
 10
-25.5
 20
51.250000000000057
 30
0.0
 11
-25.25
 21
51.500000000000057
 31
0.0
  0
LINE
  5
2C8
100
AcDbEntity
  8
0
  6
CONTINUOUS
 62
               7
100
AcDbLine
 10
-25.25
 20
51.500000000000057
 30
0.0
 11
-16.75
 21
51.500000000000057
 31
0.0
  0
LINE
  5
2C9
100
AcDbEntity
  8
0
  6
CONTINUOUS
 62
               7
100
AcDbLine
 10
-16.75
 20
51.500000000000057
 30
0.0
 11
-16.75
 21
56.200000000000102
 31
0.0
  0
LINE
  5
2CA
100
AcDbEntity
  8
0
  6
CONTINUOUS
 62
               7
100
AcDbLine
 10
-25.25
 20
51.500000000000057
 30
0.0
 11
-25.25
 21
56.200000000000102
 31
0.0
  0
LINE
  5
2CB
100
AcDbEntity
  8
0
  6
CONTINUOUS
 62
               7
100
AcDbLine
 10
-17.050000000000011
 20
56.500000000000057
 30
0.0
 11
-24.949999999999989
 21
56.500000000000057
 31
0.0
  0
LINE
  5
2CC
100
AcDbEntity
  8
0
  6
CONTINUOUS
 62
               7
100
AcDbLine
 10
-25.5
 20
47.500000000000057
 30
0.0
 11
-25.5
 21
51.250000000000057
 31
0.0
  0
LINE
  5
2CD
100
AcDbEntity
  8
0
  6
CONTINUOUS
 62
               7
100
AcDbLine
 10
-25.5
 20
47.500000000000057
 30
0.0
 11
-26.0
 21
47.000000000000057
 31
0.0
  0
LINE
  5
2CE
100
AcDbEntity
  8
0
  6
CONTINUOUS
 62
               7
100
AcDbLine
 10
-16.5
 20
51.250000000000057
 30
0.0
 11
-16.75
 21
51.500000000000057
 31
0.0
  0
LINE
  5
2CF
100
AcDbEntity
  8
0
  6
CONTINUOUS
 62
               7
100
AcDbLine
 10
-16.5
 20
47.500000000000057
 30
0.0
 11
-16.5
 21
51.250000000000057
 31
0.0
  0
LINE
  5
2D0
100
AcDbEntity
  8
0
  6
CONTINUOUS
 62
               7
100
AcDbLine
 10
-16.5
 20
47.500000000000057
 30
0.0
 11
-16.0
 21
47.000000000000057
 31
0.0
  0
LINE
  5
2D1
100
AcDbEntity
  8
0
  6
CONTINUOUS
 62
               2
100
AcDbLine
 10
21.0
 20
60.772486743214841
 30
0.0
 11
21.0
 21
24.0
 31
0.0
  0
LINE
  5
2D2
100
AcDbEntity
  8
0
  6
CONTINUOUS
 62
               7
100
AcDbLine
 10
16.0
 20
32.000000000000227
 30
0.0
 11
16.0
 21
47.000000000000057
 31
0.0
  0
LINE
  5
2D3
100
AcDbEntity
  8
0
  6
CONTINUOUS
 62
               2
100
AcDbLine
 10
16.5
 20
32.000000000000256
 30
0.0
 11
16.5
 21
47.500000000000057
 31
0.0
  0
LINE
  5
2D4
100
AcDbEntity
  8
0
  6
CONTINUOUS
 62
               2
100
AcDbLine
 10
25.5
 20
32.000000000000256
 30
0.0
 11
25.5
 21
47.500000000000057
 31
0.0
  0
LINE
  5
2D5
100
AcDbEntity
  8
0
  6
CONTINUOUS
 62
               7
100
AcDbLine
 10
26.0
 20
32.000000000000227
 30
0.0
 11
26.0
 21
47.000000000000057
 31
0.0
  0
LINE
  5
2D6
100
AcDbEntity
  8
0
  6
CONTINUOUS
 62
               7
100
AcDbLine
 10
16.75
 20
56.200000000000102
 30
0.0
 11
25.25
 21
56.200000000000102
 31
0.0
  0
LINE
  5
2D7
100
AcDbEntity
  8
0
  6
CONTINUOUS
 62
               7
100
AcDbLine
 10
16.75
 20
56.200000000000102
 30
0.0
 11
17.050000000000011
 21
56.500000000000057
 31
0.0
  0
LINE
  5
2D8
100
AcDbEntity
  8
0
  6
CONTINUOUS
 62
               7
100
AcDbLine
 10
25.25
 20
56.200000000000102
 30
0.0
 11
24.949999999999989
 21
56.500000000000057
 31
0.0
  0
LINE
  5
2D9
100
AcDbEntity
  8
0
  6
CONTINUOUS
 62
               7
100
AcDbLine
 10
16.5
 20
50.750000000000057
 30
0.0
 11
25.5
 21
50.750000000000057
 31
0.0
  0
LINE
  5
2DA
100
AcDbEntity
  8
0
  6
CONTINUOUS
 62
               7
100
AcDbLine
 10
16.5
 20
51.250000000000057
 30
0.0
 11
16.75
 21
51.500000000000057
 31
0.0
  0
LINE
  5
2DB
100
AcDbEntity
  8
0
  6
CONTINUOUS
 62
               7
100
AcDbLine
 10
16.75
 20
51.500000000000057
 30
0.0
 11
25.25
 21
51.500000000000057
 31
0.0
  0
LINE
  5
2DC
100
AcDbEntity
  8
0
  6
CONTINUOUS
 62
               7
100
AcDbLine
 10
25.25
 20
51.500000000000057
 30
0.0
 11
25.25
 21
56.200000000000102
 31
0.0
  0
LINE
  5
2DD
100
AcDbEntity
  8
0
  6
CONTINUOUS
 62
               7
100
AcDbLine
 10
16.75
 20
51.500000000000057
 30
0.0
 11
16.75
 21
56.200000000000102
 31
0.0
  0
LINE
  5
2DE
100
AcDbEntity
  8
0
  6
CONTINUOUS
 62
               7
100
AcDbLine
 10
24.949999999999989
 20
56.500000000000057
 30
0.0
 11
17.050000000000011
 21
56.500000000000057
 31
0.0
  0
LINE
  5
2DF
100
AcDbEntity
  8
0
  6
CONTINUOUS
 62
               7
100
AcDbLine
 10
16.5
 20
47.500000000000057
 30
0.0
 11
16.5
 21
51.250000000000057
 31
0.0
  0
LINE
  5
2E0
100
AcDbEntity
  8
0
  6
CONTINUOUS
 62
               7
100
AcDbLine
 10
16.5
 20
47.500000000000057
 30
0.0
 11
16.0
 21
47.000000000000057
 31
0.0
  0
LINE
  5
2E1
100
AcDbEntity
  8
0
  6
CONTINUOUS
 62
               7
100
AcDbLine
 10
25.5
 20
51.250000000000057
 30
0.0
 11
25.25
 21
51.500000000000057
 31
0.0
  0
LINE
  5
2E2
100
AcDbEntity
  8
0
  6
CONTINUOUS
 62
               7
100
AcDbLine
 10
25.5
 20
47.500000000000057
 30
0.0
 11
25.5
 21
51.250000000000057
 31
0.0
  0
LINE
  5
2E3
100
AcDbEntity
  8
0
  6
CONTINUOUS
 62
               7
100
AcDbLine
 10
25.5
 20
47.500000000000057
 30
0.0
 11
26.0
 21
47.000000000000057
 31
0.0
  0
LINE
  5
2E4
100
AcDbEntity
  8
0
  6
CONTINUOUS
 62
               2
100
AcDbLine
 10
-7.5
 20
31.500000000000028
 30
0.0
 11
-7.5
 21
23.500000000000028
 31
0.0
  0
LINE
  5
2E5
100
AcDbEntity
  8
0
  6
CONTINUOUS
 62
               2
100
AcDbLine
 10
7.5
 20
31.500000000000028
 30
0.0
 11
7.5
 21
23.500000000000028
 31
0.0
  0
LINE
  5
2E6
100
AcDbEntity
  8
0
  6
CONTINUOUS
 62
               7
100
AcDbLine
 10
-20.999999999999972
 20
31.467785857871974
 30
0.0
 11
-20.999999999999972
 21
29.532214142128481
 31
0.0
  0
LINE
  5
2E7
100
AcDbEntity
  8
0
  6
CONTINUOUS
 62
               7
100
AcDbLine
 10
21.000000000000028
 20
31.467785857871974
 30
0.0
 11
21.000000000000028
 21
29.532214142128481
 31
0.0
  0
LINE
  5
2E8
100
AcDbEntity
  8
0
  6
CONTINUOUS
 62
               2
100
AcDbLine
 10
-21.0
 20
-32.0
 30
0.0
 11
-21.0
 21
-26.0
 31
0.0
  0
LINE
  5
2E9
100
AcDbEntity
  8
0
  6
CONTINUOUS
 62
               2
100
AcDbLine
 10
21.0
 20
-32.0
 30
0.0
 11
21.0
 21
-26.0
 31
0.0
  0
ENDBLK
  5
2EA
100
AcDbEntity
  8
0
100
AcDbBlockEnd
  0
BLOCK
  5
2EB
100
AcDbEntity
  8
0
100
AcDbBlockBegin
  2
RAG20-SS2-6
 70
               0
 10
0.0
 20
0.0
 30
0.0
  3
RAG20-SS2-6
  1

  0
LINE
  5
2EC
100
AcDbEntity
  8
0
  6
CONTINUOUS
 62
               2
100
AcDbLine
 10
-26.900000000000034
 20
-57.357846582220134
 30
0.0
 11
-26.900000000000034
 21
-48.808120569505377
 31
0.0
  0
LINE
  5
2ED
100
AcDbEntity
  8
0
  6
CONTINUOUS
 62
               7
100
AcDbLine
 10
-29.188854381999874
 20
-51.400000000000034
 30
0.0
 11
-29.188854381999874
 21
-50.650000000000034
 31
0.0
  0
LINE
  5
2EE
100
AcDbEntity
  8
0
  6
CONTINUOUS
 62
               7
100
AcDbLine
 10
-28.688854381999874
 20
-51.400000000000034
 30
0.0
 11
-29.188854381999874
 21
-51.400000000000034
 31
0.0
  0
LINE
  5
2EF
100
AcDbEntity
  8
0
  6
CONTINUOUS
 62
               7
100
AcDbLine
 10
-29.188854381999874
 20
-54.599999999999966
 30
0.0
 11
-29.188854381999874
 21
-55.349999999999966
 31
0.0
  0
LINE
  5
2F0
100
AcDbEntity
  8
0
  6
CONTINUOUS
 62
               7
100
AcDbLine
 10
-28.688854381999874
 20
-54.599999999999966
 30
0.0
 11
-29.188854381999874
 21
-54.599999999999966
 31
0.0
  0
ARC
  5
2F1
100
AcDbEntity
  8
0
  6
CONTINUOUS
 62
               7
100
AcDbCircle
 10
-26.900000000000034
 20
-53.0
 30
0.0
 40
2.3999999999999999
100
AcDbArc
 50
221.81031489577748
 51
138.18968510422241
  0
LINE
  5
2F2
100
AcDbEntity
  8
0
  6
CONTINUOUS
 62
               7
100
AcDbLine
 10
-29.188854381999874
 20
-55.349999999999966
 30
0.0
 11
-37.999999999999773
 21
-55.349999999999966
 31
0.0
  0
LINE
  5
2F3
100
AcDbEntity
  8
0
  6
CONTINUOUS
 62
               7
100
AcDbLine
 10
-29.188854381999874
 20
-50.650000000000034
 30
0.0
 11
-37.999999999999773
 21
-50.650000000000034
 31
0.0
  0
LINE
  5
2F4
100
AcDbEntity
  8
0
  6
CONTINUOUS
 62
               2
100
AcDbLine
 10
-23.624942347989077
 20
-53.0
 30
0.0
 11
-39.602884048183739
 21
-53.0
 31
0.0
  0
LINE
  5
2F5
100
AcDbEntity
  8
0
  6
CONTINUOUS
 62
               7
100
AcDbLine
 10
-35.707142142714417
 20
-55.349999999999966
 30
0.0
 11
-35.707142142714417
 21
-69.0
 31
0.0
  0
LINE
  5
2F6
100
AcDbEntity
  8
0
  6
CONTINUOUS
 62
               7
100
AcDbLine
 10
-35.707142142714417
 20
-10.0
 30
0.0
 11
-35.707142142714417
 21
-50.650000000000034
 31
0.0
  0
LINE
  5
2F7
100
AcDbEntity
  8
0
  6
CONTINUOUS
 62
               7
100
AcDbLine
 10
-37.999999999999773
 20
-69.0
 30
0.0
 11
-37.999999999999773
 21
-55.349999999999966
 31
0.0
  0
LINE
  5
2F8
100
AcDbEntity
  8
0
  6
CONTINUOUS
 62
               7
100
AcDbLine
 10
-37.999999999999773
 20
-50.650000000000034
 30
0.0
 11
-37.999999999999773
 21
-10.0
 31
0.0
  0
LINE
  5
2F9
100
AcDbEntity
  8
0
  6
CONTINUOUS
 62
               7
100
AcDbLine
 10
29.188854381999874
 20
-50.650000000000034
 30
0.0
 11
37.999999999999773
 21
-50.650000000000034
 31
0.0
  0
LINE
  5
2FA
100
AcDbEntity
  8
0
  6
CONTINUOUS
 62
               7
100
AcDbLine
 10
29.188854381999874
 20
-55.349999999999966
 30
0.0
 11
37.999999999999773
 21
-55.349999999999966
 31
0.0
  0
ARC
  5
2FB
100
AcDbEntity
  8
0
  6
CONTINUOUS
 62
               7
100
AcDbCircle
 10
26.900000000000034
 20
-53.0
 30
0.0
 40
2.3999999999999999
100
AcDbArc
 50
41.810314895777545
 51
318.18968510422252
  0
LINE
  5
2FC
100
AcDbEntity
  8
0
  6
CONTINUOUS
 62
               7
100
AcDbLine
 10
28.688854381999874
 20
-54.599999999999966
 30
0.0
 11
29.188854381999874
 21
-54.599999999999966
 31
0.0
  0
LINE
  5
2FD
100
AcDbEntity
  8
0
  6
CONTINUOUS
 62
               7
100
AcDbLine
 10
29.188854381999874
 20
-54.599999999999966
 30
0.0
 11
29.188854381999874
 21
-55.349999999999966
 31
0.0
  0
LINE
  5
2FE
100
AcDbEntity
  8
0
  6
CONTINUOUS
 62
               7
100
AcDbLine
 10
28.688854381999874
 20
-51.400000000000034
 30
0.0
 11
29.188854381999874
 21
-51.400000000000034
 31
0.0
  0
LINE
  5
2FF
100
AcDbEntity
  8
0
  6
CONTINUOUS
 62
               7
100
AcDbLine
 10
29.188854381999874
 20
-51.400000000000034
 30
0.0
 11
29.188854381999874
 21
-50.650000000000034
 31
0.0
  0
LINE
  5
300
100
AcDbEntity
  8
0
  6
CONTINUOUS
 62
               2
100
AcDbLine
 10
26.900000000000034
 20
-57.11562428485874
 30
0.0
 11
26.900000000000034
 21
-48.808120569505377
 31
0.0
  0
LINE
  5
301
100
AcDbEntity
  8
0
  6
CONTINUOUS
 62
               2
100
AcDbLine
 10
23.624942347989077
 20
-53.0
 30
0.0
 11
39.602884048183739
 21
-53.0
 31
0.0
  0
LINE
  5
302
100
AcDbEntity
  8
0
  6
CONTINUOUS
 62
               7
100
AcDbLine
 10
35.707142142714417
 20
-55.349999999999966
 30
0.0
 11
35.707142142714417
 21
-69.0
 31
0.0
  0
LINE
  5
303
100
AcDbEntity
  8
0
  6
CONTINUOUS
 62
               7
100
AcDbLine
 10
35.707142142714417
 20
-10.0
 30
0.0
 11
35.707142142714417
 21
-50.650000000000034
 31
0.0
  0
LINE
  5
304
100
AcDbEntity
  8
0
  6
CONTINUOUS
 62
               7
100
AcDbLine
 10
37.999999999999773
 20
-69.0
 30
0.0
 11
37.999999999999773
 21
-55.349999999999966
 31
0.0
  0
LINE
  5
305
100
AcDbEntity
  8
0
  6
CONTINUOUS
 62
               7
100
AcDbLine
 10
37.999999999999773
 20
-50.650000000000034
 30
0.0
 11
37.999999999999773
 21
-10.0
 31
0.0
  0
LINE
  5
306
100
AcDbEntity
  8
0
  6
CONTINUOUS
 62
               2
100
AcDbLine
 10
0.0
 20
-130.0
 30
0.0
 11
0.0
 21
5.0
 31
0.0
  0
CIRCLE
  5
307
100
AcDbEntity
  8
0
  6
CONTINUOUS
 62
               7
100
AcDbCircle
 10
0.0
 20
-26.0
 30
0.0
 40
2.0
  0
LINE
  5
308
100
AcDbEntity
  8
0
  6
CONTINUOUS
 62
               7
100
AcDbLine
 10
25.49509756796391
 20
-72.0
 30
0.0
 11
25.49509756796391
 21
-69.0
 31
0.0
  0
LINE
  5
309
100
AcDbEntity
  8
0
  6
CONTINUOUS
 62
               7
100
AcDbLine
 10
-25.49509756796391
 20
-72.0
 30
0.0
 11
-25.49509756796391
 21
-69.0
 31
0.0
  0
LINE
  5
30A
100
AcDbEntity
  8
0
  6
CONTINUOUS
 62
               7
100
AcDbLine
 10
-27.5
 20
-72.0
 30
0.0
 11
-27.5
 21
-69.0
 31
0.0
  0
LINE
  5
30B
100
AcDbEntity
  8
0
  6
CONTINUOUS
 62
               7
100
AcDbLine
 10
-37.999999999999773
 20
-69.0
 30
0.0
 11
37.999999999999773
 21
-69.0
 31
0.0
  0
LINE
  5
30C
100
AcDbEntity
  8
0
  6
CONTINUOUS
 62
               7
100
AcDbLine
 10
27.5
 20
-72.0
 30
0.0
 11
27.5
 21
-69.0
 31
0.0
  0
LINE
  5
30D
100
AcDbEntity
  8
0
  6
CONTINUOUS
 62
               7
100
AcDbLine
 10
27.5
 20
-72.0
 30
0.0
 11
-27.5
 21
-72.0
 31
0.0
  0
LINE
  5
30E
100
AcDbEntity
  8
0
  6
CONTINUOUS
 62
               2
100
AcDbLine
 10
21.0
 20
-25.0
 30
0.0
 11
21.0
 21
-37.0
 31
0.0
  0
LINE
  5
30F
100
AcDbEntity
  8
0
  6
CONTINUOUS
 62
               7
100
AcDbLine
 10
-27.0
 20
-72.0
 30
0.0
 11
-27.0
 21
-116.0
 31
0.0
  0
LINE
  5
310
100
AcDbEntity
  8
0
  6
CONTINUOUS
 62
               7
100
AcDbLine
 10
27.0
 20
-72.0
 30
0.0
 11
27.0
 21
-116.0
 31
0.0
  0
LINE
  5
311
100
AcDbEntity
  8
0
  6
CONTINUOUS
 62
               7
100
AcDbLine
 10
25.0
 20
-91.0
 30
0.0
 11
19.0
 21
-91.0
 31
0.0
  0
LINE
  5
312
100
AcDbEntity
  8
0
  6
CONTINUOUS
 62
               7
100
AcDbLine
 10
25.5
 20
-87.0
 30
0.0
 11
25.5
 21
-90.5
 31
0.0
  0
LINE
  5
313
100
AcDbEntity
  8
0
  6
CONTINUOUS
 62
               7
100
AcDbLine
 10
18.5
 20
-87.0
 30
0.0
 11
18.5
 21
-90.500000000000057
 31
0.0
  0
LINE
  5
314
100
AcDbEntity
  8
0
  6
CONTINUOUS
 62
               7
100
AcDbLine
 10
25.5
 20
-90.5
 30
0.0
 11
18.5
 21
-90.5
 31
0.0
  0
LINE
  5
315
100
AcDbEntity
  8
0
  6
CONTINUOUS
 62
               7
100
AcDbLine
 10
25.5
 20
-90.5
 30
0.0
 11
25.0
 21
-91.0
 31
0.0
  0
LINE
  5
316
100
AcDbEntity
  8
0
  6
CONTINUOUS
 62
               7
100
AcDbLine
 10
19.0
 20
-91.0
 30
0.0
 11
18.5
 21
-90.500000000000057
 31
0.0
  0
LINE
  5
317
100
AcDbEntity
  8
0
  6
CONTINUOUS
 62
               7
100
AcDbLine
 10
-25.5
 20
-90.5
 30
0.0
 11
-18.5
 21
-90.5
 31
0.0
  0
LINE
  5
318
100
AcDbEntity
  8
0
  6
CONTINUOUS
 62
               7
100
AcDbLine
 10
-24.999999999999886
 20
-91.0
 30
0.0
 11
-19.0
 21
-91.0
 31
0.0
  0
LINE
  5
319
100
AcDbEntity
  8
0
  6
CONTINUOUS
 62
               7
100
AcDbLine
 10
-25.5
 20
-87.0
 30
0.0
 11
-25.5
 21
-90.5
 31
0.0
  0
LINE
  5
31A
100
AcDbEntity
  8
0
  6
CONTINUOUS
 62
               7
100
AcDbLine
 10
-25.5
 20
-90.5
 30
0.0
 11
-24.999999999999886
 21
-91.0
 31
0.0
  0
LINE
  5
31B
100
AcDbEntity
  8
0
  6
CONTINUOUS
 62
               7
100
AcDbLine
 10
-19.0
 20
-91.0
 30
0.0
 11
-18.5
 21
-90.500000000000057
 31
0.0
  0
LINE
  5
31C
100
AcDbEntity
  8
0
  6
CONTINUOUS
 62
               7
100
AcDbLine
 10
-18.5
 20
-87.0
 30
0.0
 11
-18.5
 21
-90.500000000000057
 31
0.0
  0
LINE
  5
31D
100
AcDbEntity
  8
0
  6
CONTINUOUS
 62
               7
100
AcDbLine
 10
27.0
 20
-87.0
 30
0.0
 11
-27.0
 21
-87.0
 31
0.0
  0
LINE
  5
31E
100
AcDbEntity
  8
0
  6
CONTINUOUS
 62
               7
100
AcDbLine
 10
-18.0
 20
-87.0
 30
0.0
 11
-18.0
 21
-116.0
 31
0.0
  0
LINE
  5
31F
100
AcDbEntity
  8
0
  6
CONTINUOUS
 62
               7
100
AcDbLine
 10
18.0
 20
-87.0
 30
0.0
 11
18.0
 21
-116.0
 31
0.0
  0
LINE
  5
320
100
AcDbEntity
  8
0
  6
CONTINUOUS
 62
               7
100
AcDbLine
 10
27.0
 20
-116.0
 30
0.0
 11
-27.0
 21
-116.0
 31
0.0
  0
LINE
  5
321
100
AcDbEntity
  8
0
  6
CONTINUOUS
 62
               7
100
AcDbLine
 10
-27.0
 20
0.0
 30
0.0
 11
-27.0
 21
-7.5
 31
0.0
  0
LINE
  5
322
100
AcDbEntity
  8
0
  6
CONTINUOUS
 62
               7
100
AcDbLine
 10
27.0
 20
0.0
 30
0.0
 11
27.0
 21
-7.5
 31
0.0
  0
LINE
  5
323
100
AcDbEntity
  8
0
  6
CONTINUOUS
 62
               7
100
AcDbLine
 10
27.0
 20
-7.5
 30
0.0
 11
-27.0
 21
-7.5
 31
0.0
  0
LINE
  5
324
100
AcDbEntity
  8
0
  6
CONTINUOUS
 62
               7
100
AcDbLine
 10
27.0
 20
0.0
 30
0.0
 11
-27.0
 21
0.0
 31
0.0
  0
LINE
  5
325
100
AcDbEntity
  8
0
  6
CONTINUOUS
 62
               7
100
AcDbLine
 10
-28.0
 20
-8.0
 30
0.0
 11
28.0
 21
-8.0
 31
0.0
  0
LINE
  5
326
100
AcDbEntity
  8
0
  6
CONTINUOUS
 62
               7
100
AcDbLine
 10
37.999999999999773
 20
-10.0
 30
0.0
 11
-37.999999999999773
 21
-10.0
 31
0.0
  0
LINE
  5
327
100
AcDbEntity
  8
0
  6
CONTINUOUS
 62
               7
100
AcDbLine
 10
-28.0
 20
-8.0
 30
0.0
 11
-28.0
 21
-10.0
 31
0.0
  0
LINE
  5
328
100
AcDbEntity
  8
0
  6
CONTINUOUS
 62
               7
100
AcDbLine
 10
28.0
 20
-8.0
 30
0.0
 11
28.0
 21
-10.0
 31
0.0
  0
LINE
  5
329
100
AcDbEntity
  8
0
  6
CONTINUOUS
 62
               2
100
AcDbLine
 10
-21.0
 20
-25.0
 30
0.0
 11
-21.0
 21
-37.0
 31
0.0
  0
LINE
  5
32A
100
AcDbEntity
  8
0
  6
CONTINUOUS
 62
               2
100
AcDbLine
 10
-27.0
 20
-31.0
 30
0.0
 11
-15.0
 21
-31.0
 31
0.0
  0
LINE
  5
32B
100
AcDbEntity
  8
0
  6
CONTINUOUS
 62
               7
100
AcDbLine
 10
25.5
 20
-7.5
 30
0.0
 11
25.5
 21
-8.0
 31
0.0
  0
LINE
  5
32C
100
AcDbEntity
  8
0
  6
CONTINUOUS
 62
               7
100
AcDbLine
 10
-25.5
 20
-7.5
 30
0.0
 11
-25.5
 21
-8.0
 31
0.0
  0
LINE
  5
32D
100
AcDbEntity
  8
0
  6
CONTINUOUS
 62
               7
100
AcDbLine
 10
-10.0
 20
-118.0
 30
0.0
 11
10.0
 21
-118.0
 31
0.0
  0
LINE
  5
32E
100
AcDbEntity
  8
0
  6
CONTINUOUS
 62
               7
100
AcDbLine
 10
3.5
 20
-125.0
 30
0.0
 11
-3.0
 21
-125.0
 31
0.0
  0
LINE
  5
32F
100
AcDbEntity
  8
0
  6
CONTINUOUS
 62
               7
100
AcDbLine
 10
4.0
 20
-124.5
 30
0.0
 11
-3.0
 21
-124.5
 31
0.0
  0
LINE
  5
330
100
AcDbEntity
  8
0
  6
CONTINUOUS
 62
               7
100
AcDbLine
 10
-10.0
 20
-116.0
 30
0.0
 11
-10.0
 21
-118.0
 31
0.0
  0
LINE
  5
331
100
AcDbEntity
  8
0
  6
CONTINUOUS
 62
               7
100
AcDbLine
 10
3.5
 20
-125.0
 30
0.0
 11
4.0
 21
-124.5
 31
0.0
  0
LINE
  5
332
100
AcDbEntity
  8
0
  6
CONTINUOUS
 62
               7
100
AcDbLine
 10
4.0
 20
-118.0
 30
0.0
 11
4.0
 21
-124.5
 31
0.0
  0
LINE
  5
333
100
AcDbEntity
  8
0
  6
CONTINUOUS
 62
               7
100
AcDbLine
 10
10.0
 20
-116.0
 30
0.0
 11
10.0
 21
-118.0
 31
0.0
  0
LINE
  5
334
100
AcDbEntity
  8
0
  6
CONTINUOUS
 62
               7
100
AcDbLine
 10
-3.0
 20
-120.0
 30
0.0
 11
-3.0
 21
-125.0
 31
0.0
  0
LINE
  5
335
100
AcDbEntity
  8
0
  6
CONTINUOUS
 62
               7
100
AcDbLine
 10
-4.0
 20
-118.0
 30
0.0
 11
-4.0
 21
-119.0
 31
0.0
  0
LINE
  5
336
100
AcDbEntity
  8
0
  6
CONTINUOUS
 62
               7
100
AcDbLine
 10
-3.0
 20
-120.0
 30
0.0
 11
-4.0
 21
-119.0
 31
0.0
  0
CIRCLE
  5
337
100
AcDbEntity
  8
0
  6
CONTINUOUS
 62
               7
100
AcDbCircle
 10
21.0
 20
-31.0
 30
0.0
 40
3.2999999999999998
  0
CIRCLE
  5
338
100
AcDbEntity
  8
0
  6
CONTINUOUS
 62
               7
100
AcDbCircle
 10
-21.0
 20
-31.0
 30
0.0
 40
3.2999999999999998
  0
LINE
  5
339
100
AcDbEntity
  8
0
  6
CONTINUOUS
 62
               2
100
AcDbLine
 10
5.0476471494505404
 20
-26.0
 30
0.0
 11
-5.2157321572428259
 21
-26.0
 31
0.0
  0
LINE
  5
33A
100
AcDbEntity
  8
0
  6
CONTINUOUS
 62
               2
100
AcDbLine
 10
5.0
 20
-47.0
 30
0.0
 11
-5.0
 21
-47.0
 31
0.0
  0
LINE
  5
33B
100
AcDbEntity
  8
0
  6
CONTINUOUS
 62
               2
100
AcDbLine
 10
5.0
 20
-45.0
 30
0.0
 11
-5.0
 21
-45.0
 31
0.0
  0
ARC
  5
33C
100
AcDbEntity
  8
0
  6
CONTINUOUS
 62
               7
100
AcDbCircle
 10
0.0
 20
-47.0
 30
0.0
 40
2.0
100
AcDbArc
 50
180.0
 51
0.0
  0
ARC
  5
33D
100
AcDbEntity
  8
0
  6
CONTINUOUS
 62
               7
100
AcDbCircle
 10
0.0
 20
-45.0
 30
0.0
 40
2.0
100
AcDbArc
 50
0.0
 51
180.0
  0
LINE
  5
33E
100
AcDbEntity
  8
0
  6
CONTINUOUS
 62
               7
100
AcDbLine
 10
-2.0
 20
-45.0
 30
0.0
 11
-2.0
 21
-47.0
 31
0.0
  0
LINE
  5
33F
100
AcDbEntity
  8
0
  6
CONTINUOUS
 62
               7
100
AcDbLine
 10
2.0
 20
-45.0
 30
0.0
 11
2.0
 21
-47.0
 31
0.0
  0
LINE
  5
340
100
AcDbEntity
  8
0
  6
CONTINUOUS
 62
               2
100
AcDbLine
 10
-5.0
 20
-46.0
 30
0.0
 11
5.0
 21
-46.0
 31
0.0
  0
LINE
  5
341
100
AcDbEntity
  8
0
  6
CONTINUOUS
 62
               2
100
AcDbLine
 10
15.0
 20
-31.0
 30
0.0
 11
27.0
 21
-31.0
 31
0.0
  0
LINE
  5
342
100
AcDbEntity
  8
0
  6
CONTINUOUS
 62
               2
100
AcDbLine
 10
-33.0
 20
-13.0
 30
0.0
 11
-33.0
 21
-7.0
 31
0.0
  0
LINE
  5
343
100
AcDbEntity
  8
0
  6
CONTINUOUS
 62
               2
100
AcDbLine
 10
33.0
 20
-13.0
 30
0.0
 11
33.0
 21
-7.0
 31
0.0
  0
ENDBLK
  5
344
100
AcDbEntity
  8
0
100
AcDbBlockEnd
  0
BLOCK
  5
345
100
AcDbEntity
  8
0
100
AcDbBlockBegin
  2
RAG20-SS2-7
 70
               0
 10
0.0
 20
0.0
 30
0.0
  3
RAG20-SS2-7
  1

  0
LINE
  5
346
100
AcDbEntity
  8
0
  6
CONTINUOUS
 62
               4
100
AcDbLine
 10
22.0
 20
-3.6000000000000227
 30
0.0
 11
25.75
 21
-3.6000000000000227
 31
0.0
  0
LINE
  5
347
100
AcDbEntity
  8
0
  6
CONTINUOUS
 62
               4
100
AcDbLine
 10
22.0
 20
-1.0
 30
0.0
 11
24.25
 21
-1.0
 31
0.0
  0
LINE
  5
348
100
AcDbEntity
  8
0
  6
CONTINUOUS
 62
               4
100
AcDbLine
 10
0.0
 20
-0.4499999999999886
 30
0.0
 11
22.0
 21
-0.4499999999999886
 31
0.0
  0
LINE
  5
349
100
AcDbEntity
  8
0
  6
CONTINUOUS
 62
               4
100
AcDbLine
 10
0.0
 20
-1.0
 30
0.0
 11
22.0
 21
-1.0
 31
0.0
  0
LINE
  5
34A
100
AcDbEntity
  8
0
  6
CONTINUOUS
 62
               4
100
AcDbLine
 10
0.75
 20
0.5
 30
0.0
 11
3.25
 21
0.5
 31
0.0
  0
LINE
  5
34B
100
AcDbEntity
  8
0
  6
CONTINUOUS
 62
               4
100
AcDbLine
 10
3.25
 20
0.5
 30
0.0
 11
3.25
 21
0.0
 31
0.0
  0
LINE
  5
34C
100
AcDbEntity
  8
0
  6
CONTINUOUS
 62
             200
100
AcDbLine
 10
3.0199999999999818
 20
0.5
 30
0.0
 11
3.0199999999999818
 21
0.0
 31
0.0
  0
LINE
  5
34D
100
AcDbEntity
  8
0
  6
CONTINUOUS
 62
             200
100
AcDbLine
 10
0.9700000000000273
 20
0.5
 30
0.0
 11
0.9700000000000273
 21
0.0
 31
0.0
  0
LINE
  5
34E
100
AcDbEntity
  8
0
  6
CONTINUOUS
 62
               4
100
AcDbLine
 10
0.75
 20
0.5
 30
0.0
 11
0.75
 21
0.0
 31
0.0
  0
LINE
  5
34F
100
AcDbEntity
  8
0
  6
CONTINUOUS
 62
               4
100
AcDbLine
 10
0.75
 20
-3.7699999999999818
 30
0.0
 11
3.25
 21
-3.7699999999999818
 31
0.0
  0
LINE
  5
350
100
AcDbEntity
  8
0
  6
CONTINUOUS
 62
               4
100
AcDbLine
 10
3.25
 20
-2.589999999999975
 30
0.0
 11
3.25
 21
-3.7699999999999818
 31
0.0
  0
LINE
  5
351
100
AcDbEntity
  8
0
  6
CONTINUOUS
 62
             200
100
AcDbLine
 10
3.0199999999999818
 20
-2.589999999999975
 30
0.0
 11
3.0199999999999818
 21
-4.0
 31
0.0
  0
LINE
  5
352
100
AcDbEntity
  8
0
  6
CONTINUOUS
 62
             200
100
AcDbLine
 10
0.9700000000000273
 20
-2.589999999999975
 30
0.0
 11
0.9700000000000273
 21
-4.0
 31
0.0
  0
LINE
  5
353
100
AcDbEntity
  8
0
  6
CONTINUOUS
 62
               4
100
AcDbLine
 10
0.75
 20
-2.589999999999975
 30
0.0
 11
0.75
 21
-3.7699999999999818
 31
0.0
  0
LINE
  5
354
100
AcDbEntity
  8
0
  6
CONTINUOUS
 62
               4
100
AcDbLine
 10
0.9700000000000273
 20
-4.0
 30
0.0
 11
0.75
 21
-3.7699999999999818
 31
0.0
  0
LINE
  5
355
100
AcDbEntity
  8
0
  6
CONTINUOUS
 62
               4
100
AcDbLine
 10
3.0199999999999818
 20
-4.0
 30
0.0
 11
3.25
 21
-3.7699999999999818
 31
0.0
  0
LINE
  5
356
100
AcDbEntity
  8
0
  6
CONTINUOUS
 62
               4
100
AcDbLine
 10
0.9700000000000273
 20
-4.0
 30
0.0
 11
3.0199999999999818
 21
-4.0
 31
0.0
  0
LINE
  5
357
100
AcDbEntity
  8
0
  6
CONTINUOUS
 62
             200
100
AcDbLine
 10
24.252309468822205
 20
-1.0
 30
0.0
 11
25.753464203233307
 21
-3.6000000000000227
 31
0.0
  0
LINE
  5
358
100
AcDbEntity
  8
0
  6
CONTINUOUS
 62
               4
100
AcDbLine
 10
4.25
 20
-3.0400000000000205
 30
0.0
 11
4.7000000000000455
 21
-3.0400000000000205
 31
0.0
  0
LINE
  5
359
100
AcDbEntity
  8
0
  6
CONTINUOUS
 62
               4
100
AcDbLine
 10
4.2000000000000455
 20
-3.8000000000000114
 30
0.0
 11
4.7000000000000455
 21
-3.8000000000000114
 31
0.0
  0
LINE
  5
35A
100
AcDbEntity
  8
0
  6
CONTINUOUS
 62
               4
100
AcDbLine
 10
4.2000000000000455
 20
-1.8000000000000114
 30
0.0
 11
4.2000000000000455
 21
-3.8000000000000114
 31
0.0
  0
LINE
  5
35B
100
AcDbEntity
  8
0
  6
CONTINUOUS
 62
               4
100
AcDbLine
 10
0.0
 20
-2.6000000000000227
 30
0.0
 11
4.0
 21
-2.6000000000000227
 31
0.0
  0
LINE
  5
35C
100
AcDbEntity
  8
0
  6
CONTINUOUS
 62
               4
100
AcDbLine
 10
0.0
 20
-1.8000000000000114
 30
0.0
 11
0.0
 21
-2.6000000000000227
 31
0.0
  0
LINE
  5
35D
100
AcDbEntity
  8
0
  6
CONTINUOUS
 62
               4
100
AcDbLine
 10
4.0
 20
-1.8000000000000114
 30
0.0
 11
4.0
 21
-2.6000000000000227
 31
0.0
  0
LINE
  5
35E
100
AcDbEntity
  8
0
  6
CONTINUOUS
 62
               4
100
AcDbLine
 10
4.25
 20
-1.8000000000000114
 30
0.0
 11
4.25
 21
-3.0400000000000205
 31
0.0
  0
LINE
  5
35F
100
AcDbEntity
  8
0
  6
CONTINUOUS
 62
             200
100
AcDbLine
 10
2.0
 20
2.0500000000000114
 30
0.0
 11
2.0
 21
-5.4300000000000068
 31
0.0
  0
LINE
  5
360
100
AcDbEntity
  8
0
  6
CONTINUOUS
 62
               4
100
AcDbLine
 10
0.0
 20
-1.8000000000000114
 30
0.0
 11
4.25
 21
-1.8000000000000114
 31
0.0
  0
LINE
  5
361
100
AcDbEntity
  8
0
  6
CONTINUOUS
 62
               4
100
AcDbLine
 10
4.7000000000000455
 20
-3.0400000000000205
 30
0.0
 11
4.7000000000000455
 21
-4.6000000000000227
 31
0.0
  0
LINE
  5
362
100
AcDbEntity
  8
0
  6
CONTINUOUS
 62
               4
100
AcDbLine
 10
0.0
 20
-1.8000000000000114
 30
0.0
 11
0.0
 21
0.0
 31
0.0
  0
LINE
  5
363
100
AcDbEntity
  8
0
  6
CONTINUOUS
 62
               4
100
AcDbLine
 10
22.0
 20
0.0
 30
0.0
 11
22.0
 21
-4.6000000000000227
 31
0.0
  0
LINE
  5
364
100
AcDbEntity
  8
0
  6
CONTINUOUS
 62
               4
100
AcDbLine
 10
4.7000000000000455
 20
-4.6000000000000227
 30
0.0
 11
22.0
 21
-4.6000000000000227
 31
0.0
  0
LINE
  5
365
100
AcDbEntity
  8
0
  6
CONTINUOUS
 62
               4
100
AcDbLine
 10
0.0
 20
0.0
 30
0.0
 11
22.0
 21
0.0
 31
0.0
  0
ENDBLK
  5
366
100
AcDbEntity
  8
0
100
AcDbBlockEnd
  0
BLOCK
  5
367
100
AcDbEntity
  8
0
100
AcDbBlockBegin
  2
RAG20-SS2-8
 70
               0
 10
0.0
 20
0.0
 30
0.0
  3
RAG20-SS2-8
  1

  0
ARC
  5
368
100
AcDbEntity
  8
0
  6
CONTINUOUS
 62
               4
100
AcDbCircle
 10
0.0
 20
-2.5500000000000114
 30
0.0
 40
2.0500000000000114
100
AcDbArc
 50
192.68038349182106
 51
347.31961650817891
  0
LINE
  5
369
100
AcDbEntity
  8
0
  6
CONTINUOUS
 62
               4
100
AcDbLine
 10
-2.0
 20
-0.9499999999999886
 30
0.0
 11
-2.0
 21
-3.0000000000000568
 31
0.0
  0
LINE
  5
36A
100
AcDbEntity
  8
0
  6
CONTINUOUS
 62
               4
100
AcDbLine
 10
2.0
 20
-0.9499999999999886
 30
0.0
 11
2.0
 21
-3.0000000000000568
 31
0.0
  0
LINE
  5
36B
100
AcDbEntity
  8
0
  6
CONTINUOUS
 62
               4
100
AcDbLine
 10
-1.25
 20
0.5
 30
0.0
 11
1.25
 21
0.5
 31
0.0
  0
LINE
  5
36C
100
AcDbEntity
  8
0
  6
CONTINUOUS
 62
               4
100
AcDbLine
 10
1.25
 20
0.5
 30
0.0
 11
1.25
 21
0.0
 31
0.0
  0
LINE
  5
36D
100
AcDbEntity
  8
0
  6
CONTINUOUS
 62
             200
100
AcDbLine
 10
1.0199999999999818
 20
0.5
 30
0.0
 11
1.0199999999999818
 21
0.0
 31
0.0
  0
LINE
  5
36E
100
AcDbEntity
  8
0
  6
CONTINUOUS
 62
             200
100
AcDbLine
 10
-1.0199999999999818
 20
0.5
 30
0.0
 11
-1.0199999999999818
 21
0.0
 31
0.0
  0
LINE
  5
36F
100
AcDbEntity
  8
0
  6
CONTINUOUS
 62
               4
100
AcDbLine
 10
-1.25
 20
0.5
 30
0.0
 11
-1.25
 21
0.0
 31
0.0
  0
LINE
  5
370
100
AcDbEntity
  8
0
  6
CONTINUOUS
 62
               4
100
AcDbLine
 10
-1.25
 20
-3.7699999999999818
 30
0.0
 11
1.25
 21
-3.7699999999999818
 31
0.0
  0
LINE
  5
371
100
AcDbEntity
  8
0
  6
CONTINUOUS
 62
               4
100
AcDbLine
 10
1.25
 20
-2.589999999999975
 30
0.0
 11
1.25
 21
-3.7699999999999818
 31
0.0
  0
LINE
  5
372
100
AcDbEntity
  8
0
  6
CONTINUOUS
 62
             200
100
AcDbLine
 10
1.0199999999999818
 20
-2.589999999999975
 30
0.0
 11
1.0199999999999818
 21
-4.0
 31
0.0
  0
LINE
  5
373
100
AcDbEntity
  8
0
  6
CONTINUOUS
 62
             200
100
AcDbLine
 10
-1.0199999999999818
 20
-2.589999999999975
 30
0.0
 11
-1.0199999999999818
 21
-4.0
 31
0.0
  0
LINE
  5
374
100
AcDbEntity
  8
0
  6
CONTINUOUS
 62
               4
100
AcDbLine
 10
-1.25
 20
-2.589999999999975
 30
0.0
 11
-1.25
 21
-3.7699999999999818
 31
0.0
  0
LINE
  5
375
100
AcDbEntity
  8
0
  6
CONTINUOUS
 62
               4
100
AcDbLine
 10
-1.0199999999999818
 20
-4.0
 30
0.0
 11
-1.25
 21
-3.7699999999999818
 31
0.0
  0
LINE
  5
376
100
AcDbEntity
  8
0
  6
CONTINUOUS
 62
               4
100
AcDbLine
 10
1.0199999999999818
 20
-4.0
 30
0.0
 11
1.25
 21
-3.7699999999999818
 31
0.0
  0
LINE
  5
377
100
AcDbEntity
  8
0
  6
CONTINUOUS
 62
               4
100
AcDbLine
 10
-1.0199999999999818
 20
-4.0
 30
0.0
 11
1.0199999999999818
 21
-4.0
 31
0.0
  0
LINE
  5
378
100
AcDbEntity
  8
0
  6
CONTINUOUS
 62
               4
100
AcDbLine
 10
-2.0
 20
-2.589999999999975
 30
0.0
 11
2.0
 21
-2.589999999999975
 31
0.0
  0
LINE
  5
379
100
AcDbEntity
  8
0
  6
CONTINUOUS
 62
               4
100
AcDbLine
 10
-2.0
 20
-1.8000000000000114
 30
0.0
 11
2.0
 21
-1.8000000000000114
 31
0.0
  0
LINE
  5
37A
100
AcDbEntity
  8
0
  6
CONTINUOUS
 62
               4
100
AcDbLine
 10
2.0
 20
-0.9499999999999886
 30
0.0
 11
1.5
 21
-0.4499999999999886
 31
0.0
  0
LINE
  5
37B
100
AcDbEntity
  8
0
  6
CONTINUOUS
 62
               4
100
AcDbLine
 10
1.5
 20
0.0
 30
0.0
 11
1.5
 21
-0.4499999999999886
 31
0.0
  0
LINE
  5
37C
100
AcDbEntity
  8
0
  6
CONTINUOUS
 62
               4
100
AcDbLine
 10
-1.5
 20
0.0
 30
0.0
 11
1.5
 21
0.0
 31
0.0
  0
LINE
  5
37D
100
AcDbEntity
  8
0
  6
CONTINUOUS
 62
               4
100
AcDbLine
 10
-1.5
 20
0.0
 30
0.0
 11
-1.5
 21
-0.4499999999999886
 31
0.0
  0
LINE
  5
37E
100
AcDbEntity
  8
0
  6
CONTINUOUS
 62
               4
100
AcDbLine
 10
-2.0
 20
-0.9499999999999886
 30
0.0
 11
-1.5
 21
-0.4499999999999886
 31
0.0
  0
LINE
  5
37F
100
AcDbEntity
  8
0
  6
CONTINUOUS
 62
             200
100
AcDbLine
 10
0.0
 20
2.0500000000000114
 30
0.0
 11
0.0
 21
-5.4300000000000068
 31
0.0
  0
ENDBLK
  5
380
100
AcDbEntity
  8
0
100
AcDbBlockEnd
  0
BLOCK
  5
381
100
AcDbEntity
  8
0
100
AcDbBlockBegin
  2
RAG20-SS2-9
 70
               0
 10
0.0
 20
0.0
 30
0.0
  3
RAG20-SS2-9
  1

  0
CIRCLE
  5
382
100
AcDbEntity
  8
0
  6
CONTINUOUS
 62
               4
100
AcDbCircle
 10
0.0
 20
-2.75
 30
0.0
 40
0.25
  0
CIRCLE
  5
383
100
AcDbEntity
  8
0
  6
CONTINUOUS
 62
               4
100
AcDbCircle
 10
0.0
 20
-1.8500000000000227
 30
0.0
 40
0.25
  0
CIRCLE
  5
384
100
AcDbEntity
  8
0
  6
CONTINUOUS
 62
               4
100
AcDbCircle
 10
0.0
 20
-2.75
 30
0.0
 40
0.45
  0
CIRCLE
  5
385
100
AcDbEntity
  8
0
  6
CONTINUOUS
 62
               4
100
AcDbCircle
 10
0.0
 20
-1.8500000000000227
 30
0.0
 40
0.45
  0
CIRCLE
  5
386
100
AcDbEntity
  8
0
  6
CONTINUOUS
 62
               4
100
AcDbCircle
 10
0.0
 20
-2.3000000000000114
 30
0.0
 40
1.3
  0
LINE
  5
387
100
AcDbEntity
  8
0
  6
CONTINUOUS
 62
             200
100
AcDbLine
 10
0.0
 20
2.0500000000000114
 30
0.0
 11
0.0
 21
-5.4300000000000068
 31
0.0
  0
LINE
  5
388
100
AcDbEntity
  8
0
  6
CONTINUOUS
 62
               4
100
AcDbLine
 10
2.0
 20
-0.9499999999999886
 30
0.0
 11
1.5
 21
-0.4499999999999886
 31
0.0
  0
LINE
  5
389
100
AcDbEntity
  8
0
  6
CONTINUOUS
 62
               4
100
AcDbLine
 10
1.5
 20
0.0
 30
0.0
 11
1.5
 21
-0.4499999999999886
 31
0.0
  0
LINE
  5
38A
100
AcDbEntity
  8
0
  6
CONTINUOUS
 62
               4
100
AcDbLine
 10
1.5
 20
0.0
 30
0.0
 11
-1.5
 21
0.0
 31
0.0
  0
LINE
  5
38B
100
AcDbEntity
  8
0
  6
CONTINUOUS
 62
               4
100
AcDbLine
 10
-1.5
 20
0.0
 30
0.0
 11
-1.5
 21
-0.4499999999999886
 31
0.0
  0
LINE
  5
38C
100
AcDbEntity
  8
0
  6
CONTINUOUS
 62
               4
100
AcDbLine
 10
-2.0
 20
-0.9499999999999886
 30
0.0
 11
-1.5
 21
-0.4499999999999886
 31
0.0
  0
LINE
  5
38D
100
AcDbEntity
  8
0
  6
CONTINUOUS
 62
               4
100
AcDbLine
 10
1.25
 20
0.5
 30
0.0
 11
1.25
 21
0.0
 31
0.0
  0
LINE
  5
38E
100
AcDbEntity
  8
0
  6
CONTINUOUS
 62
             200
100
AcDbLine
 10
1.0199999999999818
 20
0.5
 30
0.0
 11
1.0199999999999818
 21
0.0
 31
0.0
  0
LINE
  5
38F
100
AcDbEntity
  8
0
  6
CONTINUOUS
 62
             200
100
AcDbLine
 10
-1.0199999999999818
 20
0.5
 30
0.0
 11
-1.0199999999999818
 21
0.0
 31
0.0
  0
LINE
  5
390
100
AcDbEntity
  8
0
  6
CONTINUOUS
 62
               4
100
AcDbLine
 10
-1.25
 20
0.5
 30
0.0
 11
-1.25
 21
0.0
 31
0.0
  0
LINE
  5
391
100
AcDbEntity
  8
0
  6
CONTINUOUS
 62
               4
100
AcDbLine
 10
1.25
 20
0.5
 30
0.0
 11
-1.25
 21
0.5
 31
0.0
  0
LINE
  5
392
100
AcDbEntity
  8
0
  6
CONTINUOUS
 62
               4
100
AcDbLine
 10
-2.0
 20
-0.9499999999999886
 30
0.0
 11
-2.0
 21
-3.0000000000000568
 31
0.0
  0
LINE
  5
393
100
AcDbEntity
  8
0
  6
CONTINUOUS
 62
               4
100
AcDbLine
 10
2.0
 20
-0.9499999999999886
 30
0.0
 11
2.0
 21
-3.0000000000000568
 31
0.0
  0
ARC
  5
394
100
AcDbEntity
  8
0
  6
CONTINUOUS
 62
               4
100
AcDbCircle
 10
0.0
 20
-2.5500000000000114
 30
0.0
 40
2.0500000000000114
100
AcDbArc
 50
192.68038349182106
 51
347.31961650817891
  0
ENDBLK
  5
395
100
AcDbEntity
  8
0
100
AcDbBlockEnd
  0
BLOCK
  5
396
100
AcDbEntity
  8
0
100
AcDbBlockBegin
  2
RAG20-SS2-10
 70
               0
 10
0.0
 20
0.0
 30
0.0
  3
RAG20-SS2-10
  1

  0
CIRCLE
  5
397
100
AcDbEntity
  8
0
  6
CONTINUOUS
 62
               4
100
AcDbCircle
 10
2.0
 20
0.0
 30
0.0
 40
1.3999999999999997
  0
CIRCLE
  5
398
100
AcDbEntity
  8
0
  6
CONTINUOUS
 62
             200
100
AcDbCircle
 10
2.0
 20
0.0
 30
0.0
 40
1.0065
  0
LINE
  5
399
100
AcDbEntity
  8
0
  6
CONTINUOUS
 62
               4
100
AcDbLine
 10
0.0
 20
-2.0
 30
0.0
 11
22.0
 21
-2.0
 31
0.0
  0
LINE
  5
39A
100
AcDbEntity
  8
0
  6
CONTINUOUS
 62
               4
100
AcDbLine
 10
0.0
 20
2.0
 30
0.0
 11
22.0
 21
2.0
 31
0.0
  0
CIRCLE
  5
39B
100
AcDbEntity
  8
0
  6
CONTINUOUS
 62
               4
100
AcDbCircle
 10
2.0000152587890625
 20
0.0
 30
0.0
 40
1.25
  0
LINE
  5
39C
100
AcDbEntity
  8
0
  6
CONTINUOUS
 62
               4
100
AcDbLine
 10
22.0
 20
-1.3000000000000114
 30
0.0
 11
25.090000000000032
 21
-1.3000000000000114
 31
0.0
  0
LINE
  5
39D
100
AcDbEntity
  8
0
  6
CONTINUOUS
 62
               4
100
AcDbLine
 10
22.0
 20
1.3000000000000114
 30
0.0
 11
23.580000000000041
 21
1.3000000000000114
 31
0.0
  0
LINE
  5
39E
100
AcDbEntity
  8
0
  6
CONTINUOUS
 62
             200
100
AcDbLine
 10
23.577685185185146
 20
1.3000000000000114
 30
0.0
 11
25.082314814814822
 21
-1.3000000000000114
 31
0.0
  0
LINE
  5
39F
100
AcDbEntity
  8
0
  6
CONTINUOUS
 62
               4
100
AcDbLine
 10
1.3000000000000682
 20
-1.0600000000000023
 30
0.0
 11
3.0537707675105139
 21
0.6723833191262543
 31
0.0
  0
LINE
  5
3A0
100
AcDbEntity
  8
0
  6
CONTINUOUS
 62
               4
100
AcDbLine
 10
0.9500000000000455
 20
-0.7099999999999795
 30
0.0
 11
2.6973872498305127
 21
1.0373872498304877
 31
0.0
  0
LINE
  5
3A1
100
AcDbEntity
  8
0
  6
CONTINUOUS
 62
             200
100
AcDbLine
 10
2.0
 20
2.8299999999999841
 30
0.0
 11
2.0
 21
-2.75
 31
0.0
  0
LINE
  5
3A2
100
AcDbEntity
  8
0
  6
CONTINUOUS
 62
               4
100
AcDbLine
 10
22.0
 20
2.0
 30
0.0
 11
22.0
 21
-2.0
 31
0.0
  0
LINE
  5
3A3
100
AcDbEntity
  8
0
  6
CONTINUOUS
 62
               4
100
AcDbLine
 10
0.0
 20
2.0
 30
0.0
 11
0.0
 21
-2.0
 31
0.0
  0
LINE
  5
3A4
100
AcDbEntity
  8
0
  6
CONTINUOUS
 62
               4
100
AcDbLine
 10
0.0
 20
1.5
 30
0.0
 11
22.0
 21
1.5
 31
0.0
  0
LINE
  5
3A5
100
AcDbEntity
  8
0
  6
CONTINUOUS
 62
               4
100
AcDbLine
 10
0.0
 20
-1.5
 30
0.0
 11
22.0
 21
-1.5
 31
0.0
  0
LINE
  5
3A6
100
AcDbEntity
  8
0
  6
CONTINUOUS
 62
             200
100
AcDbLine
 10
-2.7999999999999545
 20
0.0
 30
0.0
 11
27.399999999999977
 21
0.0
 31
0.0
  0
ENDBLK
  5
3A7
100
AcDbEntity
  8
0
100
AcDbBlockEnd
  0
BLOCK
  5
3A8
100
AcDbEntity
  8
0
100
AcDbBlockBegin
  2
RAG20-SS2-11
 70
               0
 10
0.0
 20
0.0
 30
0.0
  3
RAG20-SS2-11
  1

  0
LINE
  5
3A9
100
AcDbEntity
  8
0
  6
CONTINUOUS
 62
               4
100
AcDbLine
 10
18.099999999999994
 20
6.8999999999999773
 30
0.0
 11
18.099999999999994
 21
9.1499999999999773
 31
0.0
  0
LINE
  5
3AA
100
AcDbEntity
  8
0
  6
CONTINUOUS
 62
               4
100
AcDbLine
 10
20.699999999999989
 20
6.8999999999999773
 30
0.0
 11
20.699999999999989
 21
10.649999999999977
 31
0.0
  0
LINE
  5
3AB
100
AcDbEntity
  8
0
  6
CONTINUOUS
 62
               4
100
AcDbLine
 10
0.75
 20
0.5
 30
0.0
 11
3.25
 21
0.5
 31
0.0
  0
LINE
  5
3AC
100
AcDbEntity
  8
0
  6
CONTINUOUS
 62
               4
100
AcDbLine
 10
3.25
 20
0.5
 30
0.0
 11
3.25
 21
0.0
 31
0.0
  0
LINE
  5
3AD
100
AcDbEntity
  8
0
  6
CONTINUOUS
 62
             200
100
AcDbLine
 10
3.0200000000000102
 20
0.5
 30
0.0
 11
3.0200000000000102
 21
0.0
 31
0.0
  0
LINE
  5
3AE
100
AcDbEntity
  8
0
  6
CONTINUOUS
 62
             200
100
AcDbLine
 10
0.9699999999999989
 20
0.5
 30
0.0
 11
0.9699999999999989
 21
0.0
 31
0.0
  0
LINE
  5
3AF
100
AcDbEntity
  8
0
  6
CONTINUOUS
 62
               4
100
AcDbLine
 10
0.75
 20
0.5
 30
0.0
 11
0.75
 21
0.0
 31
0.0
  0
LINE
  5
3B0
100
AcDbEntity
  8
0
  6
CONTINUOUS
 62
               4
100
AcDbLine
 10
0.75
 20
-3.7699999999999818
 30
0.0
 11
3.25
 21
-3.7699999999999818
 31
0.0
  0
LINE
  5
3B1
100
AcDbEntity
  8
0
  6
CONTINUOUS
 62
               4
100
AcDbLine
 10
3.25
 20
-2.6000000000000227
 30
0.0
 11
3.25
 21
-3.7699999999999818
 31
0.0
  0
LINE
  5
3B2
100
AcDbEntity
  8
0
  6
CONTINUOUS
 62
             200
100
AcDbLine
 10
3.0200000000000102
 20
-2.6000000000000227
 30
0.0
 11
3.0200000000000102
 21
-4.0
 31
0.0
  0
LINE
  5
3B3
100
AcDbEntity
  8
0
  6
CONTINUOUS
 62
             200
100
AcDbLine
 10
0.9699999999999989
 20
-2.6000000000000227
 30
0.0
 11
0.9699999999999989
 21
-4.0
 31
0.0
  0
LINE
  5
3B4
100
AcDbEntity
  8
0
  6
CONTINUOUS
 62
               4
100
AcDbLine
 10
0.75
 20
-2.6000000000000227
 30
0.0
 11
0.75
 21
-3.7699999999999818
 31
0.0
  0
LINE
  5
3B5
100
AcDbEntity
  8
0
  6
CONTINUOUS
 62
               4
100
AcDbLine
 10
0.9699999999999989
 20
-4.0
 30
0.0
 11
0.75
 21
-3.7699999999999818
 31
0.0
  0
LINE
  5
3B6
100
AcDbEntity
  8
0
  6
CONTINUOUS
 62
               4
100
AcDbLine
 10
3.0200000000000102
 20
-4.0
 30
0.0
 11
3.25
 21
-3.7699999999999818
 31
0.0
  0
LINE
  5
3B7
100
AcDbEntity
  8
0
  6
CONTINUOUS
 62
               4
100
AcDbLine
 10
0.9699999999999989
 20
-4.0
 30
0.0
 11
3.0200000000000102
 21
-4.0
 31
0.0
  0
LINE
  5
3B8
100
AcDbEntity
  8
0
  6
CONTINUOUS
 62
             200
100
AcDbLine
 10
18.099999999999994
 20
9.1465357967667273
 30
0.0
 11
20.699999999999989
 21
10.64769053117783
 31
0.0
  0
LINE
  5
3B9
100
AcDbEntity
  8
0
  6
CONTINUOUS
 62
               4
100
AcDbLine
 10
16.099999999999994
 20
5.3999999999999773
 30
0.0
 11
22.0
 21
5.3999999999999773
 31
0.0
  0
LINE
  5
3BA
100
AcDbEntity
  8
0
  6
CONTINUOUS
 62
               4
100
AcDbLine
 10
16.099999999999994
 20
0.3999999999999773
 30
0.0
 11
22.0
 21
0.3999999999999773
 31
0.0
  0
LINE
  5
3BB
100
AcDbEntity
  8
0
  6
CONTINUOUS
 62
               4
100
AcDbLine
 10
16.099999999999994
 20
1.1499999999999773
 30
0.0
 11
22.0
 21
1.1499999999999773
 31
0.0
  0
LINE
  5
3BC
100
AcDbEntity
  8
0
  6
CONTINUOUS
 62
               4
100
AcDbLine
 10
0.0
 20
-0.4499999999999886
 30
0.0
 11
22.0
 21
-0.4499999999999886
 31
0.0
  0
LINE
  5
3BD
100
AcDbEntity
  8
0
  6
CONTINUOUS
 62
               4
100
AcDbLine
 10
0.0
 20
-1.0
 30
0.0
 11
22.0
 21
-1.0
 31
0.0
  0
LINE
  5
3BE
100
AcDbEntity
  8
0
  6
CONTINUOUS
 62
               4
100
AcDbLine
 10
4.2700000000000102
 20
-1.8000000000000114
 30
0.0
 11
4.2700000000000102
 21
-2.9800000000000182
 31
0.0
  0
LINE
  5
3BF
100
AcDbEntity
  8
0
  6
CONTINUOUS
 62
               4
100
AcDbLine
 10
4.2700000000000102
 20
-2.9800000000000182
 30
0.0
 11
4.6999999999999886
 21
-2.9800000000000182
 31
0.0
  0
LINE
  5
3C0
100
AcDbEntity
  8
0
  6
CONTINUOUS
 62
               4
100
AcDbLine
 10
4.1999999999999886
 20
-1.8000000000000114
 30
0.0
 11
4.1999999999999886
 21
-3.8000000000000114
 31
0.0
  0
LINE
  5
3C1
100
AcDbEntity
  8
0
  6
CONTINUOUS
 62
               4
100
AcDbLine
 10
4.1999999999999886
 20
-3.8000000000000114
 30
0.0
 11
4.6999999999999886
 21
-3.8000000000000114
 31
0.0
  0
LINE
  5
3C2
100
AcDbEntity
  8
0
  6
CONTINUOUS
 62
               4
100
AcDbLine
 10
16.099999999999994
 20
6.8999999999999773
 30
0.0
 11
22.0
 21
6.8999999999999773
 31
0.0
  0
LINE
  5
3C3
100
AcDbEntity
  8
0
  6
CONTINUOUS
 62
               4
100
AcDbLine
 10
4.0
 20
-1.8000000000000114
 30
0.0
 11
4.0
 21
-2.6000000000000227
 31
0.0
  0
LINE
  5
3C4
100
AcDbEntity
  8
0
  6
CONTINUOUS
 62
               4
100
AcDbLine
 10
0.0
 20
-2.6000000000000227
 30
0.0
 11
4.0
 21
-2.6000000000000227
 31
0.0
  0
LINE
  5
3C5
100
AcDbEntity
  8
0
  6
CONTINUOUS
 62
               4
100
AcDbLine
 10
0.0
 20
-1.8000000000000114
 30
0.0
 11
4.2700000000000102
 21
-1.8000000000000114
 31
0.0
  0
LINE
  5
3C6
100
AcDbEntity
  8
0
  6
CONTINUOUS
 62
               4
100
AcDbLine
 10
16.099999999999994
 20
6.8999999999999773
 30
0.0
 11
16.099999999999994
 21
0.0
 31
0.0
  0
LINE
  5
3C7
100
AcDbEntity
  8
0
  6
CONTINUOUS
 62
             200
100
AcDbLine
 10
2.0
 20
1.1499999999999773
 30
0.0
 11
2.0
 21
-5.1700000000000159
 31
0.0
  0
LINE
  5
3C8
100
AcDbEntity
  8
0
  6
CONTINUOUS
 62
               4
100
AcDbLine
 10
4.6999999999999886
 20
-2.9800000000000182
 30
0.0
 11
4.6999999999999886
 21
-4.6000000000000227
 31
0.0
  0
LINE
  5
3C9
100
AcDbEntity
  8
0
  6
CONTINUOUS
 62
               4
100
AcDbLine
 10
0.0
 20
-2.6000000000000227
 30
0.0
 11
0.0
 21
0.0
 31
0.0
  0
LINE
  5
3CA
100
AcDbEntity
  8
0
  6
CONTINUOUS
 62
               4
100
AcDbLine
 10
22.0
 20
6.8999999999999773
 30
0.0
 11
22.0
 21
-4.6000000000000227
 31
0.0
  0
LINE
  5
3CB
100
AcDbEntity
  8
0
  6
CONTINUOUS
 62
               4
100
AcDbLine
 10
4.6999999999999886
 20
-4.6000000000000227
 30
0.0
 11
22.0
 21
-4.6000000000000227
 31
0.0
  0
LINE
  5
3CC
100
AcDbEntity
  8
0
  6
CONTINUOUS
 62
               4
100
AcDbLine
 10
0.0
 20
0.0
 30
0.0
 11
16.099999999999994
 21
0.0
 31
0.0
  0
ENDBLK
  5
3CD
100
AcDbEntity
  8
0
100
AcDbBlockEnd
  0
BLOCK
  5
3CE
100
AcDbEntity
  8
0
100
AcDbBlockBegin
  2
RAG20-SS2-12
 70
               0
 10
0.0
 20
0.0
 30
0.0
  3
RAG20-SS2-12
  1

  0
ARC
  5
3CF
100
AcDbEntity
  8
0
  6
CONTINUOUS
 62
               4
100
AcDbCircle
 10
0.0
 20
-2.5500000000000114
 30
0.0
 40
2.0500000000000114
100
AcDbArc
 50
192.68038349182106
 51
347.31961650817891
  0
LINE
  5
3D0
100
AcDbEntity
  8
0
  6
CONTINUOUS
 62
               4
100
AcDbLine
 10
-2.0
 20
-0.9499999999999886
 30
0.0
 11
-2.0
 21
-3.0000000000000568
 31
0.0
  0
LINE
  5
3D1
100
AcDbEntity
  8
0
  6
CONTINUOUS
 62
               4
100
AcDbLine
 10
2.0
 20
-0.9499999999999886
 30
0.0
 11
2.0
 21
-3.0000000000000568
 31
0.0
  0
LINE
  5
3D2
100
AcDbEntity
  8
0
  6
CONTINUOUS
 62
               4
100
AcDbLine
 10
1.3000000000000114
 20
10.652314814814815
 30
0.0
 11
1.3000000000000114
 21
6.8999999999999773
 31
0.0
  0
LINE
  5
3D3
100
AcDbEntity
  8
0
  6
CONTINUOUS
 62
               4
100
AcDbLine
 10
-1.3000000000000114
 20
9.1476851851851961
 30
0.0
 11
-1.3000000000000114
 21
6.8999999999999773
 31
0.0
  0
LINE
  5
3D4
100
AcDbEntity
  8
0
  6
CONTINUOUS
 62
               4
100
AcDbLine
 10
-1.25
 20
0.5
 30
0.0
 11
1.25
 21
0.5
 31
0.0
  0
LINE
  5
3D5
100
AcDbEntity
  8
0
  6
CONTINUOUS
 62
               4
100
AcDbLine
 10
1.25
 20
0.5
 30
0.0
 11
1.25
 21
0.0
 31
0.0
  0
LINE
  5
3D6
100
AcDbEntity
  8
0
  6
CONTINUOUS
 62
             200
100
AcDbLine
 10
1.0200000000000102
 20
0.5
 30
0.0
 11
1.0200000000000102
 21
0.0
 31
0.0
  0
LINE
  5
3D7
100
AcDbEntity
  8
0
  6
CONTINUOUS
 62
             200
100
AcDbLine
 10
-1.0200000000000102
 20
0.5
 30
0.0
 11
-1.0200000000000102
 21
0.0
 31
0.0
  0
LINE
  5
3D8
100
AcDbEntity
  8
0
  6
CONTINUOUS
 62
               4
100
AcDbLine
 10
-1.25
 20
0.5
 30
0.0
 11
-1.25
 21
0.0
 31
0.0
  0
LINE
  5
3D9
100
AcDbEntity
  8
0
  6
CONTINUOUS
 62
               4
100
AcDbLine
 10
-1.25
 20
-3.7699999999999818
 30
0.0
 11
1.25
 21
-3.7699999999999818
 31
0.0
  0
LINE
  5
3DA
100
AcDbEntity
  8
0
  6
CONTINUOUS
 62
               4
100
AcDbLine
 10
1.25
 20
-2.6000000000000227
 30
0.0
 11
1.25
 21
-3.7699999999999818
 31
0.0
  0
LINE
  5
3DB
100
AcDbEntity
  8
0
  6
CONTINUOUS
 62
             200
100
AcDbLine
 10
1.0200000000000102
 20
-2.6000000000000227
 30
0.0
 11
1.0200000000000102
 21
-4.0
 31
0.0
  0
LINE
  5
3DC
100
AcDbEntity
  8
0
  6
CONTINUOUS
 62
             200
100
AcDbLine
 10
-1.0200000000000102
 20
-2.6000000000000227
 30
0.0
 11
-1.0200000000000102
 21
-4.0
 31
0.0
  0
LINE
  5
3DD
100
AcDbEntity
  8
0
  6
CONTINUOUS
 62
               4
100
AcDbLine
 10
-1.25
 20
-2.6000000000000227
 30
0.0
 11
-1.25
 21
-3.7699999999999818
 31
0.0
  0
LINE
  5
3DE
100
AcDbEntity
  8
0
  6
CONTINUOUS
 62
               4
100
AcDbLine
 10
-1.0200000000000102
 20
-4.0
 30
0.0
 11
-1.25
 21
-3.7699999999999818
 31
0.0
  0
LINE
  5
3DF
100
AcDbEntity
  8
0
  6
CONTINUOUS
 62
               4
100
AcDbLine
 10
1.0200000000000102
 20
-4.0
 30
0.0
 11
1.25
 21
-3.7699999999999818
 31
0.0
  0
LINE
  5
3E0
100
AcDbEntity
  8
0
  6
CONTINUOUS
 62
               4
100
AcDbLine
 10
-1.0200000000000102
 20
-4.0
 30
0.0
 11
1.0200000000000102
 21
-4.0
 31
0.0
  0
LINE
  5
3E1
100
AcDbEntity
  8
0
  6
CONTINUOUS
 62
             200
100
AcDbLine
 10
-1.3000000000000114
 20
9.1476851851851393
 30
0.0
 11
1.3000000000000114
 21
10.652314814814815
 31
0.0
  0
LINE
  5
3E2
100
AcDbEntity
  8
0
  6
CONTINUOUS
 62
               4
100
AcDbLine
 10
-2.25
 20
6.8999999999999773
 30
0.0
 11
2.25
 21
6.8999999999999773
 31
0.0
  0
LINE
  5
3E3
100
AcDbEntity
  8
0
  6
CONTINUOUS
 62
               4
100
AcDbLine
 10
-2.0
 20
-2.6000000000000227
 30
0.0
 11
2.0
 21
-2.6000000000000227
 31
0.0
  0
LINE
  5
3E4
100
AcDbEntity
  8
0
  6
CONTINUOUS
 62
               4
100
AcDbLine
 10
-2.0
 20
-1.8000000000000114
 30
0.0
 11
2.0
 21
-1.8000000000000114
 31
0.0
  0
LINE
  5
3E5
100
AcDbEntity
  8
0
  6
CONTINUOUS
 62
               4
100
AcDbLine
 10
-1.5
 20
0.0
 30
0.0
 11
1.5
 21
0.0
 31
0.0
  0
LINE
  5
3E6
100
AcDbEntity
  8
0
  6
CONTINUOUS
 62
             200
100
AcDbLine
 10
0.0
 20
13.146819562614326
 30
0.0
 11
0.0
 21
-6.0600000000000023
 31
0.0
  0
LINE
  5
3E7
100
AcDbEntity
  8
0
  6
CONTINUOUS
 62
               4
100
AcDbLine
 10
2.25
 20
6.8999999999999773
 30
0.0
 11
2.25
 21
1.1499999999999773
 31
0.0
  0
LINE
  5
3E8
100
AcDbEntity
  8
0
  6
CONTINUOUS
 62
               4
100
AcDbLine
 10
1.5
 20
0.3999999999999773
 30
0.0
 11
2.25
 21
1.1499999999999773
 31
0.0
  0
LINE
  5
3E9
100
AcDbEntity
  8
0
  6
CONTINUOUS
 62
               4
100
AcDbLine
 10
1.5
 20
-0.4499999999999886
 30
0.0
 11
1.5
 21
0.3999999999999773
 31
0.0
  0
LINE
  5
3EA
100
AcDbEntity
  8
0
  6
CONTINUOUS
 62
               4
100
AcDbLine
 10
2.0
 20
-0.9499999999999886
 30
0.0
 11
1.5
 21
-0.4499999999999886
 31
0.0
  0
LINE
  5
3EB
100
AcDbEntity
  8
0
  6
CONTINUOUS
 62
               4
100
AcDbLine
 10
-2.0
 20
-0.9499999999999886
 30
0.0
 11
-1.5
 21
-0.4499999999999886
 31
0.0
  0
LINE
  5
3EC
100
AcDbEntity
  8
0
  6
CONTINUOUS
 62
               4
100
AcDbLine
 10
-1.5
 20
-0.4499999999999886
 30
0.0
 11
-1.5
 21
0.3999999999999773
 31
0.0
  0
LINE
  5
3ED
100
AcDbEntity
  8
0
  6
CONTINUOUS
 62
               4
100
AcDbLine
 10
-1.5
 20
0.3999999999999773
 30
0.0
 11
-2.25
 21
1.1499999999999773
 31
0.0
  0
LINE
  5
3EE
100
AcDbEntity
  8
0
  6
CONTINUOUS
 62
               4
100
AcDbLine
 10
-2.25
 20
6.8999999999999773
 30
0.0
 11
-2.25
 21
1.1499999999999773
 31
0.0
  0
LINE
  5
3EF
100
AcDbEntity
  8
0
  6
CONTINUOUS
 62
               4
100
AcDbLine
 10
-2.25
 20
5.3999999999999773
 30
0.0
 11
2.25
 21
5.3999999999999773
 31
0.0
  0
ENDBLK
  5
3F0
100
AcDbEntity
  8
0
100
AcDbBlockEnd
  0
BLOCK
  5
3F1
100
AcDbEntity
  8
0
100
AcDbBlockBegin
  2
RAG20-SS2-13
 70
               0
 10
0.0
 20
0.0
 30
0.0
  3
RAG20-SS2-13
  1

  0
LINE
  5
3F2
100
AcDbEntity
  8
0
  6
CONTINUOUS
 62
             200
100
AcDbLine
 10
-1.3000000000000114
 20
9.1476851851851677
 30
0.0
 11
1.3000000000000114
 21
10.652314814814844
 31
0.0
  0
LINE
  5
3F3
100
AcDbEntity
  8
0
  6
CONTINUOUS
 62
               4
100
AcDbLine
 10
2.25
 20
5.4000000000000057
 30
0.0
 11
-2.25
 21
5.4000000000000057
 31
0.0
  0
LINE
  5
3F4
100
AcDbEntity
  8
0
  6
CONTINUOUS
 62
               4
100
AcDbLine
 10
2.25
 20
6.9000000000000057
 30
0.0
 11
2.25
 21
1.1500000000000057
 31
0.0
  0
LINE
  5
3F5
100
AcDbEntity
  8
0
  6
CONTINUOUS
 62
               4
100
AcDbLine
 10
1.5
 20
0.4000000000000057
 30
0.0
 11
2.25
 21
1.1500000000000057
 31
0.0
  0
LINE
  5
3F6
100
AcDbEntity
  8
0
  6
CONTINUOUS
 62
               4
100
AcDbLine
 10
1.5
 20
-0.4499999999999602
 30
0.0
 11
1.5
 21
0.4000000000000057
 31
0.0
  0
LINE
  5
3F7
100
AcDbEntity
  8
0
  6
CONTINUOUS
 62
               4
100
AcDbLine
 10
2.0
 20
-0.9499999999999602
 30
0.0
 11
1.5
 21
-0.4499999999999602
 31
0.0
  0
LINE
  5
3F8
100
AcDbEntity
  8
0
  6
CONTINUOUS
 62
               4
100
AcDbLine
 10
-2.0
 20
-0.9499999999999602
 30
0.0
 11
-1.5
 21
-0.4499999999999602
 31
0.0
  0
LINE
  5
3F9
100
AcDbEntity
  8
0
  6
CONTINUOUS
 62
               4
100
AcDbLine
 10
-1.5
 20
-0.4499999999999602
 30
0.0
 11
-1.5
 21
0.4000000000000057
 31
0.0
  0
LINE
  5
3FA
100
AcDbEntity
  8
0
  6
CONTINUOUS
 62
               4
100
AcDbLine
 10
-1.5
 20
0.4000000000000057
 30
0.0
 11
-2.25
 21
1.1500000000000057
 31
0.0
  0
LINE
  5
3FB
100
AcDbEntity
  8
0
  6
CONTINUOUS
 62
               4
100
AcDbLine
 10
-2.25
 20
6.9000000000000057
 30
0.0
 11
-2.25
 21
1.1500000000000057
 31
0.0
  0
LINE
  5
3FC
100
AcDbEntity
  8
0
  6
CONTINUOUS
 62
             200
100
AcDbLine
 10
0.0
 20
13.146819562614354
 30
0.0
 11
0.0
 21
-6.0599999999999739
 31
0.0
  0
LINE
  5
3FD
100
AcDbEntity
  8
0
  6
CONTINUOUS
 62
               4
100
AcDbLine
 10
2.25
 20
6.9000000000000057
 30
0.0
 11
-2.25
 21
6.9000000000000057
 31
0.0
  0
LINE
  5
3FE
100
AcDbEntity
  8
0
  6
CONTINUOUS
 62
               4
100
AcDbLine
 10
1.3000000000000114
 20
10.652314814814844
 30
0.0
 11
1.3000000000000114
 21
6.9000000000000057
 31
0.0
  0
LINE
  5
3FF
100
AcDbEntity
  8
0
  6
CONTINUOUS
 62
               4
100
AcDbLine
 10
-1.3000000000000114
 20
9.1476851851851677
 30
0.0
 11
-1.3000000000000114
 21
6.9000000000000057
 31
0.0
  0
LINE
  5
400
100
AcDbEntity
  8
0
  6
CONTINUOUS
 62
               4
100
AcDbLine
 10
-2.0
 20
-0.9499999999999602
 30
0.0
 11
-2.0
 21
-3.0000000000000284
 31
0.0
  0
LINE
  5
401
100
AcDbEntity
  8
0
  6
CONTINUOUS
 62
               4
100
AcDbLine
 10
2.0
 20
-0.9499999999999602
 30
0.0
 11
2.0
 21
-3.0000000000000284
 31
0.0
  0
ARC
  5
402
100
AcDbEntity
  8
0
  6
CONTINUOUS
 62
               4
100
AcDbCircle
 10
0.0
 20
-2.5499999999999829
 30
0.0
 40
2.0500000000000114
100
AcDbArc
 50
192.68038349182106
 51
347.31961650817891
  0
ENDBLK
  5
403
100
AcDbEntity
  8
0
100
AcDbBlockEnd
  0
BLOCK
  5
404
100
AcDbEntity
  8
0
100
AcDbBlockBegin
  2
RAG20-SS2-14
 70
               0
 10
0.0
 20
0.0
 30
0.0
  3
RAG20-SS2-14
  1

  0
CIRCLE
  5
405
100
AcDbEntity
  8
0
  6
CONTINUOUS
 62
               4
100
AcDbCircle
 10
2.0
 20
0.0
 30
0.0
 40
1.3999999999999997
  0
CIRCLE
  5
406
100
AcDbEntity
  8
0
  6
CONTINUOUS
 62
             200
100
AcDbCircle
 10
2.0
 20
0.0
 30
0.0
 40
1.0065
  0
LINE
  5
407
100
AcDbEntity
  8
0
  6
CONTINUOUS
 62
               4
100
AcDbLine
 10
0.0
 20
-2.0
 30
0.0
 11
16.869619799344576
 21
-2.0
 31
0.0
  0
LINE
  5
408
100
AcDbEntity
  8
0
  6
CONTINUOUS
 62
               4
100
AcDbLine
 10
0.0
 20
2.0
 30
0.0
 11
16.869619799344576
 21
2.0
 31
0.0
  0
CIRCLE
  5
409
100
AcDbEntity
  8
0
  6
CONTINUOUS
 62
               4
100
AcDbCircle
 10
18.949999988079071
 20
0.3181533813476563
 30
0.0
 40
0.25
  0
CIRCLE
  5
40A
100
AcDbEntity
  8
0
  6
CONTINUOUS
 62
               4
100
AcDbCircle
 10
19.85000001192094
 20
-0.34100341796875
 30
0.0
 40
0.25
  0
CIRCLE
  5
40B
100
AcDbEntity
  8
0
  6
CONTINUOUS
 62
               4
100
AcDbCircle
 10
18.949999988079071
 20
0.3181533813476563
 30
0.0
 40
0.449999988079071
  0
CIRCLE
  5
40C
100
AcDbEntity
  8
0
  6
CONTINUOUS
 62
               4
100
AcDbCircle
 10
19.85000001192094
 20
-0.34100341796875
 30
0.0
 40
0.449999988079071
  0
CIRCLE
  5
40D
100
AcDbEntity
  8
0
  6
CONTINUOUS
 62
               4
100
AcDbCircle
 10
19.4073486328125
 20
0.0
 30
0.0
 40
1.2999992370605469
  0
CIRCLE
  5
40E
100
AcDbEntity
  8
0
  6
CONTINUOUS
 62
               4
100
AcDbCircle
 10
2.0
 20
0.0
 30
0.0
 40
1.25
  0
ARC
  5
40F
100
AcDbEntity
  8
0
  6
CONTINUOUS
 62
               4
100
AcDbCircle
 10
19.5
 20
0.0
 30
0.0
 40
3.3043758866085451
100
AcDbArc
 50
137.08479304051025
 51
222.91520695948975
  0
LINE
  5
410
100
AcDbEntity
  8
0
  6
CONTINUOUS
 62
               4
100
AcDbLine
 10
0.9300000000000068
 20
-0.6399999999999864
 30
0.0
 11
2.6399999999999864
 21
1.0699999999999932
 31
0.0
  0
LINE
  5
411
100
AcDbEntity
  8
0
  6
CONTINUOUS
 62
               4
100
AcDbLine
 10
1.3499999999999943
 20
-1.0699999999999932
 30
0.0
 11
3.0699999999999932
 21
0.6399999999999864
 31
0.0
  0
LINE
  5
412
100
AcDbEntity
  8
0
  6
CONTINUOUS
 62
               4
100
AcDbLine
 10
22.0
 20
2.25
 30
0.0
 11
22.0
 21
-2.25
 31
0.0
  0
LINE
  5
413
100
AcDbEntity
  8
0
  6
CONTINUOUS
 62
               4
100
AcDbLine
 10
17.080000000000013
 20
-2.25
 30
0.0
 11
22.0
 21
-2.25
 31
0.0
  0
LINE
  5
414
100
AcDbEntity
  8
0
  6
CONTINUOUS
 62
               4
100
AcDbLine
 10
17.080000000000013
 20
2.25
 30
0.0
 11
22.0
 21
2.25
 31
0.0
  0
LINE
  5
415
100
AcDbEntity
  8
0
  6
CONTINUOUS
 62
             200
100
AcDbLine
 10
2.0
 20
2.8299999999999841
 30
0.0
 11
2.0
 21
-2.75
 31
0.0
  0
LINE
  5
416
100
AcDbEntity
  8
0
  6
CONTINUOUS
 62
               4
100
AcDbLine
 10
0.0
 20
2.0
 30
0.0
 11
0.0
 21
-2.0
 31
0.0
  0
LINE
  5
417
100
AcDbEntity
  8
0
  6
CONTINUOUS
 62
               4
100
AcDbLine
 10
0.0
 20
1.5
 30
0.0
 11
16.555700422850947
 21
1.5
 31
0.0
  0
LINE
  5
418
100
AcDbEntity
  8
0
  6
CONTINUOUS
 62
               4
100
AcDbLine
 10
0.0
 20
-1.5
 30
0.0
 11
16.555700422850947
 21
-1.5
 31
0.0
  0
LINE
  5
419
100
AcDbEntity
  8
0
  6
CONTINUOUS
 62
             200
100
AcDbLine
 10
-1.3199999999999932
 20
0.0
 30
0.0
 11
23.580000000000013
 21
0.0
 31
0.0
  0
ENDBLK
  5
41A
100
AcDbEntity
  8
0
100
AcDbBlockEnd
  0
BLOCK
  5
41B
100
AcDbEntity
  8
0
100
AcDbBlockBegin
  2
RAG20-SS2-15
 70
               0
 10
0.0
 20
0.0
 30
0.0
  3
RAG20-SS2-15
  1

  0
LINE
  5
41C
100
AcDbEntity
  8
0
  6
CONTINUOUS
 62
             200
100
AcDbLine
 10
17.75230946882219
 20
-1.1999995223464452
 30
0.0
 11
19.253464203233293
 21
-3.799999522346468
 31
0.0
  0
LINE
  5
41D
100
AcDbEntity
  8
0
  6
CONTINUOUS
 62
             200
100
AcDbLine
 10
0.9500000000000028
 20
0.6001359972752312
 30
0.0
 11
0.9500000000000028
 21
0.0
 31
0.0
  0
LINE
  5
41E
100
AcDbEntity
  8
0
  6
CONTINUOUS
 62
             200
100
AcDbLine
 10
3.0500000000000256
 20
0.6001359972752312
 30
0.0
 11
3.0500000000000256
 21
0.0
 31
0.0
  0
LINE
  5
41F
100
AcDbEntity
  8
0
  6
CONTINUOUS
 62
               4
100
AcDbLine
 10
0.7514285714285762
 20
0.4001359972752425
 30
0.0
 11
3.2514285714285762
 21
0.4001359972752425
 31
0.0
  0
LINE
  5
420
100
AcDbEntity
  8
0
  6
CONTINUOUS
 62
               4
100
AcDbLine
 10
3.0514285714285876
 20
0.6001359972752312
 30
0.0
 11
3.2514285714285762
 21
0.4001359972752425
 31
0.0
  0
LINE
  5
421
100
AcDbEntity
  8
0
  6
CONTINUOUS
 62
               4
100
AcDbLine
 10
0.7514285714285762
 20
0.4001359972752425
 30
0.0
 11
0.9514285714285791
 21
0.6001359972752312
 31
0.0
  0
LINE
  5
422
100
AcDbEntity
  8
0
  6
CONTINUOUS
 62
               4
100
AcDbLine
 10
3.2514285714285762
 20
0.4001359972752425
 30
0.0
 11
3.2514285714285762
 21
0.0
 31
0.0
  0
LINE
  5
423
100
AcDbEntity
  8
0
  6
CONTINUOUS
 62
               4
100
AcDbLine
 10
0.7514285714285762
 20
0.0
 30
0.0
 11
0.7514285714285762
 21
0.4001359972752425
 31
0.0
  0
LINE
  5
424
100
AcDbEntity
  8
0
  6
CONTINUOUS
 62
             200
100
AcDbLine
 10
0.9500000000000028
 20
-2.5998640027247575
 30
0.0
 11
0.9500000000000028
 21
-4.0984354312961955
 31
0.0
  0
LINE
  5
425
100
AcDbEntity
  8
0
  6
CONTINUOUS
 62
             200
100
AcDbLine
 10
3.0500000000000256
 20
-2.5998640027247575
 30
0.0
 11
3.0500000000000256
 21
-4.1012925741533763
 31
0.0
  0
LINE
  5
426
100
AcDbEntity
  8
0
  6
CONTINUOUS
 62
               4
100
AcDbLine
 10
0.9514285714285791
 20
0.6001359972752312
 30
0.0
 11
3.0514285714285876
 21
0.6001359972752312
 31
0.0
  0
LINE
  5
427
100
AcDbEntity
  8
0
  6
CONTINUOUS
 62
               4
100
AcDbLine
 10
0.0
 20
-1.799864002724803
 30
0.0
 11
0.0
 21
0.0
 31
0.0
  0
LINE
  5
428
100
AcDbEntity
  8
0
  6
CONTINUOUS
 62
             200
100
AcDbLine
 10
2.0
 20
2.291435061338376
 30
0.0
 11
2.0
 21
-6.0599995140677834
 31
0.0
  0
LINE
  5
429
100
AcDbEntity
  8
0
  6
CONTINUOUS
 62
               4
100
AcDbLine
 10
4.0000000000000142
 20
-1.8000000027248007
 30
0.0
 11
4.0000000000000142
 21
-2.6000000027247552
 31
0.0
  0
LINE
  5
42A
100
AcDbEntity
  8
0
  6
CONTINUOUS
 62
               4
100
AcDbLine
 10
0.0
 20
-1.799864002724803
 30
0.0
 11
0.0
 21
-2.6000000027247552
 31
0.0
  0
LINE
  5
42B
100
AcDbEntity
  8
0
  6
CONTINUOUS
 62
               4
100
AcDbLine
 10
0.7514285714285762
 20
-2.5998640027247575
 30
0.0
 11
0.7514285714285762
 21
-3.8998640027247689
 31
0.0
  0
LINE
  5
42C
100
AcDbEntity
  8
0
  6
CONTINUOUS
 62
             200
100
AcDbLine
 10
0.7514285714285762
 20
-3.8998640027247689
 30
0.0
 11
3.2514285714285762
 21
-3.8998640027247689
 31
0.0
  0
LINE
  5
42D
100
AcDbEntity
  8
0
  6
CONTINUOUS
 62
               4
100
AcDbLine
 10
1.2514285714285762
 20
-4.3998640027247689
 30
0.0
 11
0.7514285714285762
 21
-3.8998640027247689
 31
0.0
  0
LINE
  5
42E
100
AcDbEntity
  8
0
  6
CONTINUOUS
 62
               4
100
AcDbLine
 10
1.2514285714285762
 20
-4.3998640027247689
 30
0.0
 11
2.7514285714285762
 21
-4.3998640027247689
 31
0.0
  0
LINE
  5
42F
100
AcDbEntity
  8
0
  6
CONTINUOUS
 62
               4
100
AcDbLine
 10
3.2514285714285762
 20
-3.8998640027247689
 30
0.0
 11
2.7514285714285762
 21
-4.3998640027247689
 31
0.0
  0
LINE
  5
430
100
AcDbEntity
  8
0
  6
CONTINUOUS
 62
               4
100
AcDbLine
 10
3.2514285714285762
 20
-2.5998640027247575
 30
0.0
 11
3.2514285714285762
 21
-3.8998640027247689
 31
0.0
  0
LINE
  5
431
100
AcDbEntity
  8
0
  6
CONTINUOUS
 62
               4
100
AcDbLine
 10
4.3000000000000256
 20
-1.8000000027248007
 30
0.0
 11
4.3000000000000256
 21
-4.5999995223464794
 31
0.0
  0
LINE
  5
432
100
AcDbEntity
  8
0
  6
CONTINUOUS
 62
               4
100
AcDbLine
 10
15.500000000000014
 20
-4.5999995223464794
 30
0.0
 11
15.500000000000014
 21
0.0
 31
0.0
  0
LINE
  5
433
100
AcDbEntity
  8
0
  6
CONTINUOUS
 62
               4
100
AcDbLine
 10
4.2999999986376025
 20
-4.5999995223464794
 30
0.0
 11
15.499999995231647
 21
-4.5999995223464794
 31
0.0
  0
LINE
  5
434
100
AcDbEntity
  8
0
  6
CONTINUOUS
 62
               4
100
AcDbLine
 10
-0.000000004768367
 20
-1.8000000027248007
 30
0.0
 11
4.2999999986376025
 21
-1.8000000027248007
 31
0.0
  0
LINE
  5
435
100
AcDbEntity
  8
0
  6
CONTINUOUS
 62
               4
100
AcDbLine
 10
-0.000000004768367
 20
-2.6000000027247552
 30
0.0
 11
3.9999999952316472
 21
-2.6000000027247552
 31
0.0
  0
LINE
  5
436
100
AcDbEntity
  8
0
  6
CONTINUOUS
 62
               4
100
AcDbLine
 10
-0.000000004768367
 20
-1.1000000027247552
 30
0.0
 11
15.500000000000014
 21
-1.1000000027247552
 31
0.0
  0
LINE
  5
437
100
AcDbEntity
  8
0
  6
CONTINUOUS
 62
               4
100
AcDbLine
 10
-0.000000004768367
 20
-0.5499999965940106
 30
0.0
 11
15.500000000000014
 21
-0.5499999965940106
 31
0.0
  0
LINE
  5
438
100
AcDbEntity
  8
0
  6
CONTINUOUS
 62
               4
100
AcDbLine
 10
-0.000000004768367
 20
0.0
 30
0.0
 11
15.500000000000014
 21
0.0
 31
0.0
  0
LINE
  5
439
100
AcDbEntity
  8
0
  6
CONTINUOUS
 62
               4
100
AcDbLine
 10
15.500000000000014
 20
-1.1999995223464452
 30
0.0
 11
17.752309468822162
 21
-1.1999995223464452
 31
0.0
  0
LINE
  5
43A
100
AcDbEntity
  8
0
  6
CONTINUOUS
 62
               4
100
AcDbLine
 10
15.500000000000014
 20
-3.799999522346468
 30
0.0
 11
19.253464203233264
 21
-3.799999522346468
 31
0.0
  0
ENDBLK
  5
43B
100
AcDbEntity
  8
0
100
AcDbBlockEnd
  0
BLOCK
  5
43C
100
AcDbEntity
  8
0
100
AcDbBlockBegin
  2
RAG20-SS2-16
 70
               0
 10
0.0
 20
0.0
 30
0.0
  3
RAG20-SS2-16
  1

  0
ARC
  5
43D
100
AcDbEntity
  8
0
  6
CONTINUOUS
 62
               4
100
AcDbCircle
 10
0.0
 20
-2.5500000000000114
 30
0.0
 40
2.0500000000000114
100
AcDbArc
 50
192.68038349182106
 51
347.31961650817891
  0
LINE
  5
43E
100
AcDbEntity
  8
0
  6
CONTINUOUS
 62
               4
100
AcDbLine
 10
2.0
 20
-3.0000000000000568
 30
0.0
 11
2.0
 21
-1.0500000000000114
 31
0.0
  0
LINE
  5
43F
100
AcDbEntity
  8
0
  6
CONTINUOUS
 62
               4
100
AcDbLine
 10
-2.0
 20
-3.0000000000000568
 30
0.0
 11
-2.0
 21
-1.0497395833333485
 31
0.0
  0
LINE
  5
440
100
AcDbEntity
  8
0
  6
CONTINUOUS
 62
             200
100
AcDbLine
 10
1.0500000000000114
 20
0.0
 30
0.0
 11
1.0500000000000114
 21
0.6001360000000204
 31
0.0
  0
LINE
  5
441
100
AcDbEntity
  8
0
  6
CONTINUOUS
 62
             200
100
AcDbLine
 10
-1.0499999999999829
 20
0.0
 30
0.0
 11
-1.0499999999999829
 21
0.6001360000000204
 31
0.0
  0
LINE
  5
442
100
AcDbEntity
  8
0
  6
CONTINUOUS
 62
             200
100
AcDbLine
 10
1.0500000000000114
 20
-4.0970068571428442
 30
0.0
 11
1.0500000000000114
 21
-2.6000000000000227
 31
0.0
  0
LINE
  5
443
100
AcDbEntity
  8
0
  6
CONTINUOUS
 62
             200
100
AcDbLine
 10
-1.0499999999999829
 20
-4.0970068571428442
 30
0.0
 11
-1.0499999999999829
 21
-2.6000000000000227
 31
0.0
  0
LINE
  5
444
100
AcDbEntity
  8
0
  6
CONTINUOUS
 62
               4
100
AcDbLine
 10
-1.25
 20
0.400135999999975
 30
0.0
 11
-1.0499999999999829
 21
0.6001360000000204
 31
0.0
  0
LINE
  5
445
100
AcDbEntity
  8
0
  6
CONTINUOUS
 62
               4
100
AcDbLine
 10
-1.25
 20
0.0
 30
0.0
 11
-1.25
 21
0.400135999999975
 31
0.0
  0
LINE
  5
446
100
AcDbEntity
  8
0
  6
CONTINUOUS
 62
               4
100
AcDbLine
 10
-2.0
 20
-1.0497395833333485
 30
0.0
 11
-1.501428571428562
 21
-0.5485714285714494
 31
0.0
  0
LINE
  5
447
100
AcDbEntity
  8
0
  6
CONTINUOUS
 62
               4
100
AcDbLine
 10
-1.25
 20
-2.6000000000000227
 30
0.0
 11
-1.25
 21
-3.8970068571428556
 31
0.0
  0
LINE
  5
448
100
AcDbEntity
  8
0
  6
CONTINUOUS
 62
               4
100
AcDbLine
 10
-0.7471428571428476
 20
-4.3998640000000364
 30
0.0
 11
-1.25
 21
-3.8970068571428556
 31
0.0
  0
LINE
  5
449
100
AcDbEntity
  8
0
  6
CONTINUOUS
 62
               4
100
AcDbLine
 10
-0.7471428571428476
 20
-4.3998640000000364
 30
0.0
 11
0.747142857142876
 21
-4.3998640000000364
 31
0.0
  0
LINE
  5
44A
100
AcDbEntity
  8
0
  6
CONTINUOUS
 62
             200
100
AcDbLine
 10
0.0
 20
-6.0599995196216696
 30
0.0
 11
0.0
 21
2.2914350557844898
 31
0.0
  0
LINE
  5
44B
100
AcDbEntity
  8
0
  6
CONTINUOUS
 62
               4
100
AcDbLine
 10
-1.5
 20
-0.5471354166666629
 30
0.0
 11
-1.5
 21
0.0000000027247893
 31
0.0
  0
LINE
  5
44C
100
AcDbEntity
  8
0
  6
CONTINUOUS
 62
               4
100
AcDbLine
 10
1.0500000000000114
 20
0.6001360000000204
 30
0.0
 11
1.25
 21
0.400135999999975
 31
0.0
  0
LINE
  5
44D
100
AcDbEntity
  8
0
  6
CONTINUOUS
 62
               4
100
AcDbLine
 10
1.25
 20
0.400135999999975
 30
0.0
 11
1.25
 21
0.0
 31
0.0
  0
LINE
  5
44E
100
AcDbEntity
  8
0
  6
CONTINUOUS
 62
               4
100
AcDbLine
 10
1.25
 20
-2.599864000000025
 30
0.0
 11
1.25
 21
-3.8970068571428556
 31
0.0
  0
LINE
  5
44F
100
AcDbEntity
  8
0
  6
CONTINUOUS
 62
               4
100
AcDbLine
 10
1.5
 20
-0.5499999999999545
 30
0.0
 11
1.5
 21
0.0000000027247893
 31
0.0
  0
LINE
  5
450
100
AcDbEntity
  8
0
  6
CONTINUOUS
 62
               4
100
AcDbLine
 10
1.5
 20
-0.5499999999999545
 30
0.0
 11
2.0
 21
-1.0500000000000114
 31
0.0
  0
LINE
  5
451
100
AcDbEntity
  8
0
  6
CONTINUOUS
 62
               4
100
AcDbLine
 10
-2.0
 20
-2.6000000000000227
 30
0.0
 11
2.0
 21
-2.6000000000000227
 31
0.0
  0
LINE
  5
452
100
AcDbEntity
  8
0
  6
CONTINUOUS
 62
               4
100
AcDbLine
 10
-2.0
 20
-1.8000000000000114
 30
0.0
 11
2.0
 21
-1.8000000000000114
 31
0.0
  0
LINE
  5
453
100
AcDbEntity
  8
0
  6
CONTINUOUS
 62
               4
100
AcDbLine
 10
1.25
 20
-3.8970068571428556
 30
0.0
 11
0.747142857142876
 21
-4.3998640000000364
 31
0.0
  0
LINE
  5
454
100
AcDbEntity
  8
0
  6
CONTINUOUS
 62
               4
100
AcDbLine
 10
-1.25
 20
-3.8970068571428556
 30
0.0
 11
1.25
 21
-3.8970068571428556
 31
0.0
  0
LINE
  5
455
100
AcDbEntity
  8
0
  6
CONTINUOUS
 62
               4
100
AcDbLine
 10
-1.5
 20
0.0
 30
0.0
 11
1.5
 21
0.0
 31
0.0
  0
LINE
  5
456
100
AcDbEntity
  8
0
  6
CONTINUOUS
 62
               4
100
AcDbLine
 10
-1.25
 20
0.400135999999975
 30
0.0
 11
1.25
 21
0.400135999999975
 31
0.0
  0
LINE
  5
457
100
AcDbEntity
  8
0
  6
CONTINUOUS
 62
               4
100
AcDbLine
 10
-1.0499999999999829
 20
0.6001360000000204
 30
0.0
 11
1.0500000000000114
 21
0.6001360000000204
 31
0.0
  0
ENDBLK
  5
458
100
AcDbEntity
  8
0
100
AcDbBlockEnd
  0
BLOCK
  5
459
100
AcDbEntity
  8
0
100
AcDbBlockBegin
  2
RAG20-SS2-17
 70
               0
 10
0.0
 20
0.0
 30
0.0
  3
RAG20-SS2-17
  1

  0
CIRCLE
  5
45A
100
AcDbEntity
  8
0
  6
CONTINUOUS
 62
               4
100
AcDbCircle
 10
0.0
 20
-2.4999995279003429
 30
0.0
 40
1.3
  0
CIRCLE
  5
45B
100
AcDbEntity
  8
0
  6
CONTINUOUS
 62
               4
100
AcDbCircle
 10
0.0
 20
-3.1499995279003201
 30
0.0
 40
0.29
  0
CIRCLE
  5
45C
100
AcDbEntity
  8
0
  6
CONTINUOUS
 62
               4
100
AcDbCircle
 10
0.0
 20
-1.8499995279003656
 30
0.0
 40
0.29
  0
CIRCLE
  5
45D
100
AcDbEntity
  8
0
  6
CONTINUOUS
 62
               4
100
AcDbCircle
 10
0.0
 20
-3.1499995279003201
 30
0.0
 40
0.5
  0
CIRCLE
  5
45E
100
AcDbEntity
  8
0
  6
CONTINUOUS
 62
               4
100
AcDbCircle
 10
0.0
 20
-1.8499995279003656
 30
0.0
 40
0.5
  0
LINE
  5
45F
100
AcDbEntity
  8
0
  6
CONTINUOUS
 62
               4
100
AcDbLine
 10
1.0499999999999545
 20
0.6001360000000204
 30
0.0
 11
-1.0500000000000114
 21
0.6001360000000204
 31
0.0
  0
LINE
  5
460
100
AcDbEntity
  8
0
  6
CONTINUOUS
 62
               4
100
AcDbLine
 10
1.25
 20
0.400135999999975
 30
0.0
 11
-1.25
 21
0.400135999999975
 31
0.0
  0
LINE
  5
461
100
AcDbEntity
  8
0
  6
CONTINUOUS
 62
               4
100
AcDbLine
 10
1.5
 20
0.0
 30
0.0
 11
-1.5
 21
0.0
 31
0.0
  0
LINE
  5
462
100
AcDbEntity
  8
0
  6
CONTINUOUS
 62
               4
100
AcDbLine
 10
-1.5
 20
-0.5499999999999545
 30
0.0
 11
-2.0
 21
-1.0500000000000114
 31
0.0
  0
LINE
  5
463
100
AcDbEntity
  8
0
  6
CONTINUOUS
 62
               4
100
AcDbLine
 10
-1.5
 20
-0.5499999999999545
 30
0.0
 11
-1.5
 21
0.0000000027247893
 31
0.0
  0
LINE
  5
464
100
AcDbEntity
  8
0
  6
CONTINUOUS
 62
               4
100
AcDbLine
 10
-1.25
 20
0.400135999999975
 30
0.0
 11
-1.25
 21
0.0
 31
0.0
  0
LINE
  5
465
100
AcDbEntity
  8
0
  6
CONTINUOUS
 62
               4
100
AcDbLine
 10
-1.0500000000000114
 20
0.6001360000000204
 30
0.0
 11
-1.25
 21
0.400135999999975
 31
0.0
  0
LINE
  5
466
100
AcDbEntity
  8
0
  6
CONTINUOUS
 62
               4
100
AcDbLine
 10
1.5
 20
-0.5471354166666629
 30
0.0
 11
1.5
 21
0.0000000027247893
 31
0.0
  0
LINE
  5
467
100
AcDbEntity
  8
0
  6
CONTINUOUS
 62
             200
100
AcDbLine
 10
0.0
 20
-6.0599995196216696
 30
0.0
 11
0.0
 21
2.2914350557844898
 31
0.0
  0
LINE
  5
468
100
AcDbEntity
  8
0
  6
CONTINUOUS
 62
               4
100
AcDbLine
 10
2.0
 20
-1.0497395833333485
 30
0.0
 11
1.501428571428562
 21
-0.5485714285714494
 31
0.0
  0
LINE
  5
469
100
AcDbEntity
  8
0
  6
CONTINUOUS
 62
               4
100
AcDbLine
 10
1.25
 20
0.0
 30
0.0
 11
1.25
 21
0.400135999999975
 31
0.0
  0
LINE
  5
46A
100
AcDbEntity
  8
0
  6
CONTINUOUS
 62
               4
100
AcDbLine
 10
1.25
 20
0.400135999999975
 30
0.0
 11
1.0499999999999545
 21
0.6001360000000204
 31
0.0
  0
LINE
  5
46B
100
AcDbEntity
  8
0
  6
CONTINUOUS
 62
             200
100
AcDbLine
 10
1.0499999999999545
 20
0.0
 30
0.0
 11
1.0499999999999545
 21
0.6001360000000204
 31
0.0
  0
LINE
  5
46C
100
AcDbEntity
  8
0
  6
CONTINUOUS
 62
             200
100
AcDbLine
 10
-1.0500000000000114
 20
0.0
 30
0.0
 11
-1.0500000000000114
 21
0.6001360000000204
 31
0.0
  0
LINE
  5
46D
100
AcDbEntity
  8
0
  6
CONTINUOUS
 62
               4
100
AcDbLine
 10
2.0
 20
-3.0000000000000568
 30
0.0
 11
2.0
 21
-1.0497395833333485
 31
0.0
  0
LINE
  5
46E
100
AcDbEntity
  8
0
  6
CONTINUOUS
 62
               4
100
AcDbLine
 10
-2.0
 20
-3.0000000000000568
 30
0.0
 11
-2.0
 21
-1.0500000000000114
 31
0.0
  0
ARC
  5
46F
100
AcDbEntity
  8
0
  6
CONTINUOUS
 62
               4
100
AcDbCircle
 10
0.0
 20
-2.5500000000000114
 30
0.0
 40
2.0500000000000114
100
AcDbArc
 50
192.68038349182106
 51
347.31961650817891
  0
ENDBLK
  5
470
100
AcDbEntity
  8
0
100
AcDbBlockEnd
  0
BLOCK
  5
471
100
AcDbEntity
  8
0
100
AcDbBlockBegin
  2
RAG20-SS2-18
 70
               0
 10
0.0
 20
0.0
 30
0.0
  3
RAG20-SS2-18
  1

  0
LINE
  5
472
100
AcDbEntity
  8
0
  6
CONTINUOUS
 62
               4
100
AcDbLine
 10
0.0
 20
-2.0
 30
0.0
 11
15.500000004768381
 21
-2.0
 31
0.0
  0
LINE
  5
473
100
AcDbEntity
  8
0
  6
CONTINUOUS
 62
               4
100
AcDbLine
 10
0.0
 20
2.0
 30
0.0
 11
15.500000004768381
 21
2.0
 31
0.0
  0
LINE
  5
474
100
AcDbEntity
  8
0
  6
CONTINUOUS
 62
             200
100
AcDbLine
 10
-1.4104017530168846
 20
0.0
 30
0.0
 11
21.50288684079608
 21
0.0
 31
0.0
  0
LINE
  5
475
100
AcDbEntity
  8
0
  6
CONTINUOUS
 62
             200
100
AcDbLine
 10
17.752309473590557
 20
1.3000000000000114
 30
0.0
 11
19.25346420800166
 21
-1.3000000000000114
 31
0.0
  0
LINE
  5
476
100
AcDbEntity
  8
0
  6
CONTINUOUS
 62
               4
100
AcDbLine
 10
15.500000004768381
 20
-1.3000000000000114
 30
0.0
 11
19.253464208001631
 21
-1.3000000000000114
 31
0.0
  0
LINE
  5
477
100
AcDbEntity
  8
0
  6
CONTINUOUS
 62
               4
100
AcDbLine
 10
15.500000004768381
 20
1.3000000000000114
 30
0.0
 11
17.752309473590529
 21
1.3000000000000114
 31
0.0
  0
LINE
  5
478
100
AcDbEntity
  8
0
  6
CONTINUOUS
 62
             200
100
AcDbLine
 10
2.000000004768367
 20
2.9428571428571786
 30
0.0
 11
2.000000004768367
 21
-3.2999846734234666
 31
0.0
  0
LINE
  5
479
100
AcDbEntity
  8
0
  6
CONTINUOUS
 62
               4
100
AcDbLine
 10
3.9000000047683585
 20
-1.5
 30
0.0
 11
3.9000000047683585
 21
1.5
 31
0.0
  0
LINE
  5
47A
100
AcDbEntity
  8
0
  6
CONTINUOUS
 62
               4
100
AcDbLine
 10
10.400000004768359
 20
-1.5
 30
0.0
 11
10.400000004768359
 21
1.5
 31
0.0
  0
LINE
  5
47B
100
AcDbEntity
  8
0
  6
CONTINUOUS
 62
               4
100
AcDbLine
 10
8.0000000047683812
 20
-0.6000000000000227
 30
0.0
 11
8.0000000047683812
 21
0.8999999999999773
 31
0.0
  0
LINE
  5
47C
100
AcDbEntity
  8
0
  6
CONTINUOUS
 62
               4
100
AcDbLine
 10
9.6000000047683756
 20
-0.6000000000000227
 30
0.0
 11
9.6000000047683756
 21
0.8999999999999773
 31
0.0
  0
LINE
  5
47D
100
AcDbEntity
  8
0
  6
CONTINUOUS
 62
               4
100
AcDbLine
 10
0.0
 20
-2.0
 30
0.0
 11
0.0
 21
2.0
 31
0.0
  0
LINE
  5
47E
100
AcDbEntity
  8
0
  6
CONTINUOUS
 62
               4
100
AcDbLine
 10
15.500000004768381
 20
-2.0
 30
0.0
 11
15.500000004768381
 21
2.0
 31
0.0
  0
LINE
  5
47F
100
AcDbEntity
  8
0
  6
CONTINUOUS
 62
               4
100
AcDbLine
 10
0.0
 20
1.5
 30
0.0
 11
15.500000004768381
 21
1.5
 31
0.0
  0
LINE
  5
480
100
AcDbEntity
  8
0
  6
CONTINUOUS
 62
               4
100
AcDbLine
 10
0.0
 20
-1.5
 30
0.0
 11
15.500000004768381
 21
-1.5
 31
0.0
  0
CIRCLE
  5
481
100
AcDbEntity
  8
0
  6
CONTINUOUS
 62
               4
100
AcDbCircle
 10
2.000000004768367
 20
0.0
 30
0.0
 40
1.3999999999999997
  0
CIRCLE
  5
482
100
AcDbEntity
  8
0
  6
CONTINUOUS
 62
               4
100
AcDbCircle
 10
2.000000004768367
 20
0.0
 30
0.0
 40
1.25
  0
CIRCLE
  5
483
100
AcDbEntity
  8
0
  6
CONTINUOUS
 62
             200
100
AcDbCircle
 10
2.000000004768367
 20
0.0
 30
0.0
 40
1.05
  0
LINE
  5
484
100
AcDbEntity
  8
0
  6
CONTINUOUS
 62
               4
100
AcDbLine
 10
0.9571978986753322
 20
-0.6892486978790089
 30
0.0
 11
2.6892487026473901
 21
1.0428021060930632
 31
0.0
  0
LINE
  5
485
100
AcDbEntity
  8
0
  6
CONTINUOUS
 62
               4
100
AcDbLine
 10
1.3107513189315796
 20
-1.0428020722525844
 30
0.0
 11
3.0428021124431126
 21
0.6892487212589913
 31
0.0
  0
LINE
  5
486
100
AcDbEntity
  8
0
  6
CONTINUOUS
 62
               4
100
AcDbLine
 10
8.0000000047683812
 20
0.8999999999999773
 30
0.0
 11
9.6000000047683756
 21
0.8999999999999773
 31
0.0
  0
LINE
  5
487
100
AcDbEntity
  8
0
  6
CONTINUOUS
 62
               4
100
AcDbLine
 10
8.0000000047683812
 20
-0.6000000000000227
 30
0.0
 11
9.6000000047683756
 21
-0.6000000000000227
 31
0.0
  0
ENDBLK
  5
488
100
AcDbEntity
  8
0
100
AcDbBlockEnd
  0
BLOCK
  5
489
100
AcDbEntity
  8
0
100
AcDbBlockBegin
  2
RAG20-SS2-19
 70
               0
 10
0.0
 20
0.0
 30
0.0
  3
RAG20-SS2-19
  1

  0
LINE
  5
48A
100
AcDbEntity
  8
0
  6
CONTINUOUS
 62
             200
100
AcDbLine
 10
11.200000004768413
 20
8.1445121127280231
 30
0.0
 11
13.800000004768435
 21
9.6456668471391254
 31
0.0
  0
LINE
  5
48B
100
AcDbEntity
  8
0
  6
CONTINUOUS
 62
               4
100
AcDbLine
 10
10.400000010217923
 20
0.9479762348989311
 30
0.0
 11
12.050955668063693
 21
1.4979762296661647
 31
0.0
  0
LINE
  5
48C
100
AcDbEntity
  8
0
  6
CONTINUOUS
 62
               4
100
AcDbLine
 10
12.050955668063693
 20
1.4979762296661647
 30
0.0
 11
12.050955668063693
 21
5.897976315961273
 31
0.0
  0
LINE
  5
48D
100
AcDbEntity
  8
0
  6
CONTINUOUS
 62
               4
100
AcDbLine
 10
12.949044341473041
 20
4.8979763118740607
 30
0.0
 11
12.949044341473041
 21
5.8979763118740607
 31
0.0
  0
LINE
  5
48E
100
AcDbEntity
  8
0
  6
CONTINUOUS
 62
               4
100
AcDbLine
 10
12.949044341473041
 20
4.897976315961273
 30
0.0
 11
15.000000004768367
 21
4.897976315961273
 31
0.0
  0
LINE
  5
48F
100
AcDbEntity
  8
0
  6
CONTINUOUS
 62
               4
100
AcDbLine
 10
14.60000000476839
 20
4.897976315961273
 30
0.0
 11
14.60000000476839
 21
5.897976315961273
 31
0.0
  0
LINE
  5
490
100
AcDbEntity
  8
0
  6
CONTINUOUS
 62
               4
100
AcDbLine
 10
10.400000004768401
 20
-0.0020236840387611
 30
0.0
 11
10.400000004768401
 21
5.897976315961273
 31
0.0
  0
LINE
  5
491
100
AcDbEntity
  8
0
  6
CONTINUOUS
 62
               4
100
AcDbLine
 10
10.400000004768401
 20
5.897976315961273
 30
0.0
 11
14.60000000476839
 21
5.897976315961273
 31
0.0
  0
LINE
  5
492
100
AcDbEntity
  8
0
  6
CONTINUOUS
 62
               4
100
AcDbLine
 10
15.000000004768367
 20
3.897976315961273
 30
0.0
 11
10.400000004768401
 21
3.897976315961273
 31
0.0
  0
LINE
  5
493
100
AcDbEntity
  8
0
  6
CONTINUOUS
 62
             200
100
AcDbLine
 10
0.9500000047684125
 20
0.5979763159612617
 30
0.0
 11
0.9500000047684125
 21
-0.0020236840387611
 31
0.0
  0
LINE
  5
494
100
AcDbEntity
  8
0
  6
CONTINUOUS
 62
             200
100
AcDbLine
 10
3.0500000047684352
 20
0.5979763159612617
 30
0.0
 11
3.0500000047684352
 21
-0.0020236840387611
 31
0.0
  0
LINE
  5
495
100
AcDbEntity
  8
0
  6
CONTINUOUS
 62
               4
100
AcDbLine
 10
0.7514285761969859
 20
0.397976315961273
 30
0.0
 11
3.2514285761969859
 21
0.397976315961273
 31
0.0
  0
LINE
  5
496
100
AcDbEntity
  8
0
  6
CONTINUOUS
 62
               4
100
AcDbLine
 10
3.0514285761969404
 20
0.5979763159612617
 30
0.0
 11
3.2514285761969859
 21
0.397976315961273
 31
0.0
  0
LINE
  5
497
100
AcDbEntity
  8
0
  6
CONTINUOUS
 62
               4
100
AcDbLine
 10
0.7514285761969859
 20
0.397976315961273
 30
0.0
 11
0.9514285761969745
 21
0.5979763159612617
 31
0.0
  0
LINE
  5
498
100
AcDbEntity
  8
0
  6
CONTINUOUS
 62
               4
100
AcDbLine
 10
3.2514285761969859
 20
0.397976315961273
 30
0.0
 11
3.2514285761969859
 21
-0.0020236840387611
 31
0.0
  0
LINE
  5
499
100
AcDbEntity
  8
0
  6
CONTINUOUS
 62
               4
100
AcDbLine
 10
0.7514285761969859
 20
-0.0020236840387611
 30
0.0
 11
0.7514285761969859
 21
0.397976315961273
 31
0.0
  0
LINE
  5
49A
100
AcDbEntity
  8
0
  6
CONTINUOUS
 62
             200
100
AcDbLine
 10
0.9500000047684125
 20
-2.602023684038727
 30
0.0
 11
0.9500000047684125
 21
-4.100595112610165
 31
0.0
  0
LINE
  5
49B
100
AcDbEntity
  8
0
  6
CONTINUOUS
 62
             200
100
AcDbLine
 10
3.0500000047684352
 20
-2.602023684038727
 30
0.0
 11
3.0500000047684352
 21
-4.1034522554673458
 31
0.0
  0
LINE
  5
49C
100
AcDbEntity
  8
0
  6
CONTINUOUS
 62
               4
100
AcDbLine
 10
0.9514285761969745
 20
0.5979763159612617
 30
0.0
 11
3.0514285761969404
 21
0.5979763159612617
 31
0.0
  0
LINE
  5
49D
100
AcDbEntity
  8
0
  6
CONTINUOUS
 62
               4
100
AcDbLine
 10
0.000000004768367
 20
-1.8020236840387724
 30
0.0
 11
0.000000004768367
 21
0.0
 31
0.0
  0
LINE
  5
49E
100
AcDbEntity
  8
0
  6
CONTINUOUS
 62
             200
100
AcDbLine
 10
2.000000004768367
 20
1.2843226271262438
 30
0.0
 11
2.000000004768367
 21
-6.1842448314454259
 31
0.0
  0
LINE
  5
49F
100
AcDbEntity
  8
0
  6
CONTINUOUS
 62
               4
100
AcDbLine
 10
4.000000004768367
 20
-1.8020236840387724
 30
0.0
 11
4.000000004768367
 21
-2.602023684038727
 31
0.0
  0
LINE
  5
4A0
100
AcDbEntity
  8
0
  6
CONTINUOUS
 62
               4
100
AcDbLine
 10
0.000000004768367
 20
-1.8020236840387724
 30
0.0
 11
0.000000004768367
 21
-2.602023684038727
 31
0.0
  0
LINE
  5
4A1
100
AcDbEntity
  8
0
  6
CONTINUOUS
 62
               4
100
AcDbLine
 10
0.7514285761969859
 20
-2.602023684038727
 30
0.0
 11
0.7514285761969859
 21
-3.9020236840387383
 31
0.0
  0
LINE
  5
4A2
100
AcDbEntity
  8
0
  6
CONTINUOUS
 62
             200
100
AcDbLine
 10
0.7514285761969859
 20
-3.9020236840387383
 30
0.0
 11
3.2514285761969859
 21
-3.9020236840387383
 31
0.0
  0
LINE
  5
4A3
100
AcDbEntity
  8
0
  6
CONTINUOUS
 62
               4
100
AcDbLine
 10
1.2514285761969859
 20
-4.4020236840387383
 30
0.0
 11
0.7514285761969859
 21
-3.9020236840387383
 31
0.0
  0
LINE
  5
4A4
100
AcDbEntity
  8
0
  6
CONTINUOUS
 62
               4
100
AcDbLine
 10
1.2514285761969859
 20
-4.4020236840387383
 30
0.0
 11
2.7514285761969859
 21
-4.4020236840387383
 31
0.0
  0
LINE
  5
4A5
100
AcDbEntity
  8
0
  6
CONTINUOUS
 62
               4
100
AcDbLine
 10
3.2514285761969859
 20
-3.9020236840387383
 30
0.0
 11
2.7514285761969859
 21
-4.4020236840387383
 31
0.0
  0
LINE
  5
4A6
100
AcDbEntity
  8
0
  6
CONTINUOUS
 62
               4
100
AcDbLine
 10
3.2514285761969859
 20
-2.602023684038727
 30
0.0
 11
3.2514285761969859
 21
-3.9020236840387383
 31
0.0
  0
LINE
  5
4A7
100
AcDbEntity
  8
0
  6
CONTINUOUS
 62
               4
100
AcDbLine
 10
4.3000000047684352
 20
-1.8000000000000114
 30
0.0
 11
4.3000000047684352
 21
-4.6000000000000227
 31
0.0
  0
LINE
  5
4A8
100
AcDbEntity
  8
0
  6
CONTINUOUS
 62
               4
100
AcDbLine
 10
15.000000004768367
 20
-4.6000000000000227
 30
0.0
 11
15.000000004768367
 21
4.897976315961273
 31
0.0
  0
LINE
  5
4A9
100
AcDbEntity
  8
0
  6
CONTINUOUS
 62
               4
100
AcDbLine
 10
11.200000004768413
 20
5.897976315961273
 30
0.0
 11
11.200000004768413
 21
8.1445121127279663
 31
0.0
  0
LINE
  5
4AA
100
AcDbEntity
  8
0
  6
CONTINUOUS
 62
               4
100
AcDbLine
 10
13.800000004768435
 20
5.897976315961273
 30
0.0
 11
13.800000004768435
 21
9.6456668471390685
 31
0.0
  0
LINE
  5
4AB
100
AcDbEntity
  8
0
  6
CONTINUOUS
 62
               4
100
AcDbLine
 10
4.3000000034060122
 20
-4.6000000000000227
 30
0.0
 11
15.0
 21
-4.6000000000000227
 31
0.0
  0
LINE
  5
4AC
100
AcDbEntity
  8
0
  6
CONTINUOUS
 62
               4
100
AcDbLine
 10
0.0
 20
0.0
 30
0.0
 11
15.0
 21
0.0
 31
0.0
  0
LINE
  5
4AD
100
AcDbEntity
  8
0
  6
CONTINUOUS
 62
               4
100
AcDbLine
 10
0.000000004768367
 20
-1.8000000000000114
 30
0.0
 11
4.3000000047684352
 21
-1.8000000000000114
 31
0.0
  0
LINE
  5
4AE
100
AcDbEntity
  8
0
  6
CONTINUOUS
 62
               4
100
AcDbLine
 10
0.0
 20
-2.6000000000000227
 30
0.0
 11
4.0
 21
-2.6000000000000227
 31
0.0
  0
LINE
  5
4AF
100
AcDbEntity
  8
0
  6
CONTINUOUS
 62
               4
100
AcDbLine
 10
0.0
 20
-1.1000000082564156
 30
0.0
 11
15.0
 21
-1.1000000082564156
 31
0.0
  0
LINE
  5
4B0
100
AcDbEntity
  8
0
  6
CONTINUOUS
 62
               4
100
AcDbLine
 10
0.0
 20
-0.5500000000000114
 30
0.0
 11
15.000000004768367
 21
-0.5500000000000114
 31
0.0
  0
LINE
  5
4B1
100
AcDbEntity
  8
0
  6
CONTINUOUS
 62
               4
100
AcDbLine
 10
10.399999993188089
 20
0.9479762301305641
 30
0.0
 11
15.0
 21
0.9479762301305641
 31
0.0
  0
LINE
  5
4B2
100
AcDbEntity
  8
0
  6
CONTINUOUS
 62
               4
100
AcDbLine
 10
10.400000010217923
 20
1.4979762335365194
 30
0.0
 11
15.000000004768367
 21
1.4979762335365194
 31
0.0
  0
ENDBLK
  5
4B3
100
AcDbEntity
  8
0
100
AcDbBlockEnd
  0
BLOCK
  5
4B4
100
AcDbEntity
  8
0
100
AcDbBlockBegin
  2
RAG20-SS2-20
 70
               0
 10
0.0
 20
0.0
 30
0.0
  3
RAG20-SS2-20
  1

  0
ARC
  5
4B5
100
AcDbEntity
  8
0
  6
CONTINUOUS
 62
               4
100
AcDbCircle
 10
0.0
 20
-2.5500000000000114
 30
0.0
 40
2.0500000000000114
100
AcDbArc
 50
192.68038349182106
 51
347.31961650817891
  0
LINE
  5
4B6
100
AcDbEntity
  8
0
  6
CONTINUOUS
 62
               4
100
AcDbLine
 10
2.0
 20
1.4479762320920599
 30
0.0
 11
2.0
 21
5.8979762296661988
 31
0.0
  0
LINE
  5
4B7
100
AcDbEntity
  8
0
  6
CONTINUOUS
 62
               4
100
AcDbLine
 10
-2.0
 20
1.4479762281690114
 30
0.0
 11
-2.0
 21
5.8979762296661988
 31
0.0
  0
LINE
  5
4B8
100
AcDbEntity
  8
0
  6
CONTINUOUS
 62
               4
100
AcDbLine
 10
2.0
 20
-3.0000000000000568
 30
0.0
 11
2.0
 21
-1.0500000000000114
 31
0.0
  0
LINE
  5
4B9
100
AcDbEntity
  8
0
  6
CONTINUOUS
 62
               4
100
AcDbLine
 10
-2.0
 20
-3.0000000000000568
 30
0.0
 11
-2.0
 21
-1.0537974914318511
 31
0.0
  0
LINE
  5
4BA
100
AcDbEntity
  8
0
  6
CONTINUOUS
 62
             200
100
AcDbLine
 10
-1.3000000000000114
 20
8.1445120264329489
 30
0.0
 11
1.3000000000000114
 21
9.6456667608440512
 31
0.0
  0
LINE
  5
4BB
100
AcDbEntity
  8
0
  6
CONTINUOUS
 62
               4
100
AcDbLine
 10
-2.0
 20
5.8979762296661988
 30
0.0
 11
2.0
 21
5.8979762296661988
 31
0.0
  0
LINE
  5
4BC
100
AcDbEntity
  8
0
  6
CONTINUOUS
 62
               4
100
AcDbLine
 10
-2.0
 20
3.8979762296661988
 30
0.0
 11
2.0
 21
3.8979762296661988
 31
0.0
  0
LINE
  5
4BD
100
AcDbEntity
  8
0
  6
CONTINUOUS
 62
               4
100
AcDbLine
 10
-1.0500000000000114
 20
0.5979763159612617
 30
0.0
 11
1.0499999999999829
 21
0.5979763159612617
 31
0.0
  0
LINE
  5
4BE
100
AcDbEntity
  8
0
  6
CONTINUOUS
 62
               4
100
AcDbLine
 10
-1.25
 20
0.397976315961273
 30
0.0
 11
-1.0500000000000114
 21
0.5979763159612617
 31
0.0
  0
LINE
  5
4BF
100
AcDbEntity
  8
0
  6
CONTINUOUS
 62
               4
100
AcDbLine
 10
1.0499999999999829
 20
0.5979763159612617
 30
0.0
 11
1.25
 21
0.397976315961273
 31
0.0
  0
LINE
  5
4C0
100
AcDbEntity
  8
0
  6
CONTINUOUS
 62
               4
100
AcDbLine
 10
-1.25
 20
0.397976315961273
 30
0.0
 11
1.25
 21
0.397976315961273
 31
0.0
  0
LINE
  5
4C1
100
AcDbEntity
  8
0
  6
CONTINUOUS
 62
               4
100
AcDbLine
 10
1.25
 20
0.397976315961273
 30
0.0
 11
1.25
 21
0.0
 31
0.0
  0
LINE
  5
4C2
100
AcDbEntity
  8
0
  6
CONTINUOUS
 62
               4
100
AcDbLine
 10
-1.25
 20
0.0
 30
0.0
 11
-1.25
 21
0.397976315961273
 31
0.0
  0
LINE
  5
4C3
100
AcDbEntity
  8
0
  6
CONTINUOUS
 62
               4
100
AcDbLine
 10
-2.0
 20
-1.0537974914318511
 30
0.0
 11
-1.5
 21
-0.5511933247652223
 31
0.0
  0
LINE
  5
4C4
100
AcDbEntity
  8
0
  6
CONTINUOUS
 62
               4
100
AcDbLine
 10
2.0
 20
-1.0500000000000114
 30
0.0
 11
1.5
 21
-0.5500000000000114
 31
0.0
  0
LINE
  5
4C5
100
AcDbEntity
  8
0
  6
CONTINUOUS
 62
               4
100
AcDbLine
 10
1.25
 20
-2.6000000000000227
 30
0.0
 11
1.25
 21
-3.8991665411816143
 31
0.0
  0
LINE
  5
4C6
100
AcDbEntity
  8
0
  6
CONTINUOUS
 62
               4
100
AcDbLine
 10
-1.25
 20
-2.6000000000000227
 30
0.0
 11
-1.25
 21
-3.8991665411816143
 31
0.0
  0
LINE
  5
4C7
100
AcDbEntity
  8
0
  6
CONTINUOUS
 62
               4
100
AcDbLine
 10
-1.25
 20
-3.8991665411816143
 30
0.0
 11
1.25
 21
-3.8991665411816143
 31
0.0
  0
LINE
  5
4C8
100
AcDbEntity
  8
0
  6
CONTINUOUS
 62
               4
100
AcDbLine
 10
1.25
 20
-3.8991665411816143
 30
0.0
 11
0.7471428571428476
 21
-4.4020236840387383
 31
0.0
  0
LINE
  5
4C9
100
AcDbEntity
  8
0
  6
CONTINUOUS
 62
               4
100
AcDbLine
 10
-0.7471428571428476
 20
-4.4020236840387383
 30
0.0
 11
-1.25
 21
-3.8991665411816143
 31
0.0
  0
LINE
  5
4CA
100
AcDbEntity
  8
0
  6
CONTINUOUS
 62
               4
100
AcDbLine
 10
-0.7471428571428476
 20
-4.4020236840387383
 30
0.0
 11
0.7471428571428476
 21
-4.4020236840387383
 31
0.0
  0
LINE
  5
4CB
100
AcDbEntity
  8
0
  6
CONTINUOUS
 62
               4
100
AcDbLine
 10
1.5
 20
0.9479762320920599
 30
0.0
 11
2.0
 21
1.4479762320920599
 31
0.0
  0
LINE
  5
4CC
100
AcDbEntity
  8
0
  6
CONTINUOUS
 62
               4
100
AcDbLine
 10
-2.0
 20
1.4479762281690114
 30
0.0
 11
-1.5
 21
0.9479762281690114
 31
0.0
  0
LINE
  5
4CD
100
AcDbEntity
  8
0
  6
CONTINUOUS
 62
               4
100
AcDbLine
 10
-1.5
 20
-0.5511933238986444
 30
0.0
 11
-1.5
 21
0.9479762301305641
 31
0.0
  0
LINE
  5
4CE
100
AcDbEntity
  8
0
  6
CONTINUOUS
 62
               4
100
AcDbLine
 10
1.5
 20
-0.5500000048504035
 30
0.0
 11
1.5
 21
0.9479762301305641
 31
0.0
  0
LINE
  5
4CF
100
AcDbEntity
  8
0
  6
CONTINUOUS
 62
               4
100
AcDbLine
 10
-1.5000000019615243
 20
0.0
 30
0.0
 11
1.4999999980384757
 21
0.0
 31
0.0
  0
LINE
  5
4D0
100
AcDbEntity
  8
0
  6
CONTINUOUS
 62
               4
100
AcDbLine
 10
-2.0
 20
-1.8000000000000114
 30
0.0
 11
2.0
 21
-1.8000000000000114
 31
0.0
  0
LINE
  5
4D1
100
AcDbEntity
  8
0
  6
CONTINUOUS
 62
               4
100
AcDbLine
 10
-2.0
 20
-2.6000000000000227
 30
0.0
 11
2.0
 21
-2.6000000000000227
 31
0.0
  0
LINE
  5
4D2
100
AcDbEntity
  8
0
  6
CONTINUOUS
 62
               4
100
AcDbLine
 10
-1.3000000000000114
 20
5.8979762296661988
 30
0.0
 11
-1.3000000000000114
 21
8.1445120264329489
 31
0.0
  0
LINE
  5
4D3
100
AcDbEntity
  8
0
  6
CONTINUOUS
 62
               4
100
AcDbLine
 10
1.2999999999999829
 20
5.8979762296661988
 30
0.0
 11
1.2999999999999829
 21
9.6456667608439943
 31
0.0
  0
LINE
  5
4D4
100
AcDbEntity
  8
0
  6
CONTINUOUS
 62
             200
100
AcDbLine
 10
0.0
 20
-6.1842448314454259
 30
0.0
 11
0.0
 21
11.380814644204406
 31
0.0
  0
LINE
  5
4D5
100
AcDbEntity
  8
0
  6
CONTINUOUS
 62
             200
100
AcDbLine
 10
-1.0250000000000057
 20
-4.1241665411815802
 30
0.0
 11
-1.0250000000000057
 21
-2.6000000000000227
 31
0.0
  0
LINE
  5
4D6
100
AcDbEntity
  8
0
  6
CONTINUOUS
 62
             200
100
AcDbLine
 10
1.0250000000000057
 20
-4.1241665411815802
 30
0.0
 11
1.0250000000000057
 21
-2.6000000000000227
 31
0.0
  0
LINE
  5
4D7
100
AcDbEntity
  8
0
  6
CONTINUOUS
 62
             200
100
AcDbLine
 10
1.0250000000000057
 20
-0.0000000014444481
 30
0.0
 11
1.0250000000000057
 21
0.5979763159612617
 31
0.0
  0
LINE
  5
4D8
100
AcDbEntity
  8
0
  6
CONTINUOUS
 62
             200
100
AcDbLine
 10
-1.0250000000000057
 20
-0.0000000014444481
 30
0.0
 11
-1.0250000000000057
 21
0.5979763159612617
 31
0.0
  0
ENDBLK
  5
4D9
100
AcDbEntity
  8
0
100
AcDbBlockEnd
  0
BLOCK
  5
4DA
100
AcDbEntity
  8
0
100
AcDbBlockBegin
  2
RAG20-SS2-21
 70
               0
 10
0.0
 20
0.0
 30
0.0
  3
RAG20-SS2-21
  1

  0
LINE
  5
4DB
100
AcDbEntity
  8
0
  6
CONTINUOUS
 62
               4
100
AcDbLine
 10
2.0
 20
4.8979762296662273
 30
0.0
 11
-2.0
 21
4.8979762296662273
 31
0.0
  0
LINE
  5
4DC
100
AcDbEntity
  8
0
  6
CONTINUOUS
 62
             200
100
AcDbLine
 10
-1.3000000000000114
 20
8.1445120264329773
 30
0.0
 11
1.3000000000000114
 21
9.6456667608440796
 31
0.0
  0
LINE
  5
4DD
100
AcDbEntity
  8
0
  6
CONTINUOUS
 62
             200
100
AcDbLine
 10
0.0
 20
-6.1842448314453975
 30
0.0
 11
0.0
 21
11.380814644204435
 31
0.0
  0
LINE
  5
4DE
100
AcDbEntity
  8
0
  6
CONTINUOUS
 62
               4
100
AcDbLine
 10
-1.3000000000000114
 20
5.8979762296662273
 30
0.0
 11
-1.3000000000000114
 21
8.1445120264329773
 31
0.0
  0
LINE
  5
4DF
100
AcDbEntity
  8
0
  6
CONTINUOUS
 62
               4
100
AcDbLine
 10
1.3000000000000114
 20
5.8979762296662273
 30
0.0
 11
1.3000000000000114
 21
9.6456667608440796
 31
0.0
  0
LINE
  5
4E0
100
AcDbEntity
  8
0
  6
CONTINUOUS
 62
               4
100
AcDbLine
 10
-1.5
 20
-0.550000004850375
 30
0.0
 11
-1.5
 21
0.9479762301305925
 31
0.0
  0
LINE
  5
4E1
100
AcDbEntity
  8
0
  6
CONTINUOUS
 62
               4
100
AcDbLine
 10
1.5
 20
-0.551193323898616
 30
0.0
 11
1.5
 21
0.9479762301305925
 31
0.0
  0
LINE
  5
4E2
100
AcDbEntity
  8
0
  6
CONTINUOUS
 62
               4
100
AcDbLine
 10
2.0
 20
1.4479762281690398
 30
0.0
 11
1.5
 21
0.9479762281690398
 31
0.0
  0
LINE
  5
4E3
100
AcDbEntity
  8
0
  6
CONTINUOUS
 62
               4
100
AcDbLine
 10
-1.5
 20
0.9479762320920884
 30
0.0
 11
-2.0
 21
1.4479762320920884
 31
0.0
  0
LINE
  5
4E4
100
AcDbEntity
  8
0
  6
CONTINUOUS
 62
               4
100
AcDbLine
 10
-2.0
 20
-1.0499999999999829
 30
0.0
 11
-1.5
 21
-0.549999999999983
 31
0.0
  0
LINE
  5
4E5
100
AcDbEntity
  8
0
  6
CONTINUOUS
 62
               4
100
AcDbLine
 10
2.0
 20
-1.0537974914318227
 30
0.0
 11
1.5
 21
-0.5511933247651939
 31
0.0
  0
LINE
  5
4E6
100
AcDbEntity
  8
0
  6
CONTINUOUS
 62
               4
100
AcDbLine
 10
2.0
 20
3.8979762296662273
 30
0.0
 11
-2.0
 21
3.8979762296662273
 31
0.0
  0
LINE
  5
4E7
100
AcDbEntity
  8
0
  6
CONTINUOUS
 62
               4
100
AcDbLine
 10
2.0
 20
5.8979762296662273
 30
0.0
 11
-2.0
 21
5.8979762296662273
 31
0.0
  0
LINE
  5
4E8
100
AcDbEntity
  8
0
  6
CONTINUOUS
 62
               4
100
AcDbLine
 10
2.0
 20
-3.0000000000000284
 30
0.0
 11
2.0
 21
-1.0537974914318227
 31
0.0
  0
LINE
  5
4E9
100
AcDbEntity
  8
0
  6
CONTINUOUS
 62
               4
100
AcDbLine
 10
-2.0
 20
-3.0000000000000284
 30
0.0
 11
-2.0
 21
-1.0499999999999829
 31
0.0
  0
LINE
  5
4EA
100
AcDbEntity
  8
0
  6
CONTINUOUS
 62
               4
100
AcDbLine
 10
2.0
 20
1.4479762281690398
 30
0.0
 11
2.0
 21
5.8979762296662273
 31
0.0
  0
LINE
  5
4EB
100
AcDbEntity
  8
0
  6
CONTINUOUS
 62
               4
100
AcDbLine
 10
-2.0
 20
1.4479762320920884
 30
0.0
 11
-2.0
 21
5.8979762296662273
 31
0.0
  0
ARC
  5
4EC
100
AcDbEntity
  8
0
  6
CONTINUOUS
 62
               4
100
AcDbCircle
 10
0.0
 20
-2.5499999999999829
 30
0.0
 40
2.0500000000000114
100
AcDbArc
 50
192.68038349182106
 51
347.31961650817891
  0
ENDBLK
  5
4ED
100
AcDbEntity
  8
0
100
AcDbBlockEnd
  0
BLOCK
  5
4EE
100
AcDbEntity
  8
0
100
AcDbBlockBegin
  2
RAG20-SS2-22
 70
               0
 10
0.0
 20
0.0
 30
0.0
  3
RAG20-SS2-22
  1

  0
LINE
  5
4EF
100
AcDbEntity
  8
0
  6
CONTINUOUS
 62
               4
100
AcDbLine
 10
0.0
 20
-2.0
 30
0.0
 11
15.0
 21
-2.0
 31
0.0
  0
LINE
  5
4F0
100
AcDbEntity
  8
0
  6
CONTINUOUS
 62
               4
100
AcDbLine
 10
0.0
 20
2.0
 30
0.0
 11
15.0
 21
2.0
 31
0.0
  0
CIRCLE
  5
4F1
100
AcDbEntity
  8
0
  6
CONTINUOUS
 62
               4
100
AcDbCircle
 10
12.5
 20
0.0
 30
0.0
 40
1.3
  0
ARC
  5
4F2
100
AcDbEntity
  8
0
  6
CONTINUOUS
 62
               4
100
AcDbCircle
 10
12.5
 20
0.0
 30
0.0
 40
2.1000000000000001
100
AcDbArc
 50
287.75279016194662
 51
72.247209838053379
  0
ARC
  5
4F3
100
AcDbEntity
  8
0
  6
CONTINUOUS
 62
               4
100
AcDbCircle
 10
12.5
 20
0.0
 30
0.0
 40
2.1000000000000001
100
AcDbArc
 50
107.75279016194661
 51
252.24720983805338
  0
LINE
  5
4F4
100
AcDbEntity
  8
0
  6
CONTINUOUS
 62
               4
100
AcDbLine
 10
0.0
 20
1.5
 30
0.0
 11
11.030306154330106
 21
1.5
 31
0.0
  0
LINE
  5
4F5
100
AcDbEntity
  8
0
  6
CONTINUOUS
 62
               4
100
AcDbLine
 10
0.0
 20
2.0
 30
0.0
 11
0.0
 21
-2.0
 31
0.0
  0
LINE
  5
4F6
100
AcDbEntity
  8
0
  6
CONTINUOUS
 62
               4
100
AcDbLine
 10
15.0
 20
2.0
 30
0.0
 11
15.0
 21
-2.0
 31
0.0
  0
LINE
  5
4F7
100
AcDbEntity
  8
0
  6
CONTINUOUS
 62
             200
100
AcDbLine
 10
2.0
 20
2.834285714285727
 30
0.0
 11
2.0
 21
-3.35141324485204
 31
0.0
  0
LINE
  5
4F8
100
AcDbEntity
  8
0
  6
CONTINUOUS
 62
               4
100
AcDbLine
 10
0.9571428571429124
 20
-0.7142857142857224
 30
0.0
 11
2.6885714285714357
 21
1.0199999999999818
 31
0.0
  0
LINE
  5
4F9
100
AcDbEntity
  8
0
  6
CONTINUOUS
 62
               4
100
AcDbLine
 10
1.3085714285714403
 20
-1.0685714285714312
 30
0.0
 11
3.0519930369715098
 21
0.6748501798286384
 31
0.0
  0
LINE
  5
4FA
100
AcDbEntity
  8
0
  6
CONTINUOUS
 62
               4
100
AcDbLine
 10
3.9000000000000341
 20
-1.5028571503502803
 30
0.0
 11
3.9000000000000341
 21
1.5000000068119448
 31
0.0
  0
LINE
  5
4FB
100
AcDbEntity
  8
0
  6
CONTINUOUS
 62
               4
100
AcDbLine
 10
10.400000000000034
 20
-1.5028571503502803
 30
0.0
 11
10.400000000000034
 21
1.5000000068119448
 31
0.0
  0
LINE
  5
4FC
100
AcDbEntity
  8
0
  6
CONTINUOUS
 62
               4
100
AcDbLine
 10
8.0
 20
-0.7000000068119334
 30
0.0
 11
8.0
 21
0.8999999999999773
 31
0.0
  0
LINE
  5
4FD
100
AcDbEntity
  8
0
  6
CONTINUOUS
 62
               4
100
AcDbLine
 10
9.6000000000000227
 20
-0.7000000068119334
 30
0.0
 11
9.6000000000000227
 21
0.8999999999999773
 31
0.0
  0
LINE
  5
4FE
100
AcDbEntity
  8
0
  6
CONTINUOUS
 62
               4
100
AcDbLine
 10
8.0
 20
0.8999999999999773
 30
0.0
 11
9.6000000000000227
 21
0.8999999999999773
 31
0.0
  0
LINE
  5
4FF
100
AcDbEntity
  8
0
  6
CONTINUOUS
 62
               4
100
AcDbLine
 10
8.0
 20
-0.6999999999999886
 30
0.0
 11
9.6000000000000227
 21
-0.6999999999999886
 31
0.0
  0
LINE
  5
500
100
AcDbEntity
  8
0
  6
CONTINUOUS
 62
               4
100
AcDbLine
 10
0.0
 20
-1.5
 30
0.0
 11
11.030306154330106
 21
-1.5
 31
0.0
  0
CIRCLE
  5
501
100
AcDbEntity
  8
0
  6
CONTINUOUS
 62
               4
100
AcDbCircle
 10
2.0
 20
0.0
 30
0.0
 40
1.3999999999999997
  0
CIRCLE
  5
502
100
AcDbEntity
  8
0
  6
CONTINUOUS
 62
             200
100
AcDbCircle
 10
2.0
 20
0.0
 30
0.0
 40
1.05
  0
CIRCLE
  5
503
100
AcDbEntity
  8
0
  6
CONTINUOUS
 62
               4
100
AcDbCircle
 10
2.0
 20
0.0
 30
0.0
 40
1.25
  0
CIRCLE
  5
504
100
AcDbEntity
  8
0
  6
CONTINUOUS
 62
               4
100
AcDbCircle
 10
13.150000002724823
 20
0.0
 30
0.0
 40
0.5
  0
CIRCLE
  5
505
100
AcDbEntity
  8
0
  6
CONTINUOUS
 62
               4
100
AcDbCircle
 10
11.84999999727529
 20
0.0
 30
0.0
 40
0.5
  0
CIRCLE
  5
506
100
AcDbEntity
  8
0
  6
CONTINUOUS
 62
               4
100
AcDbCircle
 10
13.150000002724823
 20
0.0
 30
0.0
 40
0.29
  0
CIRCLE
  5
507
100
AcDbEntity
  8
0
  6
CONTINUOUS
 62
               4
100
AcDbCircle
 10
11.84999999727529
 20
0.0
 30
0.0
 40
0.29
  0
LINE
  5
508
100
AcDbEntity
  8
0
  6
CONTINUOUS
 62
             200
100
AcDbLine
 10
-2.9259109009290682
 20
0.0
 30
0.0
 11
17.074089099070932
 21
0.0
 31
0.0
  0
ENDBLK
  5
509
100
AcDbEntity
  8
0
100
AcDbBlockEnd
  0
ENDSEC
  0
SECTION
  2
ENTITIES
  0
INSERT
  5
50A
100
AcDbEntity
  8
0
  6
ByBlock
100
AcDbBlockReference
  2
RAG20-SS2-22
 10
280.0
 20
-180.0
 30
0.0
  0
INSERT
  5
50B
100
AcDbEntity
  8
0
  6
ByBlock
100
AcDbBlockReference
  2
RAG20-SS2-21
 10
360.0
 20
-230.0
 30
0.0
  0
INSERT
  5
50C
100
AcDbEntity
  8
0
  6
ByBlock
100
AcDbBlockReference
  2
RAG20-SS2-20
 10
220.0
 20
-230.0
 30
0.0
  0
INSERT
  5
50D
100
AcDbEntity
  8
0
  6
ByBlock
100
AcDbBlockReference
  2
RAG20-SS2-19
 10
280.00000000476837
 20
-230.0
 30
0.0
  0
INSERT
  5
50E
100
AcDbEntity
  8
0
  6
ByBlock
100
AcDbBlockReference
  2
RAG20-SS2-18
 10
80.0
 20
-190.0
 30
0.0
  0
INSERT
  5
50F
100
AcDbEntity
  8
0
  6
ByBlock
100
AcDbBlockReference
  2
RAG20-SS2-17
 10
160.0
 20
-240.0
 30
0.0
 50
359.99999989592072
  0
INSERT
  5
510
100
AcDbEntity
  8
0
  6
ByBlock
100
AcDbBlockReference
  2
RAG20-SS2-16
 10
30.0
 20
-240.0
 30
0.0
 50
359.99999989592072
  0
INSERT
  5
511
100
AcDbEntity
  8
0
  6
ByBlock
100
AcDbBlockReference
  2
RAG20-SS2-15
 10
79.999999995231619
 20
-240.0
 30
0.0
  0
INSERT
  5
512
100
AcDbEntity
  8
0
  6
ByBlock
100
AcDbBlockReference
  2
RAG20-SS2-14
 10
-120.0
 20
-190.0
 30
0.0
  0
INSERT
  5
513
100
AcDbEntity
  8
0
  6
ByBlock
100
AcDbBlockReference
  2
RAG20-SS2-13
 10
-40.0
 20
-240.0
 30
0.0
 50
360.0
  0
INSERT
  5
514
100
AcDbEntity
  8
0
  6
ByBlock
100
AcDbBlockReference
  2
RAG20-SS2-12
 10
-170.0
 20
-240.0
 30
0.0
  0
INSERT
  5
515
100
AcDbEntity
  8
0
  6
ByBlock
100
AcDbBlockReference
  2
RAG20-SS2-11
 10
-120.0
 20
-240.0
 30
0.0
 50
360.0
  0
INSERT
  5
516
100
AcDbEntity
  8
0
  6
ByBlock
100
AcDbBlockReference
  2
RAG20-SS2-10
 10
-320.0
 20
-190.0
 30
0.0
  0
INSERT
  5
517
100
AcDbEntity
  8
0
  6
ByBlock
100
AcDbBlockReference
  2
RAG20-SS2-9
 10
-240.0
 20
-240.0
 30
0.0
  0
INSERT
  5
518
100
AcDbEntity
  8
0
  6
ByBlock
100
AcDbBlockReference
  2
RAG20-SS2-8
 10
-370.0
 20
-240.0
 30
0.0
  0
INSERT
  5
519
100
AcDbEntity
  8
0
  6
ByBlock
100
AcDbBlockReference
  2
RAG20-SS2-7
 10
-320.0
 20
-240.0
 30
0.0
  0
INSERT
  5
51A
100
AcDbEntity
  8
0
  6
ByBlock
100
AcDbBlockReference
  2
RAG20-SS2-6
 10
250.0
 20
116.0
 30
0.0
  0
INSERT
  5
51B
100
AcDbEntity
  8
0
  6
ByBlock
100
AcDbBlockReference
  2
RAG20-SS2-5
 10
-69.999999999999972
 20
-100.00000000000023
 30
0.0
  0
INSERT
  5
51C
100
AcDbEntity
  8
0
  6
ByBlock
100
AcDbBlockReference
  2
RAG20-SS2-4
 10
-70.0
 20
210.0
 30
0.0
  0
INSERT
  5
51D
100
AcDbEntity
  8
0
  6
ByBlock
100
AcDbBlockReference
  2
RAG20-SS2-3
 10
90.0
 20
116.0
 30
0.0
  0
INSERT
  5
51E
100
AcDbEntity
  8
0
  6
ByBlock
100
AcDbBlockReference
  2
RAG20-SS2-2
 10
-230.0
 20
116.0
 30
0.0
  0
INSERT
  5
51F
100
AcDbEntity
  8
0
  6
ByBlock
100
AcDbBlockReference
  2
RAG20-SS2-1
 10
-70.0
 20
116.0
 30
0.0
  0
MTEXT
  5
520
100
AcDbEntity
  8
0
  6
CONTINUOUS
 62
               7
100
AcDbMText
 10
-328.48541779865383
 20
200.98598123215012
 30
0.0
 40
9.0
 41
0.0
 71
               4
 72
               1
  1
\W1.026;\A1;RAGS20-90-SS2
  0
MTEXT
  5
521
100
AcDbEntity
  8
0
  6
CONTINUOUS
 62
               7
100
AcDbMText
 10
-328.44381039524797
 20
215.98598123215012
 30
0.0
 40
9.0
 41
0.0
 71
               4
 72
               1
  1
\W1.054;\A1;RAG20-180-SS2
  0
MTEXT
  5
522
100
AcDbEntity
  8
0
  6
CONTINUOUS
 62
               7
100
AcDbMText
 10
-328.44989147781791
 20
185.98598123215012
 30
0.0
 40
9.0
 41
0.0
 71
               4
 72
               1
  1
\W1.050;\A1;RAGS20-180-SS2
  0
MTEXT
  5
523
100
AcDbEntity
  8
0
  6
CONTINUOUS
 62
               7
100
AcDbMText
 10
-382.43666766393142
 20
231.5
 30
0.0
 40
9.0
 41
0.0
 71
               4
 72
               1
  1
\W1.059;\A1;MODEL:RAG20-90-SS2
  0
MTEXT
  5
524
100
AcDbEntity
  8
0
  6
CONTINUOUS
 62
               7
100
AcDbMText
 10
5.2827995342642122
 20
-164.06517788061635
 30
0.0
 40
6.3000001907348633
 41
0.0
 71
               1
 72
               1
  1
\W1.071;\A1;ZE135
  0
MTEXT
  5
525
100
AcDbEntity
  8
0
  6
CONTINUOUS
 62
               7
100
AcDbMText
 10
5.2827995342642122
 20
-171.00824058216446
 30
0.0
 40
6.3000001907348633
 41
0.0
 71
               1
 72
               1
  1
\W1.071;\A1;ZE155
  0
MTEXT
  5
526
100
AcDbEntity
  8
0
  6
CONTINUOUS
 62
               7
100
AcDbMText
 10
-195.8003696140162
 20
-162.89111220400738
 30
0.0
 40
6.3000001907348633
 41
0.0
 71
               1
 72
               1
  1
\W1.111;\A1;ZE201
  0
MTEXT
  5
527
100
AcDbEntity
  8
0
  6
CONTINUOUS
 62
               7
100
AcDbMText
 10
-195.88082938210206
 20
-169.8341749055555
 30
0.0
 40
6.3000001907348633
 41
0.0
 71
               1
 72
               1
  1
\W1.034;\A1;ZE202
  0
MTEXT
  5
528
100
AcDbEntity
  8
0
  6
CONTINUOUS
 62
               7
100
AcDbMText
 10
204.11812022257519
 20
-163.61154184334794
 30
0.0
 40
6.3000001907348633
 41
0.0
 71
               1
 72
               1
  1
\A1;ZE235
  0
MTEXT
  5
529
100
AcDbEntity
  8
0
  6
CONTINUOUS
 62
               7
100
AcDbMText
 10
204.11812022257519
 20
-170.55460454489605
 30
0.0
 40
6.3000001907348633
 41
0.0
 71
               1
 72
               1
  1
\A1;ZE255
  0
LINE
  5
52A
100
AcDbEntity
  8
0
  6
CONTINUOUS
 62
               7
100
AcDbLine
 10
200.0
 20
-160.0
 30
0.0
 11
200.0
 21
-276.5
 31
0.0
  0
LINE
  5
52B
100
AcDbEntity
  8
0
  6
CONTINUOUS
 62
               7
100
AcDbLine
 10
0.0
 20
-160.0
 30
0.0
 11
0.0
 21
-276.5
 31
0.0
  0
MTEXT
  5
52C
100
AcDbEntity
  8
0
  6
CONTINUOUS
 62
               7
100
AcDbMText
 10
-395.58097061321467
 20
-169.6989098012267
 30
0.0
 40
6.3000001907348633
 41
0.0
 71
               1
 72
               1
  1
\W1.111;\A1;ZE102
  0
MTEXT
  5
52D
100
AcDbEntity
  8
0
  6
CONTINUOUS
 62
               7
100
AcDbMText
 10
-395.4876372830638
 20
-162.75584709967859
 30
0.0
 40
6.3000001907348633
 41
0.0
 71
               1
 72
               1
  1
\W1.200;\A1;ZE101
  0
LINE
  5
52E
100
AcDbEntity
  8
0
  6
CONTINUOUS
 62
               7
100
AcDbLine
 10
-200.237548828125
 20
-160.0
 30
0.0
 11
-200.237548828125
 21
-276.5
 31
0.0
  0
LINE
  5
52F
100
AcDbEntity
  8
0
  6
CONTINUOUS
 62
               7
100
AcDbLine
 10
-399.52490234375
 20
-160.0
 30
0.0
 11
399.52490234375
 21
-160.0
 31
0.0
  0
MTEXT
  5
530
100
AcDbEntity
  8
0
  6
CONTINUOUS
 62
               7
100
AcDbMText
 10
-358.61536602073977
 20
259.04479804161565
 30
0.0
 40
9.0
 41
0.0
 71
               4
 72
               1
  1
\W1.019;\A1;RAG20-SS2
  0
LINE
  5
531
100
AcDbEntity
  8
0
  6
CONTINUOUS
 62
               7
100
AcDbLine
 10
-239.52490234375
 20
251.5
 30
0.0
 11
-239.52490234375
 21
276.5
 31
0.0
  0
MTEXT
  5
532
100
AcDbEntity
  8
0
  6
CONTINUOUS
 62
               7
100
AcDbMText
 10
-385.60257773989326
 20
269.04479804161565
 30
0.0
 40
9.0
 41
0.0
 71
               4
 72
               1
  1
\W1.027;\A1;ROTARY ACTUATOR
  0
LINE
  5
533
100
AcDbEntity
  8
0
  6
CONTINUOUS
 62
               7
100
AcDbLine
 10
-239.52490234375
 20
251.5
 30
0.0
 11
-399.52490234375
 21
251.5
 31
0.0
  0
LINE
  5
534
100
AcDbEntity
  8
0
  6
CONTINUOUS
 62
               7
100
AcDbLine
 10
239.52490234375
 20
-251.5
 30
0.0
 11
239.52490234375
 21
-276.5
 31
0.0
  0
LINE
  5
535
100
AcDbEntity
  8
0
  6
CONTINUOUS
 62
               7
100
AcDbLine
 10
239.52490234375
 20
-251.5
 30
0.0
 11
399.52490234375
 21
-251.5
 31
0.0
  0
LINE
  5
536
100
AcDbEntity
  8
0
  6
CONTINUOUS
 62
               7
100
AcDbLine
 10
239.52490234375
 20
251.5
 30
0.0
 11
239.52490234375
 21
276.5
 31
0.0
  0
LINE
  5
537
100
AcDbEntity
  8
0
  6
CONTINUOUS
 62
               7
100
AcDbLine
 10
239.52490234375
 20
251.5
 30
0.0
 11
399.52490234375
 21
251.5
 31
0.0
  0
MTEXT
  5
538
100
AcDbEntity
  8
0
  6
CONTINUOUS
 62
               7
100
AcDbMText
 10
245.60966041118564
 20
-264.0
 30
0.0
 40
12.5
 41
0.0
 71
               4
 72
               1
  1
\W1.121;\A1;KOGANEI CORP.
  0
MTEXT
  5
539
100
AcDbEntity
  8
0
  6
CONTINUOUS
 62
               7
100
AcDbMText
 10
285.49210822679424
 20
264.0
 30
0.0
 40
9.0
 41
0.0
 71
               4
 72
               1
  1
\W1.311;\A1;Ver. 1.0
  0
LINE
  5
53A
100
AcDbEntity
  8
0
  6
CONTINUOUS
 62
               7
100
AcDbLine
 10
-399.52490234375
 20
-276.5
 30
0.0
 11
399.52490234375
 21
-276.5
 31
0.0
  0
LINE
  5
53B
100
AcDbEntity
  8
0
  6
CONTINUOUS
 62
               7
100
AcDbLine
 10
-399.52490234375
 20
276.5
 30
0.0
 11
399.52490234375
 21
276.5
 31
0.0
  0
LINE
  5
53C
100
AcDbEntity
  8
0
  6
CONTINUOUS
 62
               7
100
AcDbLine
 10
-399.52490234375
 20
276.5
 30
0.0
 11
-399.52490234375
 21
-276.5
 31
0.0
  0
LINE
  5
53D
100
AcDbEntity
  8
0
  6
CONTINUOUS
 62
               7
100
AcDbLine
 10
399.52490234375
 20
276.5
 30
0.0
 11
399.52490234375
 21
-276.5
 31
0.0
  0
ENDSEC
  0
SECTION
  2
OBJECTS
  0
DICTIONARY
  5
19
100
AcDbDictionary
  3
ACAD_GROUP
350
1A
  3
ACAD_MLINESTYLE
350
1B
  0
DICTIONARY
  5
1A
102
{ACAD_REACTORS
330
19
102
}
100
AcDbDictionary
  0
DICTIONARY
  5
1B
102
{ACAD_REACTORS
330
19
102
}
100
AcDbDictionary
  3
STANDARD
350
1C
  0
MLINESTYLE
  5
1C
102
{ACAD_REACTORS
330
1B
102
}
100
AcDbMlineStyle
  2
Standard
 70
               0
  3

 62
               0
 51
90.0
 52
90.0
 71
               2
 49
0.5
 62
             256
  6
ByLayer
 49
-0.5
 62
             256
  6
ByLayer
  0
ENDSEC
  0
EOF
