  0
SECTION
  2
HEADER
  0
ENDSEC
  0
SECTION
  2
TABLES
  0
TABLE
  2
LTYPE
 70
     4
  0
LTYPE
  2
CONTINUOUS
 70
    64
  3
Solid line
 72
    65
 73
     0
 40
0.000000
  0
LTYPE
  2
DASHED
 70
    64
  3
__ __ __ __ __ __ __ __ __ __ __ __ __ __ __
 72
    65
 73
     2
 40
3.500000
 49
2.000000
 49
-1.500000
  0
LTYPE
  2
CENTER
 70
    64
  3
____ _ ____ _ ____ _ ____ _ ____ _ ____ _ ____
 72
    65
 73
     4
 40
17.500000
 49
13.000000
 49
-1.500000
 49
1.500000
 49
-1.500000
  0
LTYPE
  2
PHANTOM
 70
    64
  3
_____ _ _ _____ _ _ _____ _ _ _____ _ _ ____  
 72
    65
 73
     6
 40
15.500000
 49
8.000000
 49
-1.500000
 49
1.500000
 49
-1.500000
 49
1.500000
 49
-1.500000
  0
LTYPE
  2
DASHED1
 70
    64
  3
__ __ __ __ __ __ __ __ __ __ __ __ __ __ __
 72
    65
 73
     2
 40
1.500000
 49
1.000000
 49
-0.500000
  0
LTYPE
  2
DASHED2
 70
    64
  3
__ __ __ __ __ __ __ __ __ __ __ __ __ __ __
 72
    65
 73
     2
 40
3.500000
 49
2.500000
 49
-1.000000
  0
LTYPE
  2
DASHED3
 70
    64
  3
__ __ __ __ __ __ __ __ __ __ __ __ __ __ __
 72
    65
 73
     2
 40
6.000000
 49
4.000000
 49
-2.000000
  0
LTYPE
  2
DASHED4
 70
    64
  3
__ __ __ __ __ __ __ __ __ __ __ __ __ __ __
 72
    65
 73
     2
 40
12.000000
 49
10.000000
 49
-2.000000
  0
LTYPE
  2
DASHED5
 70
    64
  3
__ __ __ __ __ __ __ __ __ __ __ __ __ __ __
 72
    65
 73
     2
 40
17.000000
 49
15.000000
 49
-2.000000
  0
LTYPE
  2
DASHED6
 70
    64
  3
__ __ __ __ __ __ __ __ __ __ __ __ __ __ __
 72
    65
 73
     2
 40
29.000000
 49
27.000000
 49
-2.000000
  0
LTYPE
  2
PHANTOM1
 70
    64
  3
_____ _ _ _____ _ _ _____ _ _ _____ _ _ ____  
 72
    65
 73
     6
 40
31.000000
 49
25.000000
 49
-1.500000
 49
1.000000
 49
-1.000000
 49
1.000000
 49
-1.500000
  0
LTYPE
  2
PHANTOM2
 70
    64
  3
_____ _ _ _____ _ _ _____ _ _ _____ _ _ ____  
 72
    65
 73
     6
 40
36.000000
 49
27.000000
 49
-1.500000
 49
2.500000
 49
-1.000000
 49
2.500000
 49
-1.500000
  0
LTYPE
  2
PHANTOM3
 70
    64
  3
_____ _ _ _____ _ _ _____ _ _ _____ _ _ ____  
 72
    65
 73
     6
 40
78.000000
 49
64.000000
 49
-2.000000
 49
4.000000
 49
-2.000000
 49
4.000000
 49
-2.000000
  0
LTYPE
  2
CENTER1
 70
    64
  3
____ _ ____ _ ____ _ ____ _ ____ _ ____ _ ____
 72
    65
 73
     4
 40
19.000000
 49
14.000000
 49
-1.000000
 49
3.000000
 49
-1.000000
  0
LTYPE
  2
CENTER2
 70
    64
  3
____ _ ____ _ ____ _ ____ _ ____ _ ____ _ ____
 72
    65
 73
     4
 40
28.500000
 49
25.000000
 49
-1.000000
 49
1.500000
 49
-1.000000
  0
LTYPE
  2
CENTER3
 70
    64
  3
____ _ ____ _ ____ _ ____ _ ____ _ ____ _ ____
 72
    65
 73
     4
 40
31.500000
 49
27.000000
 49
-1.000000
 49
2.500000
 49
-1.000000
  0
LTYPE
  2
CENTER4
 70
    64
  3
____ _ ____ _ ____ _ ____ _ ____ _ ____ _ ____
 72
    65
 73
     4
 40
50.000000
 49
45.000000
 49
-1.000000
 49
3.000000
 49
-1.000000
  0
LTYPE
  2
CENTER5
 70
    64
  3
____ _ ____ _ ____ _ ____ _ ____ _ ____ _ ____
 72
    65
 73
     4
 40
100.000000
 49
92.000000
 49
-2.000000
 49
4.000000
 49
-2.000000
  0
LTYPE
  2
SBK1
 70
    64
  3
______ _ _ _ ______ _ _ _ ______ _ _ _ _____  
 72
    65
 73
     8
 40
60.500000
 49
45.000000
 49
-2.000000
 49
2.500000
 49
-2.000000
 49
2.500000
 49
-2.000000
 49
2.500000
 49
-2.000000
  0
LTYPE
  2
SBK2
 70
    64
  3
______ _ _ _ ______ _ _ _ ______ _ _ _ _____  
 72
    65
 73
     8
 40
84.000000
 49
64.000000
 49
-2.000000
 49
4.000000
 49
-2.000000
 49
4.000000
 49
-2.000000
 49
4.000000
 49
-2.000000
  0
LTYPE
  2
STCH
 70
    64
  3
__ __ __ __ __ __ __ __ __ __ __ __ __ __ __
 72
    65
 73
     2
 40
3.000000
 49
1.000000
 49
-2.000000
  0
LTYPE
  2
MTCH
 70
    64
  3
_____ _ _ _____ _ _ _____ _ _ _____ _ _ ____  
 72
    65
 73
     6
 40
80.000000
 49
66.000000
 49
-2.000000
 49
4.000000
 49
-2.000000
 49
4.000000
 49
-2.000000
  0
ENDTAB
  0
TABLE
  2
LAYER
 70
     1
  0
LAYER
  2
0
 70
     0
 62
     7
  6
CONTINUOUS
  0
ENDTAB
  0
TABLE
  2
STYLE
 70
     1
  0
STYLE
  2
STANDARD
 70
     0
 40
0.000000
 41
1.000000
 50
0.000000
 71
     0
 42
0.200000
  3
txt
  4
BIGFONT
  0
ENDTAB
  0
TABLE
  2
VIEW
 70
     0
  0
ENDTAB
  0
ENDSEC
  0
SECTION
  2
BLOCKS
  0
ENDSEC
  0
SECTION
  2
ENTITIES
  0
LINE
  8
0
 10
-194.250000
 20
132.600006
 11
194.800003
 21
132.600006
  0
LINE
  8
0
 10
194.800003
 20
132.600006
 11
194.800003
 21
-133.500000
  0
LINE
  8
0
 10
-194.250000
 20
132.600006
 11
-194.250000
 21
-133.500000
  0
LINE
  8
0
 10
-194.250000
 20
-133.500000
 11
194.800003
 21
-133.500000
  0
LINE
  8
0
 10
210.000000
 20
148.500000
 11
210.000000
 21
-148.500000
  0
LINE
  8
0
 10
-210.000000
 20
148.500000
 11
-210.000000
 21
-148.500000
  0
LINE
  8
0
 10
-210.000000
 20
148.500000
 11
210.000000
 21
148.500000
  0
LINE
  8
0
 10
-210.000000
 20
-148.500000
 11
210.000000
 21
-148.500000
  0
LINE
  8
0
 10
109.800003
 20
-118.500000
 11
109.800003
 21
-133.500000
  0
LINE
  8
0
 10
109.800003
 20
-118.500000
 11
194.800003
 21
-118.500000
  0
LINE
  8
0
 10
109.800003
 20
132.600006
 11
109.800003
 21
117.600006
  0
LINE
  8
0
 10
109.800003
 20
117.600006
 11
194.800003
 21
117.600006
  0
LINE
  8
0
 10
-194.250000
 20
117.600006
 11
-109.250000
 21
117.600006
  0
LINE
  8
0
 10
-109.250000
 20
132.600006
 11
-109.250000
 21
117.600006
  0
TEXT
  8
0
 10
115.907150
 20
122.050003
 40
4.500000
  1
DATE : SEP ,1992
 50
0.000000
 41
1.052631
 51
0.000000
  7
STANDARD
  0
TEXT
  8
0
 10
113.700279
 20
-130.669998
 40
6.300000
  1
KOGANEI CORP.
 50
0.000000
 41
1.052632
 51
0.000000
  7
STANDARD
  0
TEXT
  8
0
 10
-172.392654
 20
122.050003
 40
4.500000
  1
REGULATOR
 50
0.000000
 41
1.052632
 51
0.000000
  7
STANDARD
  0
TEXT
  8
0
 10
-179.000000
 20
105.900009
 40
4.500000
  1
MODEL : R300-02
 50
0.000000
 41
1.052632
 51
0.000000
  7
STANDARD
  0
POINT
  8
0
 10
-83.368690
 20
-52.032639
  0
POINT
  8
0
 10
-27.368660
 20
-52.032639
  0
LINE
  8
0
 10
-43.368690
 20
-75.591385
 11
-43.368690
 21
-29.191391
  0
LINE
  8
0
 10
-59.368690
 20
-63.032639
 11
-62.368690
 21
-63.032639
  0
LINE
  8
0
 10
-27.368664
 20
-63.032082
 11
-83.368683
 21
-63.032677
  0
LINE
  8
0
 10
-36.377663
 20
-74.032654
 11
-74.368690
 21
-74.032654
  0
LINE
  8
0
 10
-28.368690
 20
-74.032654
 11
-36.377586
 21
-74.032654
  0
LINE
  8
0
 10
-74.877419
 20
-73.532639
 11
-58.068703
 21
-73.532639
  0
LINE
  8
0
 10
-27.368660
 20
-41.032639
 11
-27.368660
 21
-63.032639
  0
LINE
  8
0
 10
-28.368690
 20
-64.032654
 11
-41.908730
 21
-64.032654
  0
LINE
  8
0
 10
-28.368690
 20
-40.032639
 11
-82.368690
 21
-40.032639
  0
LINE
  8
0
 10
-28.368828
 20
-64.032532
 11
-27.368866
 21
-63.032566
  0
LINE
  8
0
 10
-29.368690
 20
-45.032639
 11
-29.368690
 21
-59.032639
  0
LINE
  8
0
 10
-32.368660
 20
-45.032639
 11
-32.368660
 21
-59.032639
  0
LINE
  8
0
 10
-29.368690
 20
-59.032654
 11
-32.368683
 21
-59.032654
  0
LINE
  8
0
 10
-29.368690
 20
-45.032639
 11
-32.368683
 21
-45.032639
  0
LINE
  8
0
 10
-69.368690
 20
-36.032639
 11
-41.368690
 21
-36.032639
  0
LINE
  8
0
 10
-41.368660
 20
-28.032639
 11
-41.368660
 21
-40.032639
  0
LINE
  8
0
 10
-69.368690
 20
-28.032639
 11
-69.368690
 21
-40.032639
  0
LINE
  8
0
 10
-68.368690
 20
-27.032639
 11
-42.368690
 21
-27.032639
  0
LINE
  8
0
 10
-41.368660
 20
-28.032570
 11
-42.368633
 21
-27.032583
  0
LINE
  8
0
 10
-68.368584
 20
-27.032778
 11
-69.368553
 21
-28.032745
  0
LINE
  8
0
 10
-69.099648
 20
-34.032654
 11
-67.009315
 21
-34.032654
  0
LINE
  8
0
 10
-52.773964
 20
-28.032639
 11
-57.963417
 21
-28.032639
  0
LINE
  8
0
 10
-52.773964
 20
-34.032654
 11
-47.590614
 21
-34.032654
  0
LINE
  8
0
 10
-58.099892
 20
-33.628494
 11
-62.757729
 21
-33.628494
  0
LINE
  8
0
 10
-62.757729
 20
-27.332657
 11
-62.757729
 21
-33.628494
  0
LINE
  8
0
 10
-63.146614
 20
-28.032639
 11
-63.146614
 21
-34.032639
  0
LINE
  8
0
 10
-67.009300
 20
-28.032639
 11
-67.009300
 21
-34.032639
  0
LINE
  8
0
 10
-47.979530
 20
-27.332657
 11
-47.979530
 21
-33.628494
  0
LINE
  8
0
 10
-47.590614
 20
-28.032639
 11
-47.590614
 21
-34.032639
  0
LINE
  8
0
 10
-52.637352
 20
-27.332657
 11
-52.637352
 21
-33.628494
  0
LINE
  8
0
 10
-52.773949
 20
-28.032639
 11
-52.773949
 21
-34.032639
  0
LINE
  8
0
 10
-57.963417
 20
-28.032639
 11
-57.963417
 21
-34.032639
  0
LINE
  8
0
 10
-58.099876
 20
-27.332657
 11
-58.099876
 21
-33.628494
  0
LINE
  8
0
 10
-63.146629
 20
-28.032639
 11
-67.009315
 21
-28.032639
  0
LINE
  8
0
 10
-67.009315
 20
-33.628494
 11
-68.413124
 21
-33.628494
  0
LINE
  8
0
 10
-63.146629
 20
-34.032654
 11
-57.963417
 21
-34.032654
  0
LINE
  8
0
 10
-62.757965
 20
-33.628281
 11
-63.146889
 21
-34.032463
  0
LINE
  8
0
 10
-58.099682
 20
-33.628479
 11
-57.963108
 21
-34.032661
  0
LINE
  8
0
 10
-52.637047
 20
-33.628609
 11
-52.773613
 21
-34.032715
  0
LINE
  8
0
 10
-47.979771
 20
-33.628487
 11
-47.590862
 21
-34.032639
  0
LINE
  8
0
 10
-47.979530
 20
-33.628494
 11
-52.637367
 21
-33.628494
  0
LINE
  8
0
 10
-68.413109
 20
-27.332657
 11
-68.413109
 21
-33.628494
  0
LINE
  8
0
 10
-69.099632
 20
-28.032639
 11
-69.099632
 21
-34.032639
  0
LINE
  8
0
 10
-69.099648
 20
-28.032639
 11
-69.368690
 21
-28.032639
  0
LINE
  8
0
 10
-68.412956
 20
-33.628654
 11
-69.099594
 21
-34.032837
  0
LINE
  8
0
 10
-68.368690
 20
-27.332657
 11
-66.427269
 21
-27.332657
  0
LINE
  8
0
 10
-66.426888
 20
-27.332817
 11
-67.008888
 21
-28.032801
  0
LINE
  8
0
 10
-63.146690
 20
-28.032633
 11
-62.757805
 21
-27.332619
  0
LINE
  8
0
 10
-62.757729
 20
-27.332657
 11
-58.099892
 21
-27.332657
  0
LINE
  8
0
 10
-52.637367
 20
-27.332657
 11
-47.979530
 21
-27.332657
  0
LINE
  8
0
 10
-52.773907
 20
-28.032639
 11
-52.678326
 21
-27.332653
  0
LINE
  8
0
 10
-58.099846
 20
-27.332701
 11
-57.963280
 21
-28.032700
  0
LINE
  8
0
 10
-47.979767
 20
-27.332764
 11
-47.590874
 21
-28.032774
  0
LINE
  8
0
 10
-68.413368
 20
-27.332443
 11
-69.099892
 21
-28.032425
  0
LINE
  8
0
 10
-44.310081
 20
-27.332510
 11
-43.728012
 21
-28.032564
  0
LINE
  8
0
 10
-43.728050
 20
-28.032639
 11
-43.728050
 21
-34.032639
  0
LINE
  8
0
 10
-43.728065
 20
-33.628494
 11
-42.324257
 21
-33.628494
  0
LINE
  8
0
 10
-41.637733
 20
-34.032654
 11
-43.728065
 21
-34.032654
  0
LINE
  8
0
 10
-42.324242
 20
-27.332657
 11
-42.324242
 21
-33.628494
  0
LINE
  8
0
 10
-42.324219
 20
-33.628403
 11
-41.637615
 21
-34.032585
  0
LINE
  8
0
 10
-42.368690
 20
-27.332657
 11
-44.310097
 21
-27.332657
  0
LINE
  8
0
 10
-42.324009
 20
-27.332430
 11
-41.637505
 21
-28.032410
  0
LINE
  8
0
 10
-41.637733
 20
-28.032639
 11
-41.637733
 21
-34.032639
  0
LINE
  8
0
 10
-41.637733
 20
-28.032639
 11
-41.368690
 21
-28.032639
  0
LINE
  8
0
 10
-44.310097
 20
-27.332657
 11
-42.368690
 21
-27.332657
  0
LINE
  8
0
 10
-43.728065
 20
-28.032639
 11
-47.590614
 21
-28.032639
  0
LINE
  8
0
 10
-28.368855
 20
-40.032703
 11
-27.368805
 21
-41.032738
  0
LINE
  8
0
 10
-28.368683
 20
-40.032639
 11
-28.368683
 21
-64.032639
  0
LINE
  8
0
 10
-51.853981
 20
-60.032639
 11
-66.609352
 21
-60.032639
  0
LINE
  8
0
 10
-42.908730
 20
-62.022049
 11
-42.908730
 21
-63.032639
  0
LINE
  8
0
 10
-74.468651
 20
-39.532639
 11
-74.468651
 21
-40.032639
  0
LINE
  8
0
 10
-74.468651
 20
-39.532639
 11
-80.868690
 21
-39.532639
  0
LINE
  8
0
 10
-47.727577
 20
-61.032639
 11
-68.180809
 21
-61.032639
  0
LINE
  8
0
 10
-69.181007
 20
-64.032654
 11
-82.368690
 21
-64.032654
  0
LINE
  8
0
 10
-68.180710
 20
-63.032578
 11
-69.180740
 21
-64.032593
  0
LINE
  8
0
 10
-41.908699
 20
-64.032578
 11
-42.908638
 21
-63.032642
  0
LINE
  8
0
 10
-83.368690
 20
-41.032639
 11
-27.368683
 21
-41.032639
  0
LINE
  8
0
 10
-83.368690
 20
-41.032639
 11
-83.368690
 21
-63.032639
  0
LINE
  8
0
 10
-82.368660
 20
-40.032639
 11
-82.368660
 21
-64.032639
  0
LINE
  8
0
 10
-81.368675
 20
-45.032639
 11
-81.368675
 21
-59.032639
  0
LINE
  8
0
 10
-78.368690
 20
-45.032639
 11
-78.368690
 21
-59.032639
  0
LINE
  8
0
 10
-81.368675
 20
-59.032654
 11
-78.368690
 21
-59.032654
  0
LINE
  8
0
 10
-81.368675
 20
-45.032639
 11
-78.368690
 21
-45.032639
  0
LINE
  8
0
 10
-82.368591
 20
-40.032749
 11
-83.368652
 21
-41.032780
  0
LINE
  8
0
 10
-82.368507
 20
-64.032578
 11
-83.368484
 21
-63.032597
  0
LINE
  8
0
 10
-80.868690
 20
-39.532639
 11
-80.868690
 21
-40.032639
  0
LINE
  8
0
 10
-58.068703
 20
-71.532639
 11
-58.068703
 21
-74.032639
  0
LINE
  8
0
 10
-52.668663
 20
-71.532639
 11
-52.668663
 21
-74.032639
  0
LINE
  8
0
 10
-52.668678
 20
-71.532654
 11
-58.068703
 21
-71.532654
  0
LINE
  8
0
 10
-52.668678
 20
-73.532639
 11
-35.859962
 21
-73.532639
  0
LINE
  8
0
 10
-35.859905
 20
-73.532700
 11
-35.711224
 21
-65.015167
  0
LINE
  8
0
 10
-74.877609
 20
-73.523712
 11
-75.026138
 21
-65.015152
  0
LINE
  8
0
 10
-35.859787
 20
-73.532806
 11
-36.377491
 21
-74.032722
  0
LINE
  8
0
 10
-74.368637
 20
-74.032684
 11
-74.877541
 21
-73.523788
  0
LINE
  8
0
 10
-68.180794
 20
-61.032665
 11
-66.609352
 21
-60.032677
  0
LINE
  8
0
 10
-68.180794
 20
-61.032639
 11
-68.180794
 21
-63.032486
  0
LINE
  8
0
 10
-19.827293
 20
-52.032639
 11
-86.625862
 21
-52.032639
  0
LINE
  8
0
 10
-37.368683
 20
-83.332626
 11
-73.368645
 21
-83.332626
  0
LINE
  8
0
 10
-74.368675
 20
-76.332642
 11
-74.368675
 21
-82.332626
  0
LINE
  8
0
 10
-36.368668
 20
-76.332596
 11
-36.368668
 21
-82.332611
  0
LINE
  8
0
 10
-36.368668
 20
-82.332626
 11
-36.533875
 21
-82.332626
  0
LINE
  8
0
 10
-36.368690
 20
-78.332626
 11
-36.376274
 21
-78.332626
  0
LINE
  8
0
 10
-36.368862
 20
-82.332497
 11
-37.368866
 21
-83.332497
  0
LINE
  8
0
 10
-74.368553
 20
-82.332596
 11
-73.368553
 21
-83.332596
  0
LINE
  8
0
 10
-37.268501
 20
-79.032623
 11
-37.807259
 21
-79.032623
  0
LINE
  8
0
 10
-52.868675
 20
-78.332626
 11
-52.868675
 21
-82.332626
  0
LINE
  8
0
 10
-52.868698
 20
-78.332581
 11
-52.671844
 21
-79.032623
  0
LINE
  8
0
 10
-52.868679
 20
-82.332672
 11
-52.671837
 21
-83.032677
  0
LINE
  8
0
 10
-48.116405
 20
-78.332535
 11
-48.654175
 21
-79.032539
  0
LINE
  8
0
 10
-48.116283
 20
-82.332642
 11
-48.654053
 21
-83.032646
  0
LINE
  8
0
 10
-52.671837
 20
-79.032623
 11
-52.671837
 21
-83.032623
  0
LINE
  8
0
 10
-48.654121
 20
-79.032608
 11
-48.654121
 21
-83.032623
  0
LINE
  8
0
 10
-48.116356
 20
-78.332611
 11
-48.116356
 21
-82.332626
  0
LINE
  8
0
 10
-43.786217
 20
-78.332611
 11
-43.786217
 21
-82.332611
  0
LINE
  8
0
 10
-43.786346
 20
-82.332596
 11
-43.983185
 21
-83.032608
  0
LINE
  8
0
 10
-40.307076
 20
-78.332787
 11
-41.041691
 21
-79.032791
  0
LINE
  8
0
 10
-40.307129
 20
-82.332794
 11
-41.041748
 21
-83.032791
  0
LINE
  8
0
 10
-41.041878
 20
-83.032608
 11
-41.041878
 21
-79.032608
  0
LINE
  8
0
 10
-40.307259
 20
-78.332611
 11
-40.307259
 21
-82.332611
  0
LINE
  8
0
 10
-37.807259
 20
-78.332611
 11
-37.807259
 21
-82.332611
  0
LINE
  8
0
 10
-37.807137
 20
-82.332703
 11
-38.344910
 21
-83.032700
  0
LINE
  8
0
 10
-36.533825
 20
-78.332657
 11
-37.268436
 21
-79.032654
  0
LINE
  8
0
 10
-36.533783
 20
-82.332626
 11
-37.268398
 21
-83.032631
  0
LINE
  8
0
 10
-48.654137
 20
-79.032623
 11
-52.671837
 21
-79.032623
  0
LINE
  8
0
 10
-48.116371
 20
-78.332626
 11
-52.868675
 21
-78.332626
  0
LINE
  8
0
 10
-40.307259
 20
-78.332626
 11
-43.786232
 21
-78.332626
  0
LINE
  8
0
 10
-41.041878
 20
-79.032623
 11
-43.786232
 21
-79.032623
  0
LINE
  8
0
 10
-52.671837
 20
-83.032623
 11
-48.654137
 21
-83.032623
  0
LINE
  8
0
 10
-43.983070
 20
-83.032623
 11
-41.041878
 21
-83.032623
  0
LINE
  8
0
 10
-38.345039
 20
-83.032623
 11
-37.268478
 21
-83.032623
  0
LINE
  8
0
 10
-43.786232
 20
-82.332626
 11
-48.116371
 21
-82.332626
  0
LINE
  8
0
 10
-37.807243
 20
-82.332626
 11
-40.307243
 21
-82.332626
  0
LINE
  8
0
 10
-37.268478
 20
-79.032608
 11
-37.268478
 21
-83.032608
  0
LINE
  8
0
 10
-36.533852
 20
-78.332611
 11
-36.533852
 21
-82.332611
  0
LINE
  8
0
 10
-36.533875
 20
-78.332626
 11
-37.807259
 21
-78.332626
  0
LINE
  8
0
 10
-52.868675
 20
-82.332626
 11
-55.368675
 21
-82.332626
  0
LINE
  8
0
 10
-74.368675
 20
-82.332626
 11
-74.203453
 21
-82.332626
  0
LINE
  8
0
 10
-74.368675
 20
-78.332626
 11
-74.361076
 21
-78.332626
  0
LINE
  8
0
 10
-73.468880
 20
-79.032623
 11
-72.930092
 21
-79.032623
  0
LINE
  8
0
 10
-57.868675
 20
-78.332626
 11
-57.868675
 21
-82.332626
  0
LINE
  8
0
 10
-57.868629
 20
-78.332619
 11
-58.065468
 21
-79.032608
  0
LINE
  8
0
 10
-57.868690
 20
-82.332626
 11
-58.065525
 21
-83.032600
  0
LINE
  8
0
 10
-62.620972
 20
-78.332634
 11
-62.083206
 21
-79.032631
  0
LINE
  8
0
 10
-62.621002
 20
-82.332672
 11
-62.083237
 21
-83.032669
  0
LINE
  8
0
 10
-58.065514
 20
-79.032623
 11
-58.065514
 21
-83.032623
  0
LINE
  8
0
 10
-62.083229
 20
-79.032623
 11
-62.083229
 21
-83.032623
  0
LINE
  8
0
 10
-62.621010
 20
-78.332626
 11
-62.621010
 21
-82.332626
  0
LINE
  8
0
 10
-66.951149
 20
-78.332626
 11
-66.951149
 21
-82.332626
  0
LINE
  8
0
 10
-66.951141
 20
-82.332596
 11
-66.754295
 21
-83.032623
  0
LINE
  8
0
 10
-70.430130
 20
-78.332657
 11
-69.695526
 21
-79.032654
  0
LINE
  8
0
 10
-70.430038
 20
-82.332558
 11
-69.695396
 21
-83.032578
  0
LINE
  8
0
 10
-69.695488
 20
-83.032623
 11
-69.695488
 21
-79.032623
  0
LINE
  8
0
 10
-70.430092
 20
-78.332626
 11
-70.430092
 21
-82.332626
  0
LINE
  8
0
 10
-72.930107
 20
-78.332626
 11
-72.930107
 21
-82.332626
  0
LINE
  8
0
 10
-72.930145
 20
-82.332626
 11
-72.392380
 21
-83.032623
  0
LINE
  8
0
 10
-74.203415
 20
-78.332634
 11
-73.468811
 21
-79.032631
  0
LINE
  8
0
 10
-74.203377
 20
-82.332520
 11
-73.468750
 21
-83.032532
  0
LINE
  8
0
 10
-62.083229
 20
-79.032623
 11
-58.065514
 21
-79.032623
  0
LINE
  8
0
 10
-62.621010
 20
-78.332626
 11
-57.868675
 21
-78.332626
  0
LINE
  8
0
 10
-70.430107
 20
-78.332626
 11
-66.951149
 21
-78.332626
  0
LINE
  8
0
 10
-69.695503
 20
-79.032623
 11
-66.951149
 21
-79.032623
  0
LINE
  8
0
 10
-58.065514
 20
-83.032623
 11
-62.083229
 21
-83.032623
  0
LINE
  8
0
 10
-66.754311
 20
-83.032623
 11
-69.695503
 21
-83.032623
  0
LINE
  8
0
 10
-72.392342
 20
-83.032623
 11
-73.468880
 21
-83.032623
  0
LINE
  8
0
 10
-66.951149
 20
-82.332626
 11
-62.621010
 21
-82.332626
  0
LINE
  8
0
 10
-72.930092
 20
-82.332626
 11
-70.430107
 21
-82.332626
  0
LINE
  8
0
 10
-73.468880
 20
-79.032623
 11
-73.468880
 21
-83.032623
  0
LINE
  8
0
 10
-74.203499
 20
-78.332626
 11
-74.203499
 21
-82.332626
  0
LINE
  8
0
 10
-74.203453
 20
-78.332626
 11
-72.930092
 21
-78.332626
  0
LINE
  8
0
 10
-57.868675
 20
-82.332626
 11
-55.368675
 21
-82.332626
  0
LINE
  8
0
 10
-66.368660
 20
-84.532639
 11
-66.368660
 21
-86.532623
  0
LINE
  8
0
 10
-69.068687
 20
-84.032654
 11
-55.368675
 21
-84.032654
  0
LINE
  8
0
 10
-44.368675
 20
-84.532639
 11
-44.368675
 21
-86.532608
  0
LINE
  8
0
 10
-41.668678
 20
-84.032654
 11
-55.368675
 21
-84.032654
  0
LINE
  8
0
 10
-64.800270
 20
-84.032608
 11
-64.800270
 21
-86.532623
  0
LINE
  8
0
 10
-56.937050
 20
-84.032623
 11
-56.937050
 21
-86.532623
  0
LINE
  8
0
 10
-53.800255
 20
-84.032623
 11
-53.800255
 21
-86.532623
  0
LINE
  8
0
 10
-45.937065
 20
-84.032623
 11
-45.937065
 21
-86.532608
  0
LINE
  8
0
 10
-69.568657
 20
-74.032639
 11
-69.568657
 21
-76.332642
  0
LINE
  8
0
 10
-41.168633
 20
-74.032639
 11
-41.168633
 21
-76.332642
  0
LINE
  8
0
 10
-70.368690
 20
-83.332626
 11
-40.368690
 21
-83.332626
  0
LINE
  8
0
 10
-41.668678
 20
-86.532623
 11
-69.068687
 21
-86.532623
  0
LINE
  8
0
 10
-43.768654
 20
-111.532654
 11
-66.968666
 21
-111.532654
  0
LINE
  8
0
 10
-67.968620
 20
-109.532562
 11
-68.968674
 21
-108.955177
  0
LINE
  8
0
 10
-41.768749
 20
-108.955139
 11
-42.768742
 21
-109.532486
  0
LINE
  8
0
 10
-42.768654
 20
-109.532623
 11
-42.768654
 21
-110.532623
  0
LINE
  8
0
 10
-67.968697
 20
-109.532639
 11
-67.968697
 21
-110.532623
  0
LINE
  8
0
 10
-69.555641
 20
-87.019653
 11
-68.968674
 21
-108.955307
  0
LINE
  8
0
 10
-41.181755
 20
-87.019608
 11
-41.768723
 21
-108.955269
  0
LINE
  8
0
 10
-41.668674
 20
-86.532608
 11
-41.181698
 21
-87.019592
  0
LINE
  8
0
 10
-69.068619
 20
-86.532684
 11
-69.555603
 21
-87.019661
  0
LINE
  8
0
 10
-58.368671
 20
-89.032623
 11
-57.835567
 21
-108.955276
  0
LINE
  8
0
 10
-52.368690
 20
-89.032631
 11
-52.901794
 21
-108.955307
  0
LINE
  8
0
 10
-41.768654
 20
-108.955292
 11
-41.995735
 21
-108.955292
  0
LINE
  8
0
 10
-41.557640
 20
-89.032623
 11
-43.481483
 21
-89.032623
  0
LINE
  8
0
 10
-42.768654
 20
-109.532608
 11
-43.075600
 21
-109.532608
  0
LINE
  8
0
 10
-41.181709
 20
-87.019592
 11
-69.555672
 21
-87.019592
  0
LINE
  8
0
 10
-58.368660
 20
-89.032623
 11
-63.013222
 21
-89.032623
  0
LINE
  8
0
 10
-42.415276
 20
-89.484741
 11
-43.496941
 21
-89.484741
  0
LINE
  8
0
 10
-58.598457
 20
-89.484741
 11
-62.244301
 21
-89.484741
  0
LINE
  8
0
 10
-52.893822
 20
-108.955307
 11
-52.604492
 21
-109.532631
  0
LINE
  8
0
 10
-48.630753
 20
-109.532700
 11
-47.662571
 21
-108.955353
  0
LINE
  8
0
 10
-44.162529
 20
-108.955246
 11
-44.721516
 21
-109.532608
  0
LINE
  8
0
 10
-43.075645
 20
-109.532562
 11
-41.995773
 21
-108.955200
  0
LINE
  8
0
 10
-47.724213
 20
-89.032455
 11
-48.493153
 21
-89.484589
  0
LINE
  8
0
 10
-41.557697
 20
-89.032501
 11
-42.415318
 21
-89.484619
  0
LINE
  8
0
 10
-52.368706
 20
-89.032623
 11
-52.138901
 21
-89.484787
  0
LINE
  8
0
 10
-52.138832
 20
-89.484749
 11
-52.604412
 21
-109.532623
  0
LINE
  8
0
 10
-48.493053
 20
-89.484741
 11
-48.630768
 21
-109.532608
  0
LINE
  8
0
 10
-47.724106
 20
-89.032616
 11
-47.662563
 21
-108.955292
  0
LINE
  8
0
 10
-44.162766
 20
-108.955231
 11
-43.481651
 21
-89.032585
  0
LINE
  8
0
 10
-43.075462
 20
-109.532608
 11
-42.415104
 21
-89.484741
  0
LINE
  8
0
 10
-41.557625
 20
-89.032616
 11
-41.995735
 21
-108.955261
  0
LINE
  8
0
 10
-58.598511
 20
-89.484718
 11
-58.132927
 21
-109.532623
  0
LINE
  8
0
 10
-57.843498
 20
-108.955261
 11
-58.132854
 21
-109.532639
  0
LINE
  8
0
 10
-58.368683
 20
-89.032639
 11
-58.598469
 21
-89.484764
  0
LINE
  8
0
 10
-62.244293
 20
-89.484741
 11
-62.106583
 21
-109.532639
  0
LINE
  8
0
 10
-63.013199
 20
-89.032631
 11
-63.074745
 21
-108.955307
  0
LINE
  8
0
 10
-66.574875
 20
-108.955292
 11
-67.255989
 21
-89.032654
  0
LINE
  8
0
 10
-67.661629
 20
-109.532593
 11
-68.321983
 21
-89.484718
  0
LINE
  8
0
 10
-69.179741
 20
-89.032669
 11
-68.741631
 21
-108.955322
  0
LINE
  8
0
 10
-69.179718
 20
-89.032654
 11
-68.322128
 21
-89.484756
  0
LINE
  8
0
 10
-63.013168
 20
-89.032547
 11
-62.244232
 21
-89.484680
  0
LINE
  8
0
 10
-62.106575
 20
-109.532669
 11
-63.074768
 21
-108.955315
  0
LINE
  8
0
 10
-66.574661
 20
-108.955162
 11
-66.015671
 21
-109.532532
  0
LINE
  8
0
 10
-67.661720
 20
-109.532578
 11
-68.741585
 21
-108.955215
  0
LINE
  8
0
 10
-52.893806
 20
-108.955292
 11
-57.843544
 21
-108.955292
  0
LINE
  8
0
 10
-63.074745
 20
-108.955292
 11
-66.574745
 21
-108.955292
  0
LINE
  8
0
 10
-68.741585
 20
-108.955292
 11
-68.968666
 21
-108.955292
  0
LINE
  8
0
 10
-44.162575
 20
-108.955292
 11
-47.662575
 21
-108.955292
  0
LINE
  8
0
 10
-48.493065
 20
-89.484741
 11
-52.138878
 21
-89.484741
  0
LINE
  8
0
 10
-47.724129
 20
-89.032623
 11
-52.368675
 21
-89.032623
  0
LINE
  8
0
 10
-67.240410
 20
-89.484741
 11
-68.322090
 21
-89.484741
  0
LINE
  8
0
 10
-67.255867
 20
-89.032623
 11
-69.179710
 21
-89.032623
  0
LINE
  8
0
 10
-52.604454
 20
-109.532608
 11
-58.132881
 21
-109.532608
  0
LINE
  8
0
 10
-62.106575
 20
-109.532608
 11
-66.015755
 21
-109.532608
  0
LINE
  8
0
 10
-67.661720
 20
-109.532608
 11
-67.968681
 21
-109.532608
  0
LINE
  8
0
 10
-44.721565
 20
-109.532608
 11
-48.630745
 21
-109.532608
  0
LINE
  8
0
 10
-69.568695
 20
-83.032616
 11
-70.368675
 21
-82.232635
  0
LINE
  8
0
 10
-41.168804
 20
-83.032532
 11
-40.368809
 21
-82.232536
  0
LINE
  8
0
 10
-70.368675
 20
-74.032639
 11
-70.368675
 21
-76.332642
  0
LINE
  8
0
 10
-40.368675
 20
-74.032639
 11
-40.368675
 21
-76.332642
  0
LINE
  8
0
 10
-55.368675
 20
-23.485428
 11
-55.368675
 21
-114.466278
  0
LINE
  8
0
 10
-82.368690
 20
-76.332642
 11
-74.368675
 21
-76.332642
  0
LINE
  8
0
 10
-69.568657
 20
-83.332626
 11
-69.568657
 21
-83.532639
  0
LINE
  8
0
 10
-41.168633
 20
-83.332626
 11
-41.168633
 21
-83.532608
  0
LINE
  8
0
 10
-82.368660
 20
-74.032639
 11
-82.368660
 21
-94.032639
  0
LINE
  8
0
 10
-28.368683
 20
-74.032639
 11
-28.368683
 21
-94.032639
  0
LINE
  8
0
 10
-31.368690
 20
-97.032639
 11
-41.449760
 21
-97.032639
  0
LINE
  8
0
 10
-82.368660
 20
-94.032661
 11
-79.368683
 21
-97.032646
  0
LINE
  8
0
 10
-31.368744
 20
-97.032593
 11
-28.368740
 21
-94.032585
  0
LINE
  8
0
 10
-69.287758
 20
-97.032639
 11
-79.368690
 21
-97.032639
  0
LINE
  8
0
 10
-74.368675
 20
-76.332642
 11
-36.368690
 21
-76.332642
  0
LINE
  8
0
 10
-36.368690
 20
-76.332642
 11
-28.368690
 21
-76.332642
  0
LINE
  8
0
 10
-74.368690
 20
-74.032654
 11
-82.368690
 21
-74.032654
  0
LINE
  8
0
 10
-36.377586
 20
-74.032654
 11
-74.368690
 21
-74.032654
  0
LINE
  8
0
 10
-68.377312
 20
-90.032639
 11
-81.077309
 21
-90.032639
  0
LINE
  8
0
 10
-75.368690
 20
-86.532654
 11
-72.368690
 21
-86.532654
  0
LINE
  8
0
 10
-75.368690
 20
-93.532639
 11
-72.368690
 21
-93.532639
  0
LINE
  8
0
 10
-42.360054
 20
-90.032639
 11
-29.660065
 21
-90.032639
  0
LINE
  8
0
 10
-35.368683
 20
-86.532654
 11
-38.368690
 21
-86.532654
  0
LINE
  8
0
 10
-35.368683
 20
-93.532639
 11
-38.368690
 21
-93.532639
  0
LINE
  8
0
 10
-73.868675
 20
-85.091400
 11
-73.868675
 21
-94.991394
  0
LINE
  8
0
 10
-36.868690
 20
-85.091400
 11
-36.868690
 21
-94.991394
  0
CIRCLE
  8
0
 10
-43.368690
 20
-52.032639
 40
10.000000
  0
CIRCLE
  8
0
 10
-43.368690
 20
-52.032639
 40
9.000000
  0
ARC
  8
0
 10
-51.853966
 20
-59.032654
 40
1.000000
 50
270.000000
 51
39.521221
  0
CIRCLE
  8
0
 10
-43.368690
 20
-52.032639
 40
6.578500
  0
CIRCLE
  8
0
 10
-43.368690
 20
-52.032639
 40
5.722500
  0
ARC
  8
0
 10
-76.025948
 20
-65.032639
 40
1.000000
 50
1.000209
 51
90.000000
  0
ARC
  8
0
 10
-34.711411
 20
-65.032639
 40
1.000000
 50
90.000000
 51
178.999786
  0
ARC
  8
0
 10
-66.968666
 20
-110.532623
 40
1.000000
 50
180.000000
 51
270.000000
  0
ARC
  8
0
 10
-66.868675
 20
-84.532639
 40
0.500000
 50
0.000000
 51
90.000000
  0
ARC
  8
0
 10
-69.068687
 20
-83.532639
 40
0.500000
 50
180.000000
 51
270.000000
  0
ARC
  8
0
 10
-43.868660
 20
-84.532623
 40
0.500000
 50
90.000000
 51
180.000000
  0
ARC
  8
0
 10
-41.668663
 20
-83.532623
 40
0.500000
 50
270.000000
 51
0.000000
  0
ARC
  8
0
 10
-43.768639
 20
-110.532623
 40
1.000000
 50
270.000000
 51
0.000000
  0
ARC
  8
0
 10
-75.368690
 20
-90.032639
 40
3.500000
 50
90.000000
 51
270.000000
  0
ARC
  8
0
 10
-72.368660
 20
-90.032639
 40
3.500000
 50
270.000000
 51
327.268585
  0
ARC
  8
0
 10
-72.368660
 20
-90.032639
 40
3.499999
 50
35.797012
 51
90.000000
  0
ARC
  8
0
 10
-35.368675
 20
-90.032639
 40
3.500000
 50
269.999939
 51
90.000000
  0
ARC
  8
0
 10
-38.368683
 20
-90.032639
 40
3.500000
 50
90.000000
 51
144.202881
  0
ARC
  8
0
 10
-38.368683
 20
-90.032639
 40
3.500001
 50
212.731400
 51
269.999939
  0
CIRCLE
  8
0
  6
PHANTOM
 10
-43.368690
 20
-52.032639
 40
21.250000
  0
POINT
  8
0
  6
PHANTOM
 10
106.631310
 20
-52.032639
  0
POINT
  8
0
  6
PHANTOM
 10
126.631310
 20
-52.032639
  0
LINE
  8
0
 10
129.716461
 20
-52.032639
 11
43.084293
 21
-52.032639
  0
LINE
  8
0
 10
91.631294
 20
-41.032608
 11
91.631294
 21
-63.032639
  0
LINE
  8
0
 10
121.631310
 20
-41.032639
 11
121.631310
 21
-63.032654
  0
LINE
  8
0
 10
120.631310
 20
-64.032639
 11
92.631294
 21
-64.032639
  0
LINE
  8
0
 10
120.631310
 20
-40.032623
 11
92.631294
 21
-40.032623
  0
LINE
  8
0
 10
92.631348
 20
-40.032673
 11
91.631332
 21
-41.032665
  0
LINE
  8
0
 10
91.631287
 20
-63.032639
 11
92.631294
 21
-64.032646
  0
LINE
  8
0
 10
120.631340
 20
-64.032646
 11
121.631332
 21
-63.032665
  0
LINE
  8
0
 10
121.631287
 20
-41.032692
 11
120.631287
 21
-40.032688
  0
LINE
  8
0
 10
91.631294
 20
-41.032761
 11
121.631310
 21
-41.032761
  0
LINE
  8
0
 10
92.631294
 20
-28.032639
 11
92.631294
 21
-64.032639
  0
LINE
  8
0
 10
91.631294
 20
-63.032776
 11
121.631325
 21
-63.032776
  0
LINE
  8
0
 10
120.631310
 20
-64.032639
 11
120.631310
 21
-28.032639
  0
LINE
  8
0
 10
126.631310
 20
-43.032639
 11
126.631310
 21
-61.032639
  0
LINE
  8
0
 10
86.631294
 20
-43.032623
 11
86.631294
 21
-61.032639
  0
LINE
  8
0
 10
125.631310
 20
-62.032639
 11
122.631310
 21
-62.032639
  0
LINE
  8
0
 10
125.631310
 20
-42.032639
 11
122.631310
 21
-42.032639
  0
LINE
  8
0
 10
87.631332
 20
-42.032688
 11
86.631332
 21
-43.032669
  0
LINE
  8
0
 10
86.631294
 20
-61.032646
 11
87.631287
 21
-62.032635
  0
LINE
  8
0
 10
125.631332
 20
-42.032673
 11
126.631332
 21
-43.032673
  0
LINE
  8
0
 10
125.631317
 20
-62.032642
 11
126.631310
 21
-61.032650
  0
LINE
  8
0
 10
90.631294
 20
-42.032639
 11
87.631294
 21
-42.032639
  0
LINE
  8
0
 10
90.631294
 20
-62.032639
 11
87.631294
 21
-62.032639
  0
LINE
  8
0
 10
87.631294
 20
-42.032639
 11
87.631294
 21
-62.032639
  0
LINE
  8
0
 10
125.631310
 20
-42.032639
 11
125.631310
 21
-62.032639
  0
LINE
  8
0
 10
106.631310
 20
-22.575119
 11
106.631310
 21
-114.565964
  0
LINE
  8
0
 10
120.631310
 20
-36.032639
 11
92.631294
 21
-36.032639
  0
LINE
  8
0
 10
119.631310
 20
-27.032639
 11
93.631310
 21
-27.032639
  0
LINE
  8
0
 10
92.631279
 20
-28.032528
 11
93.631256
 21
-27.032549
  0
LINE
  8
0
 10
119.631271
 20
-27.032703
 11
120.631256
 21
-28.032682
  0
LINE
  8
0
 10
120.362267
 20
-34.032639
 11
118.271935
 21
-34.032639
  0
LINE
  8
0
 10
104.036583
 20
-28.032639
 11
109.226036
 21
-28.032639
  0
LINE
  8
0
 10
104.036583
 20
-34.032639
 11
98.853233
 21
-34.032639
  0
LINE
  8
0
 10
109.362511
 20
-33.628494
 11
114.020348
 21
-33.628494
  0
LINE
  8
0
 10
114.020348
 20
-27.332657
 11
114.020348
 21
-33.628494
  0
LINE
  8
0
 10
114.409264
 20
-28.032639
 11
114.409264
 21
-34.032639
  0
LINE
  8
0
 10
118.271935
 20
-28.032639
 11
118.271935
 21
-34.032639
  0
LINE
  8
0
 10
99.242149
 20
-27.332657
 11
99.242149
 21
-33.628494
  0
LINE
  8
0
 10
98.853233
 20
-28.032639
 11
98.853233
 21
-34.032639
  0
LINE
  8
0
 10
103.899986
 20
-27.332657
 11
103.899986
 21
-33.628494
  0
LINE
  8
0
 10
104.036583
 20
-28.032639
 11
104.036583
 21
-34.032639
  0
LINE
  8
0
 10
109.226036
 20
-28.032639
 11
109.226036
 21
-34.032639
  0
LINE
  8
0
 10
109.362511
 20
-27.332657
 11
109.362511
 21
-33.628494
  0
LINE
  8
0
 10
114.409264
 20
-28.032639
 11
118.271935
 21
-28.032639
  0
LINE
  8
0
 10
118.271935
 20
-33.628494
 11
119.675743
 21
-33.628494
  0
LINE
  8
0
 10
114.409264
 20
-34.032639
 11
109.226036
 21
-34.032639
  0
LINE
  8
0
 10
114.020493
 20
-33.628353
 11
114.409424
 21
-34.032528
  0
LINE
  8
0
 10
109.362312
 20
-33.628426
 11
109.225739
 21
-34.032593
  0
LINE
  8
0
 10
103.899750
 20
-33.628597
 11
104.036301
 21
-34.032707
  0
LINE
  8
0
 10
99.242371
 20
-33.628525
 11
98.853470
 21
-34.032669
  0
LINE
  8
0
 10
99.242149
 20
-33.628494
 11
103.899986
 21
-33.628494
  0
LINE
  8
0
 10
119.675743
 20
-27.332657
 11
119.675743
 21
-33.628494
  0
LINE
  8
0
 10
120.362267
 20
-28.032639
 11
120.362267
 21
-34.032639
  0
LINE
  8
0
 10
120.362267
 20
-28.032639
 11
120.631310
 21
-28.032639
  0
LINE
  8
0
 10
119.675659
 20
-33.628517
 11
120.362282
 21
-34.032700
  0
LINE
  8
0
 10
119.631310
 20
-27.332657
 11
117.689903
 21
-27.332657
  0
LINE
  8
0
 10
117.689598
 20
-27.332775
 11
118.271614
 21
-28.032759
  0
LINE
  8
0
 10
114.409317
 20
-28.032627
 11
114.020416
 21
-27.332623
  0
LINE
  8
0
 10
114.020348
 20
-27.332657
 11
109.362511
 21
-27.332657
  0
LINE
  8
0
 10
103.899986
 20
-27.332657
 11
99.242149
 21
-27.332657
  0
LINE
  8
0
 10
104.036461
 20
-28.032642
 11
103.940865
 21
-27.332657
  0
LINE
  8
0
 10
109.362450
 20
-27.332689
 11
109.225883
 21
-28.032688
  0
LINE
  8
0
 10
99.242386
 20
-27.332752
 11
98.853485
 21
-28.032755
  0
LINE
  8
0
 10
119.675903
 20
-27.332468
 11
120.362457
 21
-28.032467
  0
LINE
  8
0
 10
95.572739
 20
-27.332520
 11
94.990700
 21
-28.032541
  0
LINE
  8
0
 10
94.990685
 20
-28.032639
 11
94.990685
 21
-34.032639
  0
LINE
  8
0
 10
94.990685
 20
-33.628494
 11
93.586876
 21
-33.628494
  0
LINE
  8
0
 10
92.900337
 20
-34.032639
 11
94.990685
 21
-34.032639
  0
LINE
  8
0
 10
93.586876
 20
-27.332657
 11
93.586876
 21
-33.628494
  0
LINE
  8
0
 10
93.586884
 20
-33.628475
 11
92.900269
 21
-34.032658
  0
LINE
  8
0
 10
93.631310
 20
-27.332657
 11
95.572716
 21
-27.332657
  0
LINE
  8
0
 10
93.586647
 20
-27.332367
 11
92.900108
 21
-28.032356
  0
LINE
  8
0
 10
92.900337
 20
-28.032639
 11
92.900337
 21
-34.032639
  0
LINE
  8
0
 10
92.900337
 20
-28.032639
 11
92.631294
 21
-28.032639
  0
LINE
  8
0
 10
95.572716
 20
-27.332657
 11
93.631310
 21
-27.332657
  0
LINE
  8
0
 10
94.990685
 20
-28.032639
 11
98.853233
 21
-28.032639
  0
LINE
  8
0
 10
87.631294
 20
-76.332642
 11
125.631310
 21
-76.332642
  0
LINE
  8
0
 10
126.140007
 20
-73.532639
 11
109.331322
 21
-73.532639
  0
LINE
  8
0
 10
109.331322
 20
-71.532639
 11
109.331322
 21
-74.032639
  0
LINE
  8
0
 10
103.931297
 20
-71.532639
 11
103.931297
 21
-74.032639
  0
LINE
  8
0
 10
103.931297
 20
-71.532639
 11
109.331322
 21
-71.532639
  0
LINE
  8
0
 10
103.931297
 20
-73.532639
 11
87.122566
 21
-73.532639
  0
LINE
  8
0
 10
87.122559
 20
-73.532684
 11
86.909210
 21
-61.310535
  0
LINE
  8
0
 10
126.140160
 20
-73.523758
 11
126.353355
 21
-61.310581
  0
LINE
  8
0
 10
87.122574
 20
-73.532707
 11
87.640259
 21
-74.032623
  0
LINE
  8
0
 10
125.631317
 20
-74.032631
 11
126.140182
 21
-73.523758
  0
LINE
  8
0
 10
88.631317
 20
-83.332611
 11
124.631302
 21
-83.332611
  0
LINE
  8
0
 10
125.631294
 20
-76.332611
 11
125.631294
 21
-82.332611
  0
LINE
  8
0
 10
87.631310
 20
-76.332626
 11
87.631310
 21
-82.332626
  0
LINE
  8
0
 10
87.631317
 20
-82.332626
 11
87.796509
 21
-82.332626
  0
LINE
  8
0
 10
87.631310
 20
-78.332611
 11
87.638893
 21
-78.332611
  0
LINE
  8
0
 10
87.631508
 20
-82.332481
 11
88.631500
 21
-83.332474
  0
LINE
  8
0
 10
125.631241
 20
-82.332550
 11
124.631248
 21
-83.332542
  0
LINE
  8
0
 10
88.531120
 20
-79.032608
 11
89.069885
 21
-79.032608
  0
LINE
  8
0
 10
104.131310
 20
-78.332642
 11
104.131310
 21
-82.332626
  0
LINE
  8
0
 10
104.131332
 20
-78.332619
 11
103.934494
 21
-79.032623
  0
LINE
  8
0
 10
104.131325
 20
-82.332642
 11
103.934479
 21
-83.032646
  0
LINE
  8
0
 10
99.379013
 20
-78.332588
 11
99.916779
 21
-79.032585
  0
LINE
  8
0
 10
99.378891
 20
-82.332634
 11
99.916664
 21
-83.032639
  0
LINE
  8
0
 10
103.934471
 20
-79.032623
 11
103.934471
 21
-83.032623
  0
LINE
  8
0
 10
99.916756
 20
-79.032623
 11
99.916756
 21
-83.032623
  0
LINE
  8
0
 10
99.378990
 20
-78.332642
 11
99.378990
 21
-82.332626
  0
LINE
  8
0
 10
95.048851
 20
-78.332642
 11
95.048851
 21
-82.332626
  0
LINE
  8
0
 10
95.049004
 20
-82.332611
 11
95.245834
 21
-83.032593
  0
LINE
  8
0
 10
91.569695
 20
-78.332802
 11
92.304321
 21
-79.032814
  0
LINE
  8
0
 10
91.569710
 20
-82.332840
 11
92.304337
 21
-83.032852
  0
LINE
  8
0
 10
92.304497
 20
-83.032623
 11
92.304497
 21
-79.032623
  0
LINE
  8
0
 10
91.569878
 20
-78.332642
 11
91.569878
 21
-82.332626
  0
LINE
  8
0
 10
89.069878
 20
-78.332642
 11
89.069878
 21
-82.332626
  0
LINE
  8
0
 10
89.069809
 20
-82.332672
 11
89.607582
 21
-83.032669
  0
LINE
  8
0
 10
87.796455
 20
-78.332680
 11
88.531067
 21
-79.032669
  0
LINE
  8
0
 10
87.796371
 20
-82.332756
 11
88.530991
 21
-83.032761
  0
LINE
  8
0
 10
99.916756
 20
-79.032608
 11
103.934471
 21
-79.032608
  0
LINE
  8
0
 10
99.378990
 20
-78.332611
 11
104.131310
 21
-78.332611
  0
LINE
  8
0
 10
91.569878
 20
-78.332611
 11
95.048851
 21
-78.332611
  0
LINE
  8
0
 10
92.304497
 20
-79.032608
 11
95.048851
 21
-79.032608
  0
LINE
  8
0
 10
103.934479
 20
-83.032623
 11
99.916763
 21
-83.032623
  0
LINE
  8
0
 10
95.245697
 20
-83.032623
 11
92.304497
 21
-83.032623
  0
LINE
  8
0
 10
89.607666
 20
-83.032623
 11
88.531128
 21
-83.032623
  0
LINE
  8
0
 10
95.048859
 20
-82.332626
 11
99.378990
 21
-82.332626
  0
LINE
  8
0
 10
89.069885
 20
-82.332626
 11
91.569878
 21
-82.332626
  0
LINE
  8
0
 10
88.531120
 20
-79.032623
 11
88.531120
 21
-83.032623
  0
LINE
  8
0
 10
87.796501
 20
-78.332642
 11
87.796501
 21
-82.332626
  0
LINE
  8
0
 10
87.796509
 20
-78.332611
 11
89.069885
 21
-78.332611
  0
LINE
  8
0
 10
104.131317
 20
-82.332626
 11
106.631317
 21
-82.332626
  0
LINE
  8
0
 10
125.631302
 20
-82.332626
 11
125.466110
 21
-82.332626
  0
LINE
  8
0
 10
125.631294
 20
-78.332611
 11
125.623734
 21
-78.332611
  0
LINE
  8
0
 10
124.731499
 20
-79.032608
 11
124.192734
 21
-79.032608
  0
LINE
  8
0
 10
109.131310
 20
-78.332611
 11
109.131310
 21
-82.332626
  0
LINE
  8
0
 10
109.131325
 20
-78.332596
 11
109.328156
 21
-79.032593
  0
LINE
  8
0
 10
109.131393
 20
-82.332588
 11
109.328232
 21
-83.032578
  0
LINE
  8
0
 10
113.883614
 20
-78.332619
 11
113.345848
 21
-79.032623
  0
LINE
  8
0
 10
113.883636
 20
-82.332626
 11
113.345871
 21
-83.032631
  0
LINE
  8
0
 10
109.328148
 20
-79.032608
 11
109.328148
 21
-83.032623
  0
LINE
  8
0
 10
113.345863
 20
-79.032608
 11
113.345863
 21
-83.032608
  0
LINE
  8
0
 10
113.883629
 20
-78.332611
 11
113.883629
 21
-82.332611
  0
LINE
  8
0
 10
118.213768
 20
-78.332611
 11
118.213768
 21
-82.332611
  0
LINE
  8
0
 10
118.213783
 20
-82.332642
 11
118.016945
 21
-83.032646
  0
LINE
  8
0
 10
121.692741
 20
-78.332657
 11
120.958130
 21
-79.032646
  0
LINE
  8
0
 10
121.692680
 20
-82.332550
 11
120.958061
 21
-83.032555
  0
LINE
  8
0
 10
120.958122
 20
-83.032608
 11
120.958122
 21
-79.032608
  0
LINE
  8
0
 10
121.692741
 20
-78.332611
 11
121.692741
 21
-82.332611
  0
LINE
  8
0
 10
124.192726
 20
-78.332611
 11
124.192726
 21
-82.332611
  0
LINE
  8
0
 10
124.192764
 20
-82.332642
 11
123.654991
 21
-83.032639
  0
LINE
  8
0
 10
125.466072
 20
-78.332581
 11
124.731468
 21
-79.032578
  0
LINE
  8
0
 10
125.466042
 20
-82.332504
 11
124.731415
 21
-83.032516
  0
LINE
  8
0
 10
113.345863
 20
-79.032608
 11
109.328148
 21
-79.032608
  0
LINE
  8
0
 10
113.883629
 20
-78.332611
 11
109.131310
 21
-78.332611
  0
LINE
  8
0
 10
121.692741
 20
-78.332611
 11
118.213768
 21
-78.332611
  0
LINE
  8
0
 10
120.958122
 20
-79.032608
 11
118.213768
 21
-79.032608
  0
LINE
  8
0
 10
109.328156
 20
-83.032623
 11
113.345871
 21
-83.032623
  0
LINE
  8
0
 10
118.016937
 20
-83.032623
 11
120.958130
 21
-83.032623
  0
LINE
  8
0
 10
123.654968
 20
-83.032623
 11
124.731506
 21
-83.032623
  0
LINE
  8
0
 10
118.213776
 20
-82.332626
 11
113.883636
 21
-82.332626
  0
LINE
  8
0
 10
124.192734
 20
-82.332626
 11
121.692749
 21
-82.332626
  0
LINE
  8
0
 10
124.731499
 20
-79.032608
 11
124.731499
 21
-83.032608
  0
LINE
  8
0
 10
125.466118
 20
-78.332611
 11
125.466118
 21
-82.332611
  0
LINE
  8
0
 10
125.466110
 20
-78.332611
 11
124.192734
 21
-78.332611
  0
LINE
  8
0
 10
109.131317
 20
-82.332626
 11
106.631317
 21
-82.332626
  0
LINE
  8
0
 10
117.631294
 20
-84.532639
 11
117.631294
 21
-86.532608
  0
LINE
  8
0
 10
120.331314
 20
-84.032639
 11
106.631317
 21
-84.032639
  0
LINE
  8
0
 10
95.631294
 20
-84.532639
 11
95.631294
 21
-86.532623
  0
LINE
  8
0
 10
92.931320
 20
-84.032639
 11
106.631317
 21
-84.032639
  0
LINE
  8
0
 10
116.062889
 20
-84.032608
 11
116.062889
 21
-86.532608
  0
LINE
  8
0
 10
108.199684
 20
-84.032623
 11
108.199684
 21
-86.532623
  0
LINE
  8
0
 10
105.062889
 20
-84.032623
 11
105.062889
 21
-86.532623
  0
LINE
  8
0
 10
97.199684
 20
-84.032623
 11
97.199684
 21
-86.532608
  0
LINE
  8
0
 10
120.831291
 20
-83.332642
 11
120.831291
 21
-83.532608
  0
LINE
  8
0
 10
92.431282
 20
-83.332642
 11
92.431282
 21
-83.532639
  0
LINE
  8
0
 10
92.931320
 20
-86.532623
 11
120.331329
 21
-86.532623
  0
LINE
  8
0
 10
95.031326
 20
-111.532639
 11
118.231339
 21
-111.532639
  0
LINE
  8
0
 10
119.231285
 20
-109.532539
 11
120.231323
 21
-108.955170
  0
LINE
  8
0
 10
93.031395
 20
-108.955170
 11
94.031387
 21
-109.532516
  0
LINE
  8
0
 10
94.031303
 20
-109.532639
 11
94.031303
 21
-110.532623
  0
LINE
  8
0
 10
119.231316
 20
-109.532608
 11
119.231316
 21
-110.532623
  0
LINE
  8
0
 10
120.818329
 20
-87.019608
 11
120.231369
 21
-108.955246
  0
LINE
  8
0
 10
92.444458
 20
-87.019623
 11
93.031441
 21
-108.955276
  0
LINE
  8
0
 10
92.931305
 20
-86.532623
 11
92.444336
 21
-87.019592
  0
LINE
  8
0
 10
120.331329
 20
-86.532608
 11
120.818314
 21
-87.019585
  0
LINE
  8
0
 10
109.631310
 20
-89.032646
 11
109.098221
 21
-108.955276
  0
LINE
  8
0
 10
103.631302
 20
-89.032623
 11
104.164413
 21
-108.955292
  0
LINE
  8
0
 10
93.031326
 20
-108.955276
 11
93.258408
 21
-108.955276
  0
LINE
  8
0
 10
92.820282
 20
-89.032623
 11
94.744125
 21
-89.032623
  0
LINE
  8
0
 10
94.031326
 20
-109.532623
 11
94.338272
 21
-109.532623
  0
LINE
  8
0
 10
92.444351
 20
-87.019592
 11
120.818298
 21
-87.019592
  0
LINE
  8
0
 10
109.631317
 20
-89.032623
 11
114.275864
 21
-89.032623
  0
LINE
  8
0
 10
93.677917
 20
-89.484741
 11
94.759583
 21
-89.484741
  0
LINE
  8
0
 10
109.861115
 20
-89.484741
 11
113.506943
 21
-89.484741
  0
LINE
  8
0
 10
104.156456
 20
-108.955284
 11
103.867104
 21
-109.532639
  0
LINE
  8
0
 10
99.893433
 20
-109.532700
 11
98.925247
 21
-108.955353
  0
LINE
  8
0
 10
95.425255
 20
-108.955215
 11
95.984238
 21
-109.532562
  0
LINE
  8
0
 10
94.338280
 20
-109.532593
 11
93.258415
 21
-108.955246
  0
LINE
  8
0
 10
98.986801
 20
-89.032532
 11
99.755730
 21
-89.484657
  0
LINE
  8
0
 10
92.820297
 20
-89.032608
 11
93.677917
 21
-89.484726
  0
LINE
  8
0
 10
103.631310
 20
-89.032623
 11
103.401512
 21
-89.484764
  0
LINE
  8
0
 10
103.401489
 20
-89.484756
 11
103.867081
 21
-109.532654
  0
LINE
  8
0
 10
99.755707
 20
-89.484749
 11
99.893433
 21
-109.532631
  0
LINE
  8
0
 10
98.986755
 20
-89.032639
 11
98.925224
 21
-108.955292
  0
LINE
  8
0
 10
95.425354
 20
-108.955246
 11
94.744232
 21
-89.032608
  0
LINE
  8
0
 10
94.338173
 20
-109.532654
 11
93.677803
 21
-89.484772
  0
LINE
  8
0
 10
92.820274
 20
-89.032623
 11
93.258400
 21
-108.955284
  0
LINE
  8
0
 10
109.861122
 20
-89.484741
 11
109.395561
 21
-109.532616
  0
LINE
  8
0
 10
109.106163
 20
-108.955261
 11
109.395523
 21
-109.532623
  0
LINE
  8
0
 10
109.631279
 20
-89.032669
 11
109.861069
 21
-89.484787
  0
LINE
  8
0
 10
113.506966
 20
-89.484741
 11
113.369263
 21
-109.532639
  0
LINE
  8
0
 10
114.275864
 20
-89.032616
 11
114.337418
 21
-108.955254
  0
LINE
  8
0
 10
117.837433
 20
-108.955284
 11
118.518539
 21
-89.032623
  0
LINE
  8
0
 10
118.924355
 20
-109.532623
 11
119.584702
 21
-89.484741
  0
LINE
  8
0
 10
120.442390
 20
-89.032623
 11
120.004295
 21
-108.955261
  0
LINE
  8
0
 10
120.442345
 20
-89.032639
 11
119.584740
 21
-89.484756
  0
LINE
  8
0
 10
114.275864
 20
-89.032539
 11
113.506920
 21
-89.484680
  0
LINE
  8
0
 10
113.369240
 20
-109.532654
 11
114.337433
 21
-108.955292
  0
LINE
  8
0
 10
117.837341
 20
-108.955154
 11
117.278366
 21
-109.532501
  0
LINE
  8
0
 10
118.924370
 20
-109.532562
 11
120.004227
 21
-108.955215
  0
LINE
  8
0
 10
104.156479
 20
-108.955276
 11
109.106201
 21
-108.955276
  0
LINE
  8
0
 10
114.337418
 20
-108.955276
 11
117.837418
 21
-108.955276
  0
LINE
  8
0
 10
120.004257
 20
-108.955276
 11
120.231339
 21
-108.955276
  0
LINE
  8
0
 10
95.425247
 20
-108.955276
 11
98.925247
 21
-108.955276
  0
LINE
  8
0
 10
99.755707
 20
-89.484741
 11
103.401520
 21
-89.484741
  0
LINE
  8
0
 10
98.986771
 20
-89.032623
 11
103.631317
 21
-89.032623
  0
LINE
  8
0
 10
118.503052
 20
-89.484741
 11
119.584732
 21
-89.484741
  0
LINE
  8
0
 10
118.518509
 20
-89.032623
 11
120.442352
 21
-89.032623
  0
LINE
  8
0
 10
103.867111
 20
-109.532623
 11
109.395554
 21
-109.532623
  0
LINE
  8
0
 10
113.369247
 20
-109.532623
 11
117.278427
 21
-109.532623
  0
LINE
  8
0
 10
118.924393
 20
-109.532623
 11
119.231339
 21
-109.532623
  0
LINE
  8
0
 10
95.984238
 20
-109.532623
 11
99.893417
 21
-109.532623
  0
LINE
  8
0
 10
49.631306
 20
-73.032654
 11
70.131287
 21
-73.032654
  0
LINE
  8
0
 10
47.131165
 20
-30.782501
 11
46.631153
 21
-31.282513
  0
LINE
  8
0
 10
47.131248
 20
-73.282616
 11
46.631260
 21
-72.782623
  0
LINE
  8
0
 10
86.631317
 20
-46.310112
 11
80.631317
 21
-46.122612
  0
LINE
  8
0
 10
86.631348
 20
-58.611156
 11
80.631348
 21
-58.798653
  0
LINE
  8
0
 10
80.631317
 20
-45.032639
 11
80.631317
 21
-59.032639
  0
LINE
  8
0
 10
86.631287
 20
-45.454144
 11
80.631287
 21
-45.266640
  0
LINE
  8
0
 10
86.631317
 20
-57.755157
 11
80.631317
 21
-57.942657
  0
LINE
  8
0
 10
49.631306
 20
-31.032669
 11
70.131317
 21
-31.032669
  0
LINE
  8
0
 10
46.631313
 20
-31.282639
 11
46.631313
 21
-72.782639
  0
LINE
  8
0
 10
47.131306
 20
-73.282654
 11
49.631306
 21
-73.282654
  0
LINE
  8
0
 10
47.131313
 20
-30.782669
 11
47.131313
 21
-73.282654
  0
LINE
  8
0
 10
73.131317
 20
-34.032608
 11
73.131317
 21
-70.032623
  0
LINE
  8
0
 10
49.631313
 20
-30.782669
 11
49.631313
 21
-73.282654
  0
LINE
  8
0
 10
80.631317
 20
-59.032639
 11
73.131279
 21
-59.032639
  0
LINE
  8
0
 10
80.631317
 20
-45.032654
 11
73.131279
 21
-45.032654
  0
LINE
  8
0
 10
80.631287
 20
-59.032608
 11
73.131310
 21
-45.032623
  0
LINE
  8
0
 10
73.131317
 20
-59.032616
 11
80.631310
 21
-45.032627
  0
LINE
  8
0
 10
47.131306
 20
-30.782669
 11
49.631306
 21
-30.782669
  0
LINE
  8
0
 10
47.131371
 20
-30.782707
 11
46.631371
 21
-31.282707
  0
LINE
  8
0
 10
128.301315
 20
-46.636242
 11
128.301315
 21
-57.429035
  0
LINE
  8
0
 10
127.601334
 20
-58.641438
 11
128.301315
 21
-57.429039
  0
LINE
  8
0
 10
127.601334
 20
-45.423840
 11
128.301315
 21
-46.636238
  0
LINE
  8
0
 10
127.601334
 20
-58.641438
 11
126.631310
 21
-58.611137
  0
LINE
  8
0
 10
126.631310
 20
-57.755138
 11
128.086761
 21
-57.800636
  0
LINE
  8
0
 10
126.631310
 20
-46.310139
 11
128.086761
 21
-46.264641
  0
LINE
  8
0
 10
126.631310
 20
-45.454140
 11
127.601334
 21
-45.423840
  0
LINE
  8
0
 10
127.601334
 20
-45.423840
 11
127.601334
 21
-58.641438
  0
LINE
  8
0
 10
47.131313
 20
-52.032639
 11
49.631313
 21
-52.032639
  0
LINE
  8
0
 10
47.131313
 20
-55.032639
 11
49.631313
 21
-55.032639
  0
LINE
  8
0
 10
47.131313
 20
-49.032639
 11
49.631313
 21
-49.032639
  0
LINE
  8
0
 10
47.131313
 20
-46.032639
 11
49.631313
 21
-46.032639
  0
LINE
  8
0
 10
47.131313
 20
-58.032639
 11
49.631313
 21
-58.032639
  0
LINE
  8
0
 10
47.131313
 20
-43.032639
 11
49.631313
 21
-43.032639
  0
LINE
  8
0
 10
47.131313
 20
-61.032639
 11
49.631313
 21
-61.032639
  0
LINE
  8
0
 10
47.131313
 20
-40.032639
 11
49.631313
 21
-40.032639
  0
LINE
  8
0
 10
47.131313
 20
-64.032639
 11
49.631313
 21
-64.032639
  0
LINE
  8
0
 10
47.131313
 20
-37.032639
 11
49.631313
 21
-37.032639
  0
LINE
  8
0
 10
47.131313
 20
-67.032639
 11
49.631313
 21
-67.032639
  0
LINE
  8
0
 10
47.131313
 20
-34.032639
 11
49.631313
 21
-34.032639
  0
LINE
  8
0
 10
47.131313
 20
-70.032639
 11
49.631313
 21
-70.032639
  0
LINE
  8
0
 10
47.131313
 20
-31.032639
 11
49.631313
 21
-31.032639
  0
LINE
  8
0
 10
47.131313
 20
-73.032639
 11
49.631313
 21
-73.032639
  0
LINE
  8
0
 10
144.331299
 20
-97.032608
 11
146.631317
 21
-97.032608
  0
LINE
  8
0
 10
144.331299
 20
-97.032608
 11
144.331299
 21
-77.832642
  0
LINE
  8
0
 10
144.331299
 20
-94.032608
 11
146.631317
 21
-94.032608
  0
LINE
  8
0
 10
146.631317
 20
-97.032608
 11
146.631317
 21
-77.832603
  0
LINE
  8
0
 10
125.631294
 20
-76.332642
 11
142.831299
 21
-76.332642
  0
LINE
  8
0
 10
86.831314
 20
-74.032608
 11
142.831299
 21
-74.032608
  0
LINE
  8
0
 10
121.631310
 20
-74.032608
 11
121.631310
 21
-76.332642
  0
LINE
  8
0
 10
120.881310
 20
-76.332642
 11
120.881310
 21
-74.032608
  0
LINE
  8
0
 10
92.381310
 20
-76.332642
 11
92.381310
 21
-74.032608
  0
LINE
  8
0
 10
91.631310
 20
-74.032608
 11
91.631310
 21
-76.332642
  0
CIRCLE
  8
0
 10
106.631310
 20
-52.032639
 40
10.250000
  0
ARC
  8
0
 10
90.631294
 20
-41.032639
 40
1.000000
 50
270.000000
 51
0.000000
  0
ARC
  8
0
 10
90.631294
 20
-63.032639
 40
1.000000
 50
0.000000
 51
90.000000
  0
ARC
  8
0
 10
122.631310
 20
-41.032639
 40
1.000000
 50
180.000000
 51
270.000000
  0
ARC
  8
0
 10
122.631310
 20
-63.032639
 40
1.000000
 50
90.000000
 51
180.000000
  0
ARC
  8
0
 10
118.231339
 20
-110.532623
 40
1.000000
 50
270.000000
 51
0.000000
  0
ARC
  8
0
 10
118.131317
 20
-84.532623
 40
0.500000
 50
90.000000
 51
180.000000
  0
ARC
  8
0
 10
120.331314
 20
-83.532608
 40
0.500000
 50
270.000000
 51
0.000000
  0
ARC
  8
0
 10
95.131317
 20
-84.532639
 40
0.500000
 50
0.000000
 51
90.000000
  0
ARC
  8
0
 10
92.931320
 20
-83.532639
 40
0.500000
 50
180.000000
 51
270.000000
  0
ARC
  8
0
 10
95.031326
 20
-110.532639
 40
1.000000
 50
180.000000
 51
270.000000
  0
ARC
  8
0
 10
70.131287
 20
-70.032623
 40
3.000000
 50
270.000000
 51
0.000000
  0
ARC
  8
0
 10
70.131340
 20
-34.032639
 40
3.000000
 50
0.000000
 51
90.000000
  0
CIRCLE
  8
0
 10
106.631310
 20
-52.032639
 40
6.578500
  0
CIRCLE
  8
0
 10
106.631310
 20
-52.032639
 40
5.722500
  0
ARC
  8
0
 10
142.831299
 20
-77.832603
 40
3.800003
 50
359.999878
 51
89.999771
  0
ARC
  8
0
 10
142.831299
 20
-77.832642
 40
1.500000
 50
0.000000
 51
90.000000
  0
ARC
  8
0
 10
89.131310
 20
-74.032639
 40
2.299995
 50
180.000000
 51
270.000000
  0
POINT
  8
0
 10
-83.368690
 20
67.967361
  0
POINT
  8
0
 10
-27.368675
 20
67.967361
  0
LINE
  8
0
 10
-55.368690
 20
110.241959
 11
-55.368690
 21
43.847916
  0
LINE
  8
0
 10
-89.368690
 20
67.967361
 11
-20.368683
 21
67.967361
  0
LINE
  8
0
 10
-83.368690
 20
81.967392
 11
-83.368690
 21
53.967361
  0
LINE
  8
0
 10
-27.368675
 20
81.967392
 11
-27.368675
 21
53.967361
  0
LINE
  8
0
 10
-82.368690
 20
52.967361
 11
-28.368690
 21
52.967361
  0
LINE
  8
0
 10
-82.368690
 20
82.967361
 11
-28.368690
 21
82.967361
  0
LINE
  8
0
 10
-83.368690
 20
81.967316
 11
-82.368683
 21
82.967323
  0
LINE
  8
0
 10
-83.368675
 20
53.967361
 11
-82.368675
 21
52.967361
  0
LINE
  8
0
 10
-28.368671
 20
52.967354
 11
-27.368671
 21
53.967354
  0
LINE
  8
0
 10
-28.368679
 20
82.967331
 11
-27.368675
 21
81.967331
  0
LINE
  8
0
 10
-43.368690
 20
91.128159
 11
-43.368690
 21
79.514572
  0
LINE
  8
0
 10
-52.368690
 20
47.967361
 11
-34.368690
 21
47.967361
  0
LINE
  8
0
 10
-52.368690
 20
87.967361
 11
-34.368690
 21
87.967361
  0
LINE
  8
0
 10
-53.368690
 20
86.967392
 11
-53.368690
 21
83.967361
  0
LINE
  8
0
 10
-33.368690
 20
86.967392
 11
-33.368690
 21
83.967361
  0
LINE
  8
0
 10
-53.368599
 20
86.967285
 11
-52.368595
 21
87.967285
  0
LINE
  8
0
 10
-34.368675
 20
87.967323
 11
-33.368694
 21
86.967346
  0
LINE
  8
0
 10
-53.368698
 20
48.967369
 11
-52.368717
 21
47.967388
  0
LINE
  8
0
 10
-34.368664
 20
47.967331
 11
-33.368660
 21
48.967331
  0
LINE
  8
0
 10
-53.368690
 20
51.967392
 11
-53.368690
 21
48.967361
  0
LINE
  8
0
 10
-33.368690
 20
51.967392
 11
-33.368690
 21
48.967361
  0
LINE
  8
0
 10
-53.368690
 20
86.967392
 11
-33.368690
 21
86.967392
  0
LINE
  8
0
 10
-53.368690
 20
48.967361
 11
-33.368690
 21
48.967361
  0
LINE
  8
0
 10
-82.368675
 20
82.967361
 11
-82.368675
 21
52.967361
  0
LINE
  8
0
 10
-28.368690
 20
52.967361
 11
-28.368690
 21
82.967361
  0
LINE
  8
0
 10
-83.368690
 20
81.967392
 11
-27.368690
 21
81.967392
  0
LINE
  8
0
 10
-83.368690
 20
53.967392
 11
-27.368690
 21
53.967392
  0
LINE
  8
0
 10
-48.070576
 20
79.086243
 11
-47.396137
 21
79.475632
  0
LINE
  8
0
 10
-43.860722
 20
75.940086
 11
-44.250103
 21
75.265656
  0
LINE
  8
0
 10
-58.070248
 20
80.990089
 11
-57.868675
 21
81.742363
  0
LINE
  8
0
 10
-52.868683
 20
81.742340
 11
-52.667122
 21
80.990097
  0
LINE
  8
0
 10
-66.487419
 20
75.265526
 11
-66.876808
 21
75.939964
  0
LINE
  8
0
 10
-63.341316
 20
79.475494
 11
-62.666878
 21
79.086105
  0
LINE
  8
0
 10
-68.391388
 20
65.265823
 11
-69.143661
 21
65.467400
  0
LINE
  8
0
 10
-69.143661
 20
70.467407
 11
-68.391426
 21
70.668968
  0
LINE
  8
0
 10
-62.666866
 20
56.848625
 11
-63.341309
 21
56.459236
  0
LINE
  8
0
 10
-66.876862
 20
59.994801
 11
-66.487465
 21
60.669254
  0
LINE
  8
0
 10
-52.667183
 20
54.944668
 11
-52.868752
 21
54.192398
  0
LINE
  8
0
 10
-57.868706
 20
54.192413
 11
-58.070267
 21
54.944656
  0
LINE
  8
0
 10
-44.249916
 20
60.669212
 11
-43.860527
 21
59.994770
  0
LINE
  8
0
 10
-47.395988
 20
56.459320
 11
-48.070457
 21
56.848724
  0
LINE
  8
0
 10
-42.345940
 20
70.669014
 11
-41.593697
 21
70.467445
  0
LINE
  8
0
 10
-41.593754
 20
65.467514
 11
-42.345993
 21
65.265953
  0
LINE
  8
0
 10
-80.868690
 20
70.467361
 11
-80.868690
 21
65.467361
  0
LINE
  8
0
 10
-80.868690
 20
70.467392
 11
-74.000000
 21
67.967392
  0
LINE
  8
0
 10
-80.868675
 20
65.467369
 11
-73.999985
 21
67.967369
  0
LINE
  8
0
 10
-43.368690
 20
56.181259
 11
-43.368690
 21
5.279800
  0
LINE
  8
0
 10
-82.368690
 20
107.967361
 11
-28.368690
 21
107.967361
  0
LINE
  8
0
 10
-82.368675
 20
107.967361
 11
-82.368675
 21
105.667374
  0
LINE
  8
0
 10
-28.368690
 20
107.967361
 11
-28.368690
 21
105.667374
  0
LINE
  8
0
 10
-82.368668
 20
105.667374
 11
-78.366043
 21
82.967392
  0
LINE
  8
0
 10
-32.371319
 20
82.967392
 11
-28.368698
 21
105.667374
  0
LINE
  8
0
 10
-73.868675
 20
110.241959
 11
-73.868675
 21
102.575302
  0
LINE
  8
0
 10
-36.868690
 20
110.241959
 11
-36.868690
 21
101.575272
  0
LINE
  8
0
 10
-22.368675
 20
10.967392
 11
-22.368675
 21
31.467361
  0
LINE
  8
0
 10
-64.618759
 20
8.467262
 11
-64.118744
 21
7.967251
  0
LINE
  8
0
 10
-22.118698
 20
8.467377
 11
-22.618687
 21
7.967388
  0
LINE
  8
0
 10
-49.091190
 20
47.967407
 11
-49.278687
 21
41.967407
  0
LINE
  8
0
 10
-36.790184
 20
47.967445
 11
-36.602684
 21
41.967476
  0
LINE
  8
0
 10
-50.368675
 20
41.967392
 11
-36.368690
 21
41.967392
  0
LINE
  8
0
 10
-49.947159
 20
47.967350
 11
-50.134655
 21
41.967381
  0
LINE
  8
0
 10
-37.646164
 20
47.967354
 11
-37.458660
 21
41.967354
  0
LINE
  8
0
 10
-64.368675
 20
10.967392
 11
-64.368675
 21
31.467392
  0
LINE
  8
0
 10
-64.118629
 20
7.967392
 11
-22.618660
 21
7.967392
  0
LINE
  8
0
 10
-22.118660
 20
8.467392
 11
-22.118660
 21
10.967392
  0
LINE
  8
0
 10
-64.618645
 20
8.467361
 11
-22.118645
 21
8.467361
  0
LINE
  8
0
 10
-61.368690
 20
34.467392
 11
-25.368675
 21
34.467392
  0
LINE
  8
0
 10
-64.618645
 20
10.967361
 11
-22.118645
 21
10.967361
  0
LINE
  8
0
 10
-36.368660
 20
41.967392
 11
-36.368660
 21
34.467361
  0
LINE
  8
0
 10
-50.368675
 20
41.967392
 11
-50.368675
 21
34.467361
  0
LINE
  8
0
 10
-36.368717
 20
41.967384
 11
-50.368694
 21
34.467392
  0
LINE
  8
0
 10
-36.368687
 20
34.467396
 11
-50.368694
 21
41.967392
  0
LINE
  8
0
 10
-64.618660
 20
8.467392
 11
-64.618660
 21
10.967392
  0
LINE
  8
0
 10
-64.618614
 20
8.467407
 11
-64.118607
 21
7.967396
  0
LINE
  8
0
 10
-48.765091
 20
89.637360
 11
-37.972290
 21
89.637360
  0
LINE
  8
0
 10
-49.977489
 20
88.937378
 11
-48.765091
 21
89.637360
  0
LINE
  8
0
 10
-37.972290
 20
89.637360
 11
-36.759892
 21
88.937386
  0
LINE
  8
0
 10
-49.977489
 20
88.937386
 11
-49.947189
 21
87.967361
  0
LINE
  8
0
 10
-49.091194
 20
87.967361
 11
-49.136696
 21
89.422821
  0
LINE
  8
0
 10
-37.600693
 20
89.422821
 11
-37.646194
 21
87.967361
  0
LINE
  8
0
 10
-36.759892
 20
88.937378
 11
-36.790192
 21
87.967361
  0
LINE
  8
0
 10
-49.977489
 20
88.937386
 11
-36.759892
 21
88.937378
  0
LINE
  8
0
 10
-43.368690
 20
10.967361
 11
-43.368690
 21
8.467361
  0
LINE
  8
0
 10
-40.368690
 20
10.967361
 11
-40.368690
 21
8.467361
  0
LINE
  8
0
 10
-46.368690
 20
10.967361
 11
-46.368690
 21
8.467361
  0
LINE
  8
0
 10
-37.368690
 20
10.967361
 11
-37.368690
 21
8.467361
  0
LINE
  8
0
 10
-49.368690
 20
10.967361
 11
-49.368690
 21
8.467361
  0
LINE
  8
0
 10
-34.368690
 20
10.967361
 11
-34.368690
 21
8.467361
  0
LINE
  8
0
 10
-52.368690
 20
10.967361
 11
-52.368690
 21
8.467361
  0
LINE
  8
0
 10
-31.368690
 20
10.967361
 11
-31.368690
 21
8.467361
  0
LINE
  8
0
 10
-55.368690
 20
10.967361
 11
-55.368690
 21
8.467361
  0
LINE
  8
0
 10
-28.368690
 20
10.967361
 11
-28.368690
 21
8.467361
  0
LINE
  8
0
 10
-58.368690
 20
10.967361
 11
-58.368690
 21
8.467361
  0
LINE
  8
0
 10
-25.368690
 20
10.967361
 11
-25.368690
 21
8.467361
  0
LINE
  8
0
 10
-61.368690
 20
10.967361
 11
-61.368690
 21
8.467361
  0
LINE
  8
0
 10
-22.368690
 20
10.967361
 11
-22.368690
 21
8.467361
  0
LINE
  8
0
 10
-64.368690
 20
10.967361
 11
-64.368690
 21
8.467361
  0
CIRCLE
  8
0
 10
-55.368690
 20
67.967361
 40
14.000000
  0
ARC
  8
0
 10
-54.368690
 20
83.967392
 40
1.000000
 50
270.000000
 51
0.000000
  0
ARC
  8
0
 10
-32.368675
 20
83.967392
 40
1.000000
 50
180.000000
 51
270.000000
  0
ARC
  8
0
 10
-32.368675
 20
51.967392
 40
1.000000
 50
90.000000
 51
180.000000
  0
ARC
  8
0
 10
-54.368690
 20
51.967392
 40
1.000000
 50
0.000000
 51
90.000000
  0
ARC
  8
0
 10
-55.368690
 20
67.967361
 40
13.300002
 50
56.719772
 51
78.280235
  0
ARC
  8
0
 10
-55.368690
 20
67.967361
 40
13.300004
 50
101.719780
 51
123.280243
  0
ARC
  8
0
 10
-55.368690
 20
67.967361
 40
13.300000
 50
146.719788
 51
168.280243
  0
ARC
  8
0
 10
-55.368690
 20
67.967361
 40
13.299997
 50
191.719788
 51
213.280243
  0
ARC
  8
0
 10
-55.368690
 20
67.967361
 40
13.300000
 50
236.719788
 51
258.280243
  0
ARC
  8
0
 10
-55.368690
 20
67.967361
 40
13.300000
 50
281.719788
 51
303.280243
  0
ARC
  8
0
 10
-55.368690
 20
67.967361
 40
13.300000
 50
326.719788
 51
348.280243
  0
ARC
  8
0
 10
-55.368690
 20
67.967361
 40
13.300000
 50
11.719787
 51
33.280251
  0
CIRCLE
  8
0
 10
-55.368690
 20
67.967361
 40
13.000001
  0
CIRCLE
  8
0
 10
-55.368690
 20
67.967361
 40
12.000000
  0
CIRCLE
  8
0
 10
-55.368690
 20
67.967361
 40
10.000000
  0
CIRCLE
  8
0
 10
-55.368690
 20
67.967361
 40
4.250000
  0
ARC
  8
0
 10
-55.368690
 20
67.967361
 40
19.500000
 50
83.057503
 51
129.715164
  0
ARC
  8
0
 10
-55.368690
 20
67.967361
 40
18.499996
 50
83.793732
 51
125.824783
  0
ARC
  8
0
 10
-55.368690
 20
67.967361
 40
19.499998
 50
230.284851
 51
276.942505
  0
ARC
  8
0
 10
-55.368690
 20
67.967361
 40
18.500004
 50
234.175217
 51
276.206268
  0
ARC
  8
0
 10
-25.368675
 20
31.467361
 40
3.000000
 50
0.000073
 51
90.000076
  0
ARC
  8
0
 10
-61.368660
 20
31.467392
 40
3.000000
 50
90.000000
 51
180.000076
  0
ENDSEC
  0
EOF
