  0
SECTION
  2
HEADER
  0
ENDSEC
  0
SECTION
  2
TABLES
  0
TABLE
  2
LTYPE
 70
     4
  0
LTYPE
  2
CONTINUOUS
 70
    64
  3
Solid line
 72
    65
 73
     0
 40
0.000000
  0
LTYPE
  2
DASHED
 70
    64
  3
__ __ __ __ __ __ __ __ __ __ __ __ __ __ __
 72
    65
 73
     2
 40
3.500000
 49
2.000000
 49
-1.500000
  0
LTYPE
  2
CENTER
 70
    64
  3
____ _ ____ _ ____ _ ____ _ ____ _ ____ _ ____
 72
    65
 73
     4
 40
17.500000
 49
13.000000
 49
-1.500000
 49
1.500000
 49
-1.500000
  0
LTYPE
  2
PHANTOM
 70
    64
  3
_____ _ _ _____ _ _ _____ _ _ _____ _ _ ____  
 72
    65
 73
     6
 40
15.500000
 49
8.000000
 49
-1.500000
 49
1.500000
 49
-1.500000
 49
1.500000
 49
-1.500000
  0
LTYPE
  2
DASHED1
 70
    64
  3
__ __ __ __ __ __ __ __ __ __ __ __ __ __ __
 72
    65
 73
     2
 40
1.500000
 49
1.000000
 49
-0.500000
  0
LTYPE
  2
DASHED2
 70
    64
  3
__ __ __ __ __ __ __ __ __ __ __ __ __ __ __
 72
    65
 73
     2
 40
3.500000
 49
2.500000
 49
-1.000000
  0
LTYPE
  2
DASHED3
 70
    64
  3
__ __ __ __ __ __ __ __ __ __ __ __ __ __ __
 72
    65
 73
     2
 40
6.000000
 49
4.000000
 49
-2.000000
  0
LTYPE
  2
DASHED4
 70
    64
  3
__ __ __ __ __ __ __ __ __ __ __ __ __ __ __
 72
    65
 73
     2
 40
12.000000
 49
10.000000
 49
-2.000000
  0
LTYPE
  2
DASHED5
 70
    64
  3
__ __ __ __ __ __ __ __ __ __ __ __ __ __ __
 72
    65
 73
     2
 40
17.000000
 49
15.000000
 49
-2.000000
  0
LTYPE
  2
DASHED6
 70
    64
  3
__ __ __ __ __ __ __ __ __ __ __ __ __ __ __
 72
    65
 73
     2
 40
29.000000
 49
27.000000
 49
-2.000000
  0
LTYPE
  2
PHANTOM1
 70
    64
  3
_____ _ _ _____ _ _ _____ _ _ _____ _ _ ____  
 72
    65
 73
     6
 40
31.000000
 49
25.000000
 49
-1.500000
 49
1.000000
 49
-1.000000
 49
1.000000
 49
-1.500000
  0
LTYPE
  2
PHANTOM2
 70
    64
  3
_____ _ _ _____ _ _ _____ _ _ _____ _ _ ____  
 72
    65
 73
     6
 40
36.000000
 49
27.000000
 49
-1.500000
 49
2.500000
 49
-1.000000
 49
2.500000
 49
-1.500000
  0
LTYPE
  2
PHANTOM3
 70
    64
  3
_____ _ _ _____ _ _ _____ _ _ _____ _ _ ____  
 72
    65
 73
     6
 40
78.000000
 49
64.000000
 49
-2.000000
 49
4.000000
 49
-2.000000
 49
4.000000
 49
-2.000000
  0
LTYPE
  2
CENTER1
 70
    64
  3
____ _ ____ _ ____ _ ____ _ ____ _ ____ _ ____
 72
    65
 73
     4
 40
19.000000
 49
14.000000
 49
-1.000000
 49
3.000000
 49
-1.000000
  0
LTYPE
  2
CENTER2
 70
    64
  3
____ _ ____ _ ____ _ ____ _ ____ _ ____ _ ____
 72
    65
 73
     4
 40
28.500000
 49
25.000000
 49
-1.000000
 49
1.500000
 49
-1.000000
  0
LTYPE
  2
CENTER3
 70
    64
  3
____ _ ____ _ ____ _ ____ _ ____ _ ____ _ ____
 72
    65
 73
     4
 40
31.500000
 49
27.000000
 49
-1.000000
 49
2.500000
 49
-1.000000
  0
LTYPE
  2
CENTER4
 70
    64
  3
____ _ ____ _ ____ _ ____ _ ____ _ ____ _ ____
 72
    65
 73
     4
 40
50.000000
 49
45.000000
 49
-1.000000
 49
3.000000
 49
-1.000000
  0
LTYPE
  2
CENTER5
 70
    64
  3
____ _ ____ _ ____ _ ____ _ ____ _ ____ _ ____
 72
    65
 73
     4
 40
100.000000
 49
92.000000
 49
-2.000000
 49
4.000000
 49
-2.000000
  0
LTYPE
  2
SBK1
 70
    64
  3
______ _ _ _ ______ _ _ _ ______ _ _ _ _____  
 72
    65
 73
     8
 40
60.500000
 49
45.000000
 49
-2.000000
 49
2.500000
 49
-2.000000
 49
2.500000
 49
-2.000000
 49
2.500000
 49
-2.000000
  0
LTYPE
  2
SBK2
 70
    64
  3
______ _ _ _ ______ _ _ _ ______ _ _ _ _____  
 72
    65
 73
     8
 40
84.000000
 49
64.000000
 49
-2.000000
 49
4.000000
 49
-2.000000
 49
4.000000
 49
-2.000000
 49
4.000000
 49
-2.000000
  0
LTYPE
  2
STCH
 70
    64
  3
__ __ __ __ __ __ __ __ __ __ __ __ __ __ __
 72
    65
 73
     2
 40
3.000000
 49
1.000000
 49
-2.000000
  0
LTYPE
  2
MTCH
 70
    64
  3
_____ _ _ _____ _ _ _____ _ _ _____ _ _ ____  
 72
    65
 73
     6
 40
80.000000
 49
66.000000
 49
-2.000000
 49
4.000000
 49
-2.000000
 49
4.000000
 49
-2.000000
  0
ENDTAB
  0
TABLE
  2
LAYER
 70
     1
  0
LAYER
  2
0
 70
     0
 62
     7
  6
CONTINUOUS
  0
ENDTAB
  0
TABLE
  2
STYLE
 70
     1
  0
STYLE
  2
STANDARD
 70
     0
 40
0.000000
 41
1.000000
 50
0.000000
 71
     0
 42
0.200000
  3
txt
  4
BIGFONT
  0
ENDTAB
  0
TABLE
  2
VIEW
 70
     0
  0
ENDTAB
  0
ENDSEC
  0
SECTION
  2
BLOCKS
  0
ENDSEC
  0
SECTION
  2
ENTITIES
  0
LINE
  8
0
 10
-194.250000
 20
132.600006
 11
194.800003
 21
132.600006
  0
LINE
  8
0
 10
194.800003
 20
132.600006
 11
194.800003
 21
-133.500000
  0
LINE
  8
0
 10
-194.250000
 20
132.600006
 11
-194.250000
 21
-133.500000
  0
LINE
  8
0
 10
-194.250000
 20
-133.500000
 11
194.800003
 21
-133.500000
  0
LINE
  8
0
 10
210.000000
 20
148.500000
 11
210.000000
 21
-148.500000
  0
LINE
  8
0
 10
-210.000000
 20
148.500000
 11
-210.000000
 21
-148.500000
  0
LINE
  8
0
 10
-210.000000
 20
148.500000
 11
210.000000
 21
148.500000
  0
LINE
  8
0
 10
-210.000000
 20
-148.500000
 11
210.000000
 21
-148.500000
  0
LINE
  8
0
 10
109.800003
 20
-118.500000
 11
109.800003
 21
-133.500000
  0
LINE
  8
0
 10
109.800003
 20
-118.500000
 11
194.800003
 21
-118.500000
  0
LINE
  8
0
 10
109.800003
 20
132.600006
 11
109.800003
 21
117.600006
  0
LINE
  8
0
 10
109.800003
 20
117.600006
 11
194.800003
 21
117.600006
  0
LINE
  8
0
 10
-194.250000
 20
117.600006
 11
-109.250000
 21
117.600006
  0
LINE
  8
0
 10
-109.250000
 20
132.600006
 11
-109.250000
 21
117.600006
  0
TEXT
  8
0
 10
115.907150
 20
122.050003
 40
4.500000
  1
DATE : SEP ,1992
 50
0.000000
 41
1.052631
 51
0.000000
  7
STANDARD
  0
TEXT
  8
0
 10
113.700279
 20
-130.669998
 40
6.300000
  1
KOGANEI CORP.
 50
0.000000
 41
1.052632
 51
0.000000
  7
STANDARD
  0
TEXT
  8
0
 10
-172.392654
 20
122.050003
 40
4.500000
  1
REGULATOR
 50
0.000000
 41
1.052632
 51
0.000000
  7
STANDARD
  0
TEXT
  8
0
 10
-179.000000
 20
105.900009
 40
4.500000
  1
MODEL : R150-01
 50
0.000000
 41
1.052632
 51
0.000000
  7
STANDARD
  0
POINT
  8
0
 10
-69.435455
 20
-44.829376
  0
POINT
  8
0
 10
-29.435455
 20
-44.829376
  0
LINE
  8
0
 10
-72.953400
 20
-44.829376
 11
-20.489563
 21
-44.829376
  0
LINE
  8
0
 10
-60.435455
 20
-31.329376
 11
-38.435455
 21
-31.329376
  0
LINE
  8
0
 10
-68.435455
 20
-34.829376
 11
-30.435455
 21
-34.829376
  0
LINE
  8
0
 10
-69.435455
 20
-35.829376
 11
-29.435455
 21
-35.829376
  0
LINE
  8
0
 10
-68.435455
 20
-68.829376
 11
-30.435455
 21
-68.829376
  0
LINE
  8
0
 10
-68.935455
 20
-68.329376
 11
-52.135468
 21
-68.329376
  0
LINE
  8
0
 10
-29.435455
 20
-35.829376
 11
-29.435455
 21
-53.829376
  0
LINE
  8
0
 10
-69.435455
 20
-35.829376
 11
-69.435455
 21
-53.829376
  0
LINE
  8
0
 10
-38.435455
 20
-31.329376
 11
-38.435455
 21
-34.829376
  0
LINE
  8
0
 10
-60.435455
 20
-31.329376
 11
-60.435455
 21
-34.829376
  0
LINE
  8
0
 10
-29.935455
 20
-54.329376
 11
-29.935455
 21
-68.329376
  0
LINE
  8
0
 10
-68.935455
 20
-54.329376
 11
-68.935455
 21
-68.329376
  0
LINE
  8
0
 10
-68.435318
 20
-34.829544
 11
-69.435303
 21
-35.829536
  0
LINE
  8
0
 10
-30.435452
 20
-34.829384
 11
-29.435429
 21
-35.829407
  0
LINE
  8
0
 10
-68.935486
 20
-68.329346
 11
-68.435493
 21
-68.829338
  0
LINE
  8
0
 10
-29.935387
 20
-68.329430
 11
-30.435375
 21
-68.829422
  0
LINE
  8
0
 10
-29.435383
 20
-53.829418
 11
-29.935383
 21
-54.329418
  0
LINE
  8
0
 10
-69.435463
 20
-53.829376
 11
-68.935425
 21
-54.329411
  0
LINE
  8
0
 10
-64.605865
 20
-53.629395
 11
-50.185211
 21
-53.629395
  0
LINE
  8
0
 10
-30.435421
 20
-54.829399
 11
-29.935421
 21
-54.329399
  0
LINE
  8
0
 10
-68.935471
 20
-54.329361
 11
-68.435478
 21
-54.829350
  0
LINE
  8
0
 10
-68.435455
 20
-34.829376
 11
-68.435455
 21
-54.829376
  0
LINE
  8
0
 10
-30.435425
 20
-34.829376
 11
-30.435425
 21
-54.829376
  0
LINE
  8
0
 10
-67.435455
 20
-37.829376
 11
-67.435455
 21
-51.829376
  0
LINE
  8
0
 10
-64.435455
 20
-37.829376
 11
-64.435455
 21
-51.829376
  0
LINE
  8
0
 10
-31.435455
 20
-37.829376
 11
-31.435455
 21
-51.829376
  0
LINE
  8
0
 10
-34.435455
 20
-37.829376
 11
-34.435455
 21
-51.829376
  0
LINE
  8
0
 10
-67.435455
 20
-37.829376
 11
-64.435455
 21
-37.829376
  0
LINE
  8
0
 10
-67.435455
 20
-51.829376
 11
-64.435455
 21
-51.829376
  0
LINE
  8
0
 10
-34.435455
 20
-37.829376
 11
-31.435455
 21
-37.829376
  0
LINE
  8
0
 10
-34.435455
 20
-51.829376
 11
-31.435455
 21
-51.829376
  0
LINE
  8
0
 10
-45.435455
 20
-21.821014
 11
-45.435455
 21
-68.431732
  0
LINE
  8
0
 10
-68.435455
 20
-54.829376
 11
-65.536652
 21
-54.829376
  0
LINE
  8
0
 10
-69.435455
 20
-53.829376
 11
-64.805878
 21
-53.829376
  0
LINE
  8
0
 10
-65.536514
 20
-54.829517
 11
-64.805702
 21
-53.829517
  0
LINE
  8
0
 10
-33.334175
 20
-54.829357
 11
-34.065010
 21
-53.829330
  0
LINE
  8
0
 10
-64.805855
 20
-53.829411
 11
-64.605858
 21
-53.629417
  0
LINE
  8
0
 10
-34.065071
 20
-53.829338
 11
-34.265026
 21
-53.629387
  0
LINE
  8
0
 10
-33.334229
 20
-54.829376
 11
-30.435455
 21
-54.829376
  0
LINE
  8
0
 10
-34.065033
 20
-53.829376
 11
-29.435455
 21
-53.829376
  0
LINE
  8
0
 10
-65.390533
 20
-54.629364
 11
-33.480377
 21
-54.629364
  0
LINE
  8
0
 10
-40.685730
 20
-53.629395
 11
-34.265015
 21
-53.629395
  0
LINE
  8
0
 10
-38.435455
 20
-31.329407
 11
-60.435455
 21
-31.329407
  0
LINE
  8
0
 10
-39.435455
 20
-27.329376
 11
-59.435455
 21
-27.329376
  0
LINE
  8
0
 10
-60.435516
 20
-31.329376
 11
-60.435516
 21
-28.329376
  0
LINE
  8
0
 10
-38.435516
 20
-31.329376
 11
-38.435516
 21
-28.329376
  0
LINE
  8
0
 10
-38.435486
 20
-28.329370
 11
-39.435467
 21
-27.329391
  0
LINE
  8
0
 10
-59.435390
 20
-27.329456
 11
-60.435394
 21
-28.329454
  0
LINE
  8
0
 10
-38.435455
 20
-30.329407
 11
-38.908447
 21
-30.329407
  0
LINE
  8
0
 10
-46.935516
 20
-30.329376
 11
-46.935516
 21
-28.329376
  0
LINE
  8
0
 10
-51.935516
 20
-30.329376
 11
-51.935516
 21
-28.329376
  0
LINE
  8
0
 10
-51.935455
 20
-30.329407
 11
-57.462433
 21
-30.329407
  0
LINE
  8
0
 10
-59.962563
 20
-30.056114
 11
-60.435562
 21
-30.329201
  0
LINE
  8
0
 10
-38.435455
 20
-30.329376
 11
-38.908485
 21
-30.056274
  0
LINE
  8
0
 10
-42.182861
 20
-29.925232
 11
-42.182861
 21
-27.629395
  0
LINE
  8
0
 10
-41.408478
 20
-30.329376
 11
-41.408478
 21
-28.329407
  0
LINE
  8
0
 10
-38.908478
 20
-30.329376
 11
-38.908478
 21
-28.329376
  0
LINE
  8
0
 10
-56.688141
 20
-29.925232
 11
-56.688141
 21
-27.629364
  0
LINE
  8
0
 10
-57.462494
 20
-30.329376
 11
-57.462494
 21
-28.329376
  0
LINE
  8
0
 10
-59.962494
 20
-30.329376
 11
-59.962494
 21
-28.329376
  0
LINE
  8
0
 10
-39.135468
 20
-27.629425
 11
-39.475311
 21
-27.629425
  0
LINE
  8
0
 10
-46.935539
 20
-30.329365
 11
-46.728050
 21
-29.925224
  0
LINE
  8
0
 10
-46.935474
 20
-28.329384
 11
-46.727985
 21
-27.629387
  0
LINE
  8
0
 10
-51.935452
 20
-30.329351
 11
-52.142937
 21
-29.925217
  0
LINE
  8
0
 10
-51.935471
 20
-28.329357
 11
-52.142956
 21
-27.629358
  0
LINE
  8
0
 10
-41.408550
 20
-30.329367
 11
-42.182907
 21
-29.925224
  0
LINE
  8
0
 10
-41.408463
 20
-28.329355
 11
-42.182800
 21
-27.629377
  0
LINE
  8
0
 10
-57.462440
 20
-30.329350
 11
-56.688087
 21
-29.925209
  0
LINE
  8
0
 10
-57.462223
 20
-28.329590
 11
-56.687859
 21
-27.629593
  0
LINE
  8
0
 10
-52.142975
 20
-29.925232
 11
-52.142975
 21
-27.629395
  0
LINE
  8
0
 10
-46.727997
 20
-29.925232
 11
-46.727997
 21
-27.629395
  0
LINE
  8
0
 10
-46.935455
 20
-28.329407
 11
-51.935455
 21
-28.329407
  0
LINE
  8
0
 10
-42.182831
 20
-29.925232
 11
-46.727997
 21
-29.925232
  0
LINE
  8
0
 10
-56.688080
 20
-29.925232
 11
-52.142914
 21
-29.925232
  0
LINE
  8
0
 10
-57.462433
 20
-28.329407
 11
-59.962433
 21
-28.329407
  0
LINE
  8
0
 10
-52.142914
 20
-27.629395
 11
-56.688080
 21
-27.629395
  0
LINE
  8
0
 10
-38.908478
 20
-28.329353
 11
-39.475353
 21
-27.629343
  0
LINE
  8
0
 10
-59.962502
 20
-28.329340
 11
-59.395638
 21
-27.629349
  0
LINE
  8
0
 10
-42.182800
 20
-27.629395
 11
-46.727997
 21
-27.629395
  0
LINE
  8
0
 10
-59.395538
 20
-27.629364
 11
-59.735443
 21
-27.629364
  0
LINE
  8
0
 10
-41.408447
 20
-30.329407
 11
-46.935455
 21
-30.329407
  0
LINE
  8
0
 10
-59.962433
 20
-30.329376
 11
-60.435455
 21
-30.329376
  0
LINE
  8
0
 10
-38.908447
 20
-28.329376
 11
-41.408447
 21
-28.329376
  0
LINE
  8
0
 10
-39.135468
 20
-27.629395
 11
-39.135468
 21
-28.049103
  0
LINE
  8
0
 10
-59.735443
 20
-27.629364
 11
-59.735443
 21
-28.049072
  0
LINE
  8
0
 10
-68.435455
 20
-68.829376
 11
-30.435455
 21
-68.829376
  0
LINE
  8
0
 10
-67.435455
 20
-77.829376
 11
-31.435455
 21
-77.829376
  0
LINE
  8
0
 10
-30.435425
 20
-70.829376
 11
-30.435425
 21
-76.829376
  0
LINE
  8
0
 10
-68.435455
 20
-70.829376
 11
-68.435455
 21
-76.829376
  0
LINE
  8
0
 10
-68.435455
 20
-76.829391
 11
-68.270233
 21
-76.829391
  0
LINE
  8
0
 10
-68.435455
 20
-72.829376
 11
-68.427887
 21
-72.829376
  0
LINE
  8
0
 10
-68.435364
 20
-76.829330
 11
-67.435387
 21
-77.829308
  0
LINE
  8
0
 10
-30.435371
 20
-76.829453
 11
-31.435371
 21
-77.829453
  0
LINE
  8
0
 10
-67.535675
 20
-73.529388
 11
-66.996857
 21
-73.529388
  0
LINE
  8
0
 10
-51.935455
 20
-72.829376
 11
-51.935455
 21
-76.829376
  0
LINE
  8
0
 10
-51.935356
 20
-72.829407
 11
-52.132195
 21
-73.529404
  0
LINE
  8
0
 10
-51.935371
 20
-76.829422
 11
-52.132210
 21
-77.529419
  0
LINE
  8
0
 10
-56.687752
 20
-72.829376
 11
-56.149982
 21
-73.529373
  0
LINE
  8
0
 10
-56.687778
 20
-76.829384
 11
-56.150009
 21
-77.529381
  0
LINE
  8
0
 10
-52.132294
 20
-73.529388
 11
-52.132294
 21
-77.529388
  0
LINE
  8
0
 10
-56.149994
 20
-73.529388
 11
-56.149994
 21
-77.529388
  0
LINE
  8
0
 10
-56.687775
 20
-72.829376
 11
-56.687775
 21
-76.829376
  0
LINE
  8
0
 10
-61.017914
 20
-72.829376
 11
-61.017914
 21
-76.829376
  0
LINE
  8
0
 10
-61.017811
 20
-76.829338
 11
-60.820969
 21
-77.529358
  0
LINE
  8
0
 10
-64.496994
 20
-72.829422
 11
-63.762344
 21
-73.529449
  0
LINE
  8
0
 10
-64.496918
 20
-76.829453
 11
-63.762310
 21
-77.529449
  0
LINE
  8
0
 10
-63.762238
 20
-77.529388
 11
-63.762238
 21
-73.529388
  0
LINE
  8
0
 10
-64.496857
 20
-72.829376
 11
-64.496857
 21
-76.829376
  0
LINE
  8
0
 10
-66.996857
 20
-72.829376
 11
-66.996857
 21
-76.829376
  0
LINE
  8
0
 10
-66.996887
 20
-76.829468
 11
-66.459137
 21
-77.529434
  0
LINE
  8
0
 10
-68.270294
 20
-72.829369
 11
-67.535645
 21
-73.529404
  0
LINE
  8
0
 10
-68.270348
 20
-76.829369
 11
-67.535736
 21
-77.529358
  0
LINE
  8
0
 10
-56.149994
 20
-73.529388
 11
-52.132294
 21
-73.529388
  0
LINE
  8
0
 10
-56.687775
 20
-72.829376
 11
-51.935455
 21
-72.829376
  0
LINE
  8
0
 10
-64.496857
 20
-72.829376
 11
-61.017914
 21
-72.829376
  0
LINE
  8
0
 10
-63.762299
 20
-73.529388
 11
-61.017914
 21
-73.529388
  0
LINE
  8
0
 10
-52.132294
 20
-77.529388
 11
-56.149994
 21
-77.529388
  0
LINE
  8
0
 10
-60.821075
 20
-77.529388
 11
-63.762299
 21
-77.529388
  0
LINE
  8
0
 10
-66.459137
 20
-77.529388
 11
-67.535675
 21
-77.529388
  0
LINE
  8
0
 10
-61.017914
 20
-76.829391
 11
-56.687775
 21
-76.829391
  0
LINE
  8
0
 10
-66.996857
 20
-76.829391
 11
-64.496857
 21
-76.829391
  0
LINE
  8
0
 10
-67.535675
 20
-73.529388
 11
-67.535675
 21
-77.529388
  0
LINE
  8
0
 10
-68.270233
 20
-72.829376
 11
-68.270233
 21
-76.829376
  0
LINE
  8
0
 10
-68.270233
 20
-72.829376
 11
-66.996857
 21
-72.829376
  0
LINE
  8
0
 10
-51.935455
 20
-76.829391
 11
-49.435455
 21
-76.829391
  0
LINE
  8
0
 10
-24.435455
 20
-68.829376
 11
-30.435455
 21
-68.829376
  0
LINE
  8
0
 10
-30.435455
 20
-76.829391
 11
-30.600647
 21
-76.829391
  0
LINE
  8
0
 10
-30.435455
 20
-72.829376
 11
-30.443024
 21
-72.829376
  0
LINE
  8
0
 10
-31.335236
 20
-73.529388
 11
-31.874054
 21
-73.529388
  0
LINE
  8
0
 10
-46.935455
 20
-72.829376
 11
-46.935455
 21
-76.829376
  0
LINE
  8
0
 10
-46.935455
 20
-72.829330
 11
-46.738609
 21
-73.529358
  0
LINE
  8
0
 10
-46.935368
 20
-76.829361
 11
-46.738529
 21
-77.529350
  0
LINE
  8
0
 10
-42.183086
 20
-72.829391
 11
-42.720856
 21
-73.529388
  0
LINE
  8
0
 10
-42.183167
 20
-76.829315
 11
-42.720932
 21
-77.529312
  0
LINE
  8
0
 10
-46.738617
 20
-73.529388
 11
-46.738617
 21
-77.529388
  0
LINE
  8
0
 10
-42.720886
 20
-73.529388
 11
-42.720886
 21
-77.529388
  0
LINE
  8
0
 10
-42.183136
 20
-72.829376
 11
-42.183136
 21
-76.829376
  0
LINE
  8
0
 10
-37.852997
 20
-72.829376
 11
-37.852997
 21
-76.829376
  0
LINE
  8
0
 10
-37.852913
 20
-76.829422
 11
-38.049747
 21
-77.529419
  0
LINE
  8
0
 10
-34.374081
 20
-72.829338
 11
-35.108688
 21
-73.529327
  0
LINE
  8
0
 10
-34.373875
 20
-76.829544
 11
-35.108479
 21
-77.529533
  0
LINE
  8
0
 10
-35.108643
 20
-77.529388
 11
-35.108643
 21
-73.529388
  0
LINE
  8
0
 10
-34.374023
 20
-72.829376
 11
-34.374023
 21
-76.829376
  0
LINE
  8
0
 10
-31.874023
 20
-72.829376
 11
-31.874023
 21
-76.829376
  0
LINE
  8
0
 10
-31.874115
 20
-76.829338
 11
-32.411888
 21
-77.529343
  0
LINE
  8
0
 10
-30.600628
 20
-72.829437
 11
-31.335232
 21
-73.529434
  0
LINE
  8
0
 10
-30.600548
 20
-76.829483
 11
-31.335163
 21
-77.529480
  0
LINE
  8
0
 10
-42.720917
 20
-73.529388
 11
-46.738617
 21
-73.529388
  0
LINE
  8
0
 10
-42.183136
 20
-72.829376
 11
-46.935455
 21
-72.829376
  0
LINE
  8
0
 10
-34.374054
 20
-72.829376
 11
-37.852997
 21
-72.829376
  0
LINE
  8
0
 10
-35.108643
 20
-73.529388
 11
-37.852997
 21
-73.529388
  0
LINE
  8
0
 10
-46.738617
 20
-77.529388
 11
-42.720917
 21
-77.529388
  0
LINE
  8
0
 10
-38.049835
 20
-77.529388
 11
-35.108643
 21
-77.529388
  0
LINE
  8
0
 10
-32.411804
 20
-77.529388
 11
-31.335236
 21
-77.529388
  0
LINE
  8
0
 10
-37.852997
 20
-76.829391
 11
-42.183136
 21
-76.829391
  0
LINE
  8
0
 10
-31.874054
 20
-76.829391
 11
-34.374054
 21
-76.829391
  0
LINE
  8
0
 10
-31.335236
 20
-73.529388
 11
-31.335236
 21
-77.529388
  0
LINE
  8
0
 10
-30.600647
 20
-72.829376
 11
-30.600647
 21
-76.829376
  0
LINE
  8
0
 10
-30.600647
 20
-72.829376
 11
-31.874054
 21
-72.829376
  0
LINE
  8
0
 10
-46.935455
 20
-76.829391
 11
-49.435455
 21
-76.829391
  0
LINE
  8
0
 10
-38.435425
 20
-79.329376
 11
-38.435425
 21
-81.329376
  0
LINE
  8
0
 10
-60.435455
 20
-79.329376
 11
-60.435455
 21
-81.329376
  0
LINE
  8
0
 10
-63.135468
 20
-78.829376
 11
-35.735474
 21
-78.829376
  0
LINE
  8
0
 10
-40.003845
 20
-78.829376
 11
-40.003845
 21
-81.329376
  0
LINE
  8
0
 10
-47.867035
 20
-78.829376
 11
-47.867035
 21
-81.329376
  0
LINE
  8
0
 10
-51.003815
 20
-78.829391
 11
-51.003815
 21
-81.329391
  0
LINE
  8
0
 10
-58.867035
 20
-78.829376
 11
-58.867035
 21
-81.329376
  0
LINE
  8
0
 10
-35.235443
 20
-68.829376
 11
-35.235443
 21
-70.829376
  0
LINE
  8
0
 10
-63.635406
 20
-68.829376
 11
-63.635406
 21
-70.829376
  0
LINE
  8
0
 10
-63.135468
 20
-81.329376
 11
-35.735474
 21
-81.329376
  0
LINE
  8
0
 10
-61.035431
 20
-106.329376
 11
-37.835449
 21
-106.329376
  0
LINE
  8
0
 10
-36.835423
 20
-104.329407
 11
-35.835457
 21
-103.752075
  0
LINE
  8
0
 10
-63.035431
 20
-103.751999
 11
-62.035408
 21
-104.329361
  0
LINE
  8
0
 10
-62.035431
 20
-104.329376
 11
-62.035431
 21
-105.329376
  0
LINE
  8
0
 10
-36.835419
 20
-104.329376
 11
-36.835419
 21
-105.329376
  0
LINE
  8
0
 10
-35.248440
 20
-81.816345
 11
-35.835407
 21
-103.752014
  0
LINE
  8
0
 10
-63.622272
 20
-81.816338
 11
-63.035305
 21
-103.752014
  0
LINE
  8
0
 10
-63.135422
 20
-81.329422
 11
-63.622375
 21
-81.816376
  0
LINE
  8
0
 10
-35.735447
 20
-81.329315
 11
-35.248447
 21
-81.816315
  0
LINE
  8
0
 10
-46.435543
 20
-83.829391
 11
-46.968643
 21
-103.752045
  0
LINE
  8
0
 10
-52.435501
 20
-83.829376
 11
-51.902401
 21
-103.752029
  0
LINE
  8
0
 10
-63.035431
 20
-103.752029
 11
-62.808380
 21
-103.752029
  0
LINE
  8
0
 10
-63.246490
 20
-83.829376
 11
-61.322662
 21
-83.829376
  0
LINE
  8
0
 10
-62.035431
 20
-104.329391
 11
-61.728485
 21
-104.329391
  0
LINE
  8
0
 10
-63.622406
 20
-81.816345
 11
-35.248474
 21
-81.816345
  0
LINE
  8
0
 10
-46.435455
 20
-83.829376
 11
-41.790924
 21
-83.829376
  0
LINE
  8
0
 10
-62.388885
 20
-84.281509
 11
-61.307159
 21
-84.281509
  0
LINE
  8
0
 10
-46.205658
 20
-84.281509
 11
-42.559845
 21
-84.281509
  0
LINE
  8
0
 10
-51.910286
 20
-103.752014
 11
-52.199638
 21
-104.329376
  0
LINE
  8
0
 10
-56.173355
 20
-104.329399
 11
-57.141541
 21
-103.752045
  0
LINE
  8
0
 10
-60.641468
 20
-103.752045
 11
-60.082504
 21
-104.329376
  0
LINE
  8
0
 10
-61.728489
 20
-104.329384
 11
-62.808380
 21
-103.752014
  0
LINE
  8
0
 10
-57.080002
 20
-83.829346
 11
-56.311104
 21
-84.281456
  0
LINE
  8
0
 10
-63.246490
 20
-83.829376
 11
-62.388882
 21
-84.281494
  0
LINE
  8
0
 10
-52.435577
 20
-83.829308
 11
-52.665371
 21
-84.281433
  0
LINE
  8
0
 10
-52.665344
 20
-84.281517
 11
-52.199768
 21
-104.329407
  0
LINE
  8
0
 10
-56.311089
 20
-84.281525
 11
-56.173374
 21
-104.329407
  0
LINE
  8
0
 10
-57.079956
 20
-83.829399
 11
-57.141502
 21
-103.752037
  0
LINE
  8
0
 10
-60.641350
 20
-103.752007
 11
-61.322460
 21
-83.829369
  0
LINE
  8
0
 10
-61.728729
 20
-104.329369
 11
-62.389088
 21
-84.281494
  0
LINE
  8
0
 10
-63.246498
 20
-83.829353
 11
-62.808388
 21
-103.751999
  0
LINE
  8
0
 10
-46.205658
 20
-84.281509
 11
-46.671234
 21
-104.329376
  0
LINE
  8
0
 10
-46.960575
 20
-103.752060
 11
-46.671234
 21
-104.329391
  0
LINE
  8
0
 10
-46.435482
 20
-83.829353
 11
-46.205692
 21
-84.281479
  0
LINE
  8
0
 10
-42.559769
 20
-84.281525
 11
-42.697487
 21
-104.329407
  0
LINE
  8
0
 10
-41.790909
 20
-83.829384
 11
-41.729362
 21
-103.752029
  0
LINE
  8
0
 10
-38.229195
 20
-103.752022
 11
-37.548080
 21
-83.829391
  0
LINE
  8
0
 10
-37.142582
 20
-104.329391
 11
-36.482220
 21
-84.281509
  0
LINE
  8
0
 10
-35.624439
 20
-83.829399
 11
-36.062550
 21
-103.752060
  0
LINE
  8
0
 10
-35.624401
 20
-83.829437
 11
-36.482033
 21
-84.281570
  0
LINE
  8
0
 10
-41.790817
 20
-83.829483
 11
-42.559746
 21
-84.281601
  0
LINE
  8
0
 10
-42.697571
 20
-104.329346
 11
-41.729385
 21
-103.751999
  0
LINE
  8
0
 10
-38.229332
 20
-103.752090
 11
-38.788307
 21
-104.329437
  0
LINE
  8
0
 10
-37.142433
 20
-104.329430
 11
-36.062569
 21
-103.752075
  0
LINE
  8
0
 10
-51.910309
 20
-103.752029
 11
-46.960602
 21
-103.752029
  0
LINE
  8
0
 10
-41.729340
 20
-103.752029
 11
-38.229370
 21
-103.752029
  0
LINE
  8
0
 10
-36.062531
 20
-103.752029
 11
-35.835449
 21
-103.752029
  0
LINE
  8
0
 10
-60.641571
 20
-103.752029
 11
-57.141510
 21
-103.752029
  0
LINE
  8
0
 10
-56.311066
 20
-84.281509
 11
-52.665253
 21
-84.281509
  0
LINE
  8
0
 10
-57.079987
 20
-83.829376
 11
-52.435455
 21
-83.829376
  0
LINE
  8
0
 10
-37.563751
 20
-84.281509
 11
-36.482025
 21
-84.281509
  0
LINE
  8
0
 10
-37.548248
 20
-83.829376
 11
-35.624420
 21
-83.829376
  0
LINE
  8
0
 10
-52.199677
 20
-104.329391
 11
-46.671234
 21
-104.329391
  0
LINE
  8
0
 10
-42.697540
 20
-104.329391
 11
-38.788361
 21
-104.329391
  0
LINE
  8
0
 10
-37.142395
 20
-104.329391
 11
-36.835419
 21
-104.329391
  0
LINE
  8
0
 10
-60.082550
 20
-104.329391
 11
-56.173370
 21
-104.329391
  0
LINE
  8
0
 10
-74.435455
 20
-70.829376
 11
-68.435455
 21
-70.829376
  0
LINE
  8
0
 10
-34.435455
 20
-68.829376
 11
-34.435455
 21
-70.829376
  0
LINE
  8
0
 10
-64.435455
 20
-68.829376
 11
-64.435455
 21
-70.829376
  0
LINE
  8
0
 10
-74.435455
 20
-68.829376
 11
-74.435455
 21
-86.829376
  0
LINE
  8
0
 10
-24.435455
 20
-68.829376
 11
-24.435455
 21
-86.829376
  0
LINE
  8
0
 10
-26.435455
 20
-88.829376
 11
-35.436127
 21
-88.829376
  0
LINE
  8
0
 10
-24.435467
 20
-86.829384
 11
-26.435471
 21
-88.829384
  0
LINE
  8
0
 10
-63.434723
 20
-88.829376
 11
-72.435455
 21
-88.829376
  0
LINE
  8
0
 10
-74.435448
 20
-86.829384
 11
-72.435440
 21
-88.829384
  0
LINE
  8
0
 10
-27.215302
 20
-82.829376
 11
-38.177063
 21
-82.829376
  0
LINE
  8
0
 10
-32.435455
 20
-78.720306
 11
-32.435455
 21
-87.152405
  0
LINE
  8
0
 10
-66.435455
 20
-78.720306
 11
-66.435455
 21
-87.152405
  0
LINE
  8
0
 10
-71.655609
 20
-82.829376
 11
-60.693878
 21
-82.829376
  0
LINE
  8
0
 10
-63.635406
 20
-77.829376
 11
-63.635406
 21
-78.329376
  0
LINE
  8
0
 10
-35.235443
 20
-77.829376
 11
-35.235443
 21
-78.329376
  0
LINE
  8
0
 10
-67.435455
 20
-79.629379
 11
-65.435455
 21
-79.629379
  0
LINE
  8
0
 10
-67.435455
 20
-86.029388
 11
-65.435455
 21
-86.029388
  0
LINE
  8
0
 10
-31.435455
 20
-79.629379
 11
-33.435455
 21
-79.629379
  0
LINE
  8
0
 10
-31.435455
 20
-86.029388
 11
-33.435455
 21
-86.029388
  0
LINE
  8
0
 10
-46.735443
 20
-66.329376
 11
-46.735443
 21
-68.829376
  0
LINE
  8
0
 10
-52.135468
 20
-66.329376
 11
-52.135468
 21
-68.829376
  0
LINE
  8
0
 10
-46.735443
 20
-66.329376
 11
-52.135468
 21
-66.329376
  0
LINE
  8
0
 10
-46.735443
 20
-68.329376
 11
-29.935455
 21
-68.329376
  0
LINE
  8
0
 10
-66.935455
 20
-34.329376
 11
-61.440521
 21
-34.329376
  0
LINE
  8
0
 10
-66.935455
 20
-34.329376
 11
-66.935455
 21
-34.829376
  0
LINE
  8
0
 10
-61.440460
 20
-34.329376
 11
-61.440460
 21
-34.829376
  0
LINE
  8
0
 10
-68.435455
 20
-68.829376
 11
-74.435455
 21
-68.829376
  0
LINE
  8
0
 10
-30.435455
 20
-70.829376
 11
-24.435455
 21
-70.829376
  0
LINE
  8
0
 10
-68.435455
 20
-68.829376
 11
-30.435455
 21
-68.829376
  0
LINE
  8
0
 10
-30.435455
 20
-70.829376
 11
-68.435455
 21
-70.829376
  0
LINE
  8
0
 10
-49.435455
 20
-24.617462
 11
-49.435455
 21
-110.205978
  0
ARC
  8
0
 10
-45.435455
 20
-44.829376
 40
10.000000
 50
0.000000
 51
64.158073
  0
ARC
  8
0
 10
-45.435455
 20
-44.829376
 40
10.000001
 50
115.841949
 51
241.642319
  0
ARC
  8
0
 10
-45.435455
 20
-44.829376
 40
10.000000
 50
0.000000
 51
64.158073
  0
ARC
  8
0
 10
-55.322845
 20
-51.629395
 40
2.000000
 50
270.000000
 51
34.518036
  0
ARC
  8
0
 10
-35.548096
 20
-51.629395
 40
2.000000
 50
145.481964
 51
270.000000
  0
CIRCLE
  8
0
 10
-45.435455
 20
-44.829376
 40
9.000000
  0
ARC
  8
0
 10
-45.435455
 20
-44.829376
 40
9.999999
 50
298.357635
 51
0.000000
  0
ARC
  8
0
 10
-45.435455
 20
-44.829376
 40
10.000001
 50
115.841949
 51
241.642319
  0
ARC
  8
0
 10
-45.435455
 20
-40.783783
 40
13.695597
 50
249.707809
 51
290.292206
  0
ARC
  8
0
 10
-37.935425
 20
-79.329361
 40
0.500000
 50
90.000000
 51
180.000000
  0
ARC
  8
0
 10
-35.735474
 20
-78.329376
 40
0.500000
 50
270.000000
 51
0.000000
  0
ARC
  8
0
 10
-60.935455
 20
-79.329391
 40
0.500000
 50
0.000000
 51
90.000000
  0
ARC
  8
0
 10
-63.135406
 20
-78.329376
 40
0.500000
 50
180.000000
 51
270.000000
  0
ARC
  8
0
 10
-61.035431
 20
-105.329376
 40
1.000000
 50
180.000000
 51
270.000000
  0
ARC
  8
0
 10
-37.835449
 20
-105.329376
 40
1.000000
 50
270.000000
 51
0.000000
  0
CIRCLE
  8
0
  6
PHANTOM
 10
-45.435455
 20
-44.829376
 40
21.250000
  0
ARC
  8
0
 10
-67.435455
 20
-82.829376
 40
3.199997
 50
90.000000
 51
270.000000
  0
ARC
  8
0
 10
-65.435455
 20
-82.829376
 40
3.199997
 50
270.000000
 51
306.621674
  0
ARC
  8
0
 10
-65.435455
 20
-82.829376
 40
3.200001
 50
27.953175
 51
90.000000
  0
ARC
  8
0
 10
-31.435455
 20
-82.829376
 40
3.199997
 50
269.999939
 51
90.000000
  0
ARC
  8
0
 10
-33.435455
 20
-82.829376
 40
3.199997
 50
90.000000
 51
152.046799
  0
ARC
  8
0
 10
-33.435455
 20
-82.829376
 40
3.200005
 50
233.378342
 51
269.999939
  0
CIRCLE
  8
0
 10
-45.435455
 20
-44.829376
 40
5.722500
  0
CIRCLE
  8
0
 10
-45.435455
 20
-44.829376
 40
6.578500
  0
POINT
  8
0
 10
80.564545
 20
-44.829376
  0
POINT
  8
0
 10
100.564545
 20
-44.829376
  0
LINE
  8
0
 10
91.564484
 20
-31.329376
 11
69.564484
 21
-31.329376
  0
LINE
  8
0
 10
91.564484
 20
-34.829376
 11
69.564484
 21
-34.829376
  0
LINE
  8
0
 10
100.564453
 20
-35.829376
 11
60.564484
 21
-35.829376
  0
LINE
  8
0
 10
107.164490
 20
-44.829376
 11
17.888947
 21
-44.829376
  0
LINE
  8
0
 10
100.064514
 20
-68.329376
 11
83.264557
 21
-68.329376
  0
LINE
  8
0
 10
99.564514
 20
-68.829376
 11
61.564484
 21
-68.829376
  0
LINE
  8
0
 10
100.064514
 20
-54.629364
 11
91.764496
 21
-54.629364
  0
LINE
  8
0
 10
60.564545
 20
-35.829315
 11
60.564545
 21
-53.829315
  0
LINE
  8
0
 10
61.564514
 20
-35.829315
 11
61.564514
 21
-54.129318
  0
LINE
  8
0
 10
68.564545
 20
-35.829315
 11
68.564545
 21
-53.829315
  0
LINE
  8
0
 10
69.564545
 20
-31.329315
 11
69.564545
 21
-54.829315
  0
LINE
  8
0
 10
91.564514
 20
-31.329285
 11
91.564514
 21
-54.829300
  0
LINE
  8
0
 10
92.564545
 20
-35.829285
 11
92.564545
 21
-53.829285
  0
LINE
  8
0
 10
99.564545
 20
-35.829285
 11
99.564545
 21
-54.129303
  0
LINE
  8
0
 10
100.564545
 20
-35.829285
 11
100.564545
 21
-53.829285
  0
LINE
  8
0
 10
61.064545
 20
-54.629333
 11
61.064545
 21
-68.329315
  0
LINE
  8
0
 10
69.564507
 20
-34.829346
 11
68.564507
 21
-35.829346
  0
LINE
  8
0
 10
91.564407
 20
-34.829315
 11
92.564407
 21
-35.829315
  0
LINE
  8
0
 10
61.564514
 20
-68.829330
 11
61.064503
 21
-68.329323
  0
LINE
  8
0
 10
99.564514
 20
-68.829285
 11
100.064514
 21
-68.329285
  0
LINE
  8
0
 10
61.564514
 20
-68.829330
 11
61.064503
 21
-68.329323
  0
LINE
  8
0
 10
99.564499
 20
-68.829315
 11
100.064507
 21
-68.329308
  0
LINE
  8
0
 10
68.564392
 20
-53.829353
 11
69.564400
 21
-54.829353
  0
LINE
  8
0
 10
61.064522
 20
-54.629322
 11
62.064529
 21
-53.629318
  0
LINE
  8
0
 10
60.564545
 20
-53.829323
 11
61.214531
 21
-54.479305
  0
LINE
  8
0
 10
68.564484
 20
-53.629379
 11
62.064484
 21
-53.629379
  0
LINE
  8
0
 10
69.364502
 20
-54.629364
 11
61.064484
 21
-54.629364
  0
LINE
  8
0
 10
100.064453
 20
-54.629333
 11
99.064476
 21
-53.629356
  0
LINE
  8
0
 10
100.564514
 20
-53.829273
 11
99.914505
 21
-54.479286
  0
LINE
  8
0
 10
92.564476
 20
-53.829311
 11
91.564476
 21
-54.829311
  0
LINE
  8
0
 10
99.064484
 20
-53.629379
 11
92.564514
 21
-53.629379
  0
LINE
  8
0
 10
92.564514
 20
-53.829376
 11
68.564484
 21
-53.829376
  0
LINE
  8
0
 10
100.064545
 20
-54.629288
 11
100.064545
 21
-68.329300
  0
LINE
  8
0
 10
69.564484
 20
-31.329376
 11
91.564484
 21
-31.329376
  0
LINE
  8
0
 10
69.852325
 20
-30.329376
 11
73.043335
 21
-30.329376
  0
LINE
  8
0
 10
69.564484
 20
-28.329376
 11
69.852325
 21
-28.329376
  0
LINE
  8
0
 10
70.626678
 20
-27.629364
 11
73.250854
 21
-27.629364
  0
LINE
  8
0
 10
70.564453
 20
-27.329376
 11
90.564453
 21
-27.329376
  0
LINE
  8
0
 10
91.564514
 20
-31.329285
 11
91.564514
 21
-28.329285
  0
LINE
  8
0
 10
91.276672
 20
-30.329315
 11
91.276672
 21
-28.329285
  0
LINE
  8
0
 10
88.085663
 20
-30.329285
 11
88.085663
 21
-28.329285
  0
LINE
  8
0
 10
83.755524
 20
-30.329315
 11
83.755524
 21
-28.329285
  0
LINE
  8
0
 10
77.373535
 20
-30.329315
 11
77.373535
 21
-28.329285
  0
LINE
  8
0
 10
73.043396
 20
-30.329315
 11
73.043396
 21
-28.329315
  0
LINE
  8
0
 10
69.852417
 20
-30.329315
 11
69.852417
 21
-28.329315
  0
LINE
  8
0
 10
69.564545
 20
-31.329315
 11
69.564545
 21
-28.329315
  0
LINE
  8
0
 10
70.626770
 20
-29.925171
 11
70.626770
 21
-27.629303
  0
LINE
  8
0
 10
69.852417
 20
-30.329315
 11
69.852417
 21
-28.329315
  0
LINE
  8
0
 10
91.564514
 20
-31.329285
 11
91.564514
 21
-28.329285
  0
LINE
  8
0
 10
91.276672
 20
-30.329315
 11
91.276672
 21
-28.329285
  0
LINE
  8
0
 10
90.502319
 20
-29.925171
 11
90.502319
 21
-27.629272
  0
LINE
  8
0
 10
77.940399
 20
-29.925171
 11
77.940399
 21
-27.629303
  0
LINE
  8
0
 10
73.043396
 20
-30.329315
 11
73.043396
 21
-28.329315
  0
LINE
  8
0
 10
70.626770
 20
-29.925171
 11
70.626770
 21
-27.629303
  0
LINE
  8
0
 10
69.852417
 20
-30.329315
 11
69.852417
 21
-28.329315
  0
LINE
  8
0
 10
69.564545
 20
-31.329315
 11
69.564545
 21
-28.329315
  0
LINE
  8
0
 10
91.564453
 20
-28.329344
 11
90.564453
 21
-27.329342
  0
LINE
  8
0
 10
69.564545
 20
-28.329407
 11
70.564537
 21
-27.329407
  0
LINE
  8
0
 10
83.755394
 20
-30.329422
 11
83.188507
 21
-29.925274
  0
LINE
  8
0
 10
83.188614
 20
-27.629280
 11
83.755478
 21
-28.329266
  0
LINE
  8
0
 10
77.373459
 20
-30.329258
 11
77.940323
 21
-29.925112
  0
LINE
  8
0
 10
77.373505
 20
-28.329321
 11
77.940369
 21
-27.629324
  0
LINE
  8
0
 10
73.043304
 20
-28.329285
 11
73.250793
 21
-27.629286
  0
LINE
  8
0
 10
88.085678
 20
-28.329285
 11
87.878189
 21
-27.629286
  0
LINE
  8
0
 10
91.276642
 20
-28.329271
 11
90.502281
 21
-27.629272
  0
LINE
  8
0
 10
91.276611
 20
-30.329281
 11
90.502258
 21
-29.925140
  0
LINE
  8
0
 10
69.852341
 20
-30.329292
 11
70.626678
 21
-29.925159
  0
LINE
  8
0
 10
69.852295
 20
-28.329313
 11
70.626671
 21
-27.629295
  0
LINE
  8
0
 10
83.755493
 20
-28.329376
 11
88.085632
 21
-28.329376
  0
LINE
  8
0
 10
91.276642
 20
-28.329376
 11
91.564484
 21
-28.329376
  0
LINE
  8
0
 10
73.043335
 20
-28.329376
 11
77.373474
 21
-28.329376
  0
LINE
  8
0
 10
77.373474
 20
-30.329376
 11
83.755493
 21
-30.329376
  0
LINE
  8
0
 10
88.085632
 20
-30.329376
 11
91.276642
 21
-30.329376
  0
LINE
  8
0
 10
88.085632
 20
-29.925232
 11
90.502228
 21
-29.925232
  0
LINE
  8
0
 10
87.878113
 20
-27.629364
 11
90.502228
 21
-27.629364
  0
LINE
  8
0
 10
77.940338
 20
-27.629364
 11
83.188599
 21
-27.629364
  0
LINE
  8
0
 10
83.188660
 20
-29.925171
 11
83.188660
 21
-27.629303
  0
LINE
  8
0
 10
77.940399
 20
-29.925171
 11
77.940399
 21
-27.629303
  0
LINE
  8
0
 10
77.940338
 20
-29.925232
 11
83.188599
 21
-29.925232
  0
LINE
  8
0
 10
90.502319
 20
-29.925171
 11
90.502319
 21
-27.629272
  0
LINE
  8
0
 10
70.626770
 20
-29.925171
 11
70.626770
 21
-27.629303
  0
LINE
  8
0
 10
70.626678
 20
-29.925232
 11
73.043335
 21
-29.925232
  0
LINE
  8
0
 10
61.564484
 20
-68.829376
 11
99.564514
 21
-68.829376
  0
LINE
  8
0
 10
62.564514
 20
-77.829361
 11
98.564484
 21
-77.829361
  0
LINE
  8
0
 10
99.564545
 20
-70.829300
 11
99.564545
 21
-76.829300
  0
LINE
  8
0
 10
61.564514
 20
-70.829315
 11
61.564514
 21
-76.829315
  0
LINE
  8
0
 10
61.564514
 20
-76.829376
 11
61.729706
 21
-76.829376
  0
LINE
  8
0
 10
61.564484
 20
-72.829361
 11
61.572083
 21
-72.829361
  0
LINE
  8
0
 10
61.564503
 20
-76.829315
 11
62.564507
 21
-77.829315
  0
LINE
  8
0
 10
99.564507
 20
-76.829300
 11
98.564507
 21
-77.829300
  0
LINE
  8
0
 10
62.464294
 20
-73.529388
 11
63.003082
 21
-73.529388
  0
LINE
  8
0
 10
78.064545
 20
-72.829315
 11
78.064545
 21
-76.829300
  0
LINE
  8
0
 10
78.064445
 20
-72.829254
 11
77.867615
 21
-73.529259
  0
LINE
  8
0
 10
78.064468
 20
-76.829285
 11
77.867630
 21
-77.529289
  0
LINE
  8
0
 10
73.312172
 20
-72.829315
 11
73.849937
 21
-73.529312
  0
LINE
  8
0
 10
73.312195
 20
-76.829262
 11
73.849968
 21
-77.529259
  0
LINE
  8
0
 10
77.867706
 20
-73.529297
 11
77.867706
 21
-77.529297
  0
LINE
  8
0
 10
73.849976
 20
-73.529297
 11
73.849976
 21
-77.529297
  0
LINE
  8
0
 10
73.312225
 20
-72.829315
 11
73.312225
 21
-76.829300
  0
LINE
  8
0
 10
68.982086
 20
-72.829315
 11
68.982086
 21
-76.829300
  0
LINE
  8
0
 10
68.982056
 20
-76.829330
 11
69.178879
 21
-77.529297
  0
LINE
  8
0
 10
65.503052
 20
-72.829361
 11
66.237656
 21
-73.529350
  0
LINE
  8
0
 10
65.503075
 20
-76.829277
 11
66.237679
 21
-77.529274
  0
LINE
  8
0
 10
66.237732
 20
-77.529297
 11
66.237732
 21
-73.529297
  0
LINE
  8
0
 10
65.503113
 20
-72.829315
 11
65.503113
 21
-76.829315
  0
LINE
  8
0
 10
63.003113
 20
-72.829315
 11
63.003113
 21
-76.829300
  0
LINE
  8
0
 10
63.003124
 20
-76.829300
 11
63.540901
 21
-77.529297
  0
LINE
  8
0
 10
61.729679
 20
-72.829323
 11
62.464310
 21
-73.529335
  0
LINE
  8
0
 10
61.729713
 20
-76.829346
 11
62.464325
 21
-77.529335
  0
LINE
  8
0
 10
73.849945
 20
-73.529388
 11
77.867645
 21
-73.529388
  0
LINE
  8
0
 10
73.312195
 20
-72.829361
 11
78.064484
 21
-72.829361
  0
LINE
  8
0
 10
65.503082
 20
-72.829361
 11
68.982056
 21
-72.829361
  0
LINE
  8
0
 10
66.237701
 20
-73.529388
 11
68.982056
 21
-73.529388
  0
LINE
  8
0
 10
77.867645
 20
-77.529373
 11
73.849945
 21
-77.529373
  0
LINE
  8
0
 10
69.178894
 20
-77.529373
 11
66.237701
 21
-77.529373
  0
LINE
  8
0
 10
63.540863
 20
-77.529373
 11
62.464294
 21
-77.529373
  0
LINE
  8
0
 10
68.982056
 20
-76.829376
 11
73.312195
 21
-76.829376
  0
LINE
  8
0
 10
63.003082
 20
-76.829376
 11
65.503082
 21
-76.829376
  0
LINE
  8
0
 10
62.464325
 20
-73.529327
 11
62.464325
 21
-77.529327
  0
LINE
  8
0
 10
61.729736
 20
-72.829330
 11
61.729736
 21
-76.829315
  0
LINE
  8
0
 10
61.729706
 20
-72.829361
 11
63.003082
 21
-72.829361
  0
LINE
  8
0
 10
78.064484
 20
-76.829376
 11
80.564484
 21
-76.829376
  0
LINE
  8
0
 10
109.564545
 20
-68.829376
 11
99.564514
 21
-68.829376
  0
LINE
  8
0
 10
99.564514
 20
-76.829376
 11
99.399292
 21
-76.829376
  0
LINE
  8
0
 10
99.564484
 20
-72.829361
 11
99.556915
 21
-72.829361
  0
LINE
  8
0
 10
98.664703
 20
-73.529388
 11
98.125916
 21
-73.529388
  0
LINE
  8
0
 10
83.064545
 20
-72.829315
 11
83.064545
 21
-76.829300
  0
LINE
  8
0
 10
83.064476
 20
-72.829308
 11
83.261314
 21
-73.529305
  0
LINE
  8
0
 10
83.064453
 20
-76.829308
 11
83.261292
 21
-77.529297
  0
LINE
  8
0
 10
87.816841
 20
-72.829315
 11
87.279083
 21
-73.529312
  0
LINE
  8
0
 10
87.816849
 20
-76.829285
 11
87.279083
 21
-77.529289
  0
LINE
  8
0
 10
83.261383
 20
-73.529297
 11
83.261383
 21
-77.529297
  0
LINE
  8
0
 10
87.279083
 20
-73.529297
 11
87.279083
 21
-77.529297
  0
LINE
  8
0
 10
87.816864
 20
-72.829315
 11
87.816864
 21
-76.829300
  0
LINE
  8
0
 10
92.147003
 20
-72.829285
 11
92.147003
 21
-76.829285
  0
LINE
  8
0
 10
92.146866
 20
-76.829277
 11
91.950027
 21
-77.529282
  0
LINE
  8
0
 10
95.625877
 20
-72.829292
 11
94.891273
 21
-73.529289
  0
LINE
  8
0
 10
95.625931
 20
-76.829308
 11
94.891327
 21
-77.529312
  0
LINE
  8
0
 10
94.891357
 20
-77.529297
 11
94.891357
 21
-73.529297
  0
LINE
  8
0
 10
95.625946
 20
-72.829285
 11
95.625946
 21
-76.829300
  0
LINE
  8
0
 10
98.125946
 20
-72.829285
 11
98.125946
 21
-76.829300
  0
LINE
  8
0
 10
98.125931
 20
-76.829269
 11
97.588150
 21
-77.529274
  0
LINE
  8
0
 10
99.399338
 20
-72.829315
 11
98.664734
 21
-73.529305
  0
LINE
  8
0
 10
99.399338
 20
-76.829346
 11
98.664726
 21
-77.529343
  0
LINE
  8
0
 10
87.279053
 20
-73.529388
 11
83.261322
 21
-73.529388
  0
LINE
  8
0
 10
87.816803
 20
-72.829361
 11
83.064484
 21
-72.829361
  0
LINE
  8
0
 10
95.625916
 20
-72.829361
 11
92.146942
 21
-72.829361
  0
LINE
  8
0
 10
94.891327
 20
-73.529388
 11
92.146942
 21
-73.529388
  0
LINE
  8
0
 10
83.261322
 20
-77.529373
 11
87.279053
 21
-77.529373
  0
LINE
  8
0
 10
91.950104
 20
-77.529373
 11
94.891327
 21
-77.529373
  0
LINE
  8
0
 10
97.588165
 20
-77.529373
 11
98.664703
 21
-77.529373
  0
LINE
  8
0
 10
92.146942
 20
-76.829376
 11
87.816803
 21
-76.829376
  0
LINE
  8
0
 10
98.125916
 20
-76.829376
 11
95.625916
 21
-76.829376
  0
LINE
  8
0
 10
98.664734
 20
-73.529282
 11
98.664734
 21
-77.529282
  0
LINE
  8
0
 10
99.399353
 20
-72.829285
 11
99.399353
 21
-76.829300
  0
LINE
  8
0
 10
99.399292
 20
-72.829361
 11
98.125916
 21
-72.829361
  0
LINE
  8
0
 10
83.064484
 20
-76.829376
 11
80.564484
 21
-76.829376
  0
LINE
  8
0
 10
66.864502
 20
-78.829407
 11
94.264526
 21
-78.829407
  0
LINE
  8
0
 10
92.360718
 20
-78.829285
 11
92.360718
 21
-81.329285
  0
LINE
  8
0
 10
87.820923
 20
-78.829315
 11
87.820923
 21
-81.329315
  0
LINE
  8
0
 10
85.104370
 20
-78.829285
 11
85.104370
 21
-81.329285
  0
LINE
  8
0
 10
76.024750
 20
-78.829315
 11
76.024750
 21
-81.329315
  0
LINE
  8
0
 10
73.308197
 20
-78.829315
 11
73.308197
 21
-81.329315
  0
LINE
  8
0
 10
68.768402
 20
-78.829315
 11
68.768402
 21
-81.329315
  0
LINE
  8
0
 10
92.464569
 20
-78.829285
 11
92.464569
 21
-81.329285
  0
LINE
  8
0
 10
68.664551
 20
-78.829315
 11
68.664551
 21
-81.329315
  0
LINE
  8
0
 10
95.564484
 20
-77.829407
 11
65.564484
 21
-77.829407
  0
LINE
  8
0
 10
66.864502
 20
-81.329407
 11
94.264496
 21
-81.329407
  0
LINE
  8
0
 10
68.964539
 20
-106.329376
 11
92.164520
 21
-106.329376
  0
LINE
  8
0
 10
93.164536
 20
-104.329247
 11
94.164513
 21
-103.751907
  0
LINE
  8
0
 10
66.964478
 20
-103.751953
 11
67.964493
 21
-104.329315
  0
LINE
  8
0
 10
67.964569
 20
-104.329300
 11
67.964569
 21
-105.329315
  0
LINE
  8
0
 10
93.164551
 20
-104.329285
 11
93.164551
 21
-105.329285
  0
LINE
  8
0
 10
94.751343
 20
-81.816284
 11
94.164398
 21
-103.751938
  0
LINE
  8
0
 10
66.377541
 20
-81.816284
 11
66.964523
 21
-103.751945
  0
LINE
  8
0
 10
66.864517
 20
-81.329315
 11
66.377556
 21
-81.816284
  0
LINE
  8
0
 10
94.264488
 20
-81.329239
 11
94.751465
 21
-81.816216
  0
LINE
  8
0
 10
83.564499
 20
-83.829300
 11
83.031418
 21
-103.751938
  0
LINE
  8
0
 10
77.564545
 20
-83.829300
 11
78.097664
 21
-103.751968
  0
LINE
  8
0
 10
66.964539
 20
-103.752029
 11
67.191620
 21
-103.752029
  0
LINE
  8
0
 10
66.753448
 20
-83.829376
 11
68.677338
 21
-83.829376
  0
LINE
  8
0
 10
67.964508
 20
-104.329376
 11
68.271484
 21
-104.329376
  0
LINE
  8
0
 10
66.377533
 20
-81.816360
 11
94.751465
 21
-81.816360
  0
LINE
  8
0
 10
83.564484
 20
-83.829376
 11
88.209045
 21
-83.829376
  0
LINE
  8
0
 10
67.611084
 20
-84.281509
 11
68.692780
 21
-84.281509
  0
LINE
  8
0
 10
83.794281
 20
-84.281494
 11
87.440155
 21
-84.281494
  0
LINE
  8
0
 10
78.089668
 20
-103.751938
 11
77.800323
 21
-104.329285
  0
LINE
  8
0
 10
73.826614
 20
-104.329330
 11
72.858429
 21
-103.751984
  0
LINE
  8
0
 10
69.358505
 20
-103.751968
 11
69.917473
 21
-104.329308
  0
LINE
  8
0
 10
68.271515
 20
-104.329315
 11
67.191620
 21
-103.751953
  0
LINE
  8
0
 10
72.919960
 20
-83.829330
 11
73.688858
 21
-84.281448
  0
LINE
  8
0
 10
66.753479
 20
-83.829353
 11
67.611115
 21
-84.281487
  0
LINE
  8
0
 10
77.564529
 20
-83.829323
 11
77.334740
 21
-84.281441
  0
LINE
  8
0
 10
77.334763
 20
-84.281456
 11
77.800362
 21
-104.329330
  0
LINE
  8
0
 10
73.688911
 20
-84.281433
 11
73.826645
 21
-104.329300
  0
LINE
  8
0
 10
72.920013
 20
-83.829285
 11
72.858490
 21
-103.751953
  0
LINE
  8
0
 10
69.358475
 20
-103.751991
 11
68.677345
 21
-83.829346
  0
LINE
  8
0
 10
68.271484
 20
-104.329330
 11
67.611107
 21
-84.281464
  0
LINE
  8
0
 10
66.753456
 20
-83.829315
 11
67.191589
 21
-103.751961
  0
LINE
  8
0
 10
83.794266
 20
-84.281433
 11
83.328705
 21
-104.329308
  0
LINE
  8
0
 10
83.039360
 20
-103.751938
 11
83.328728
 21
-104.329330
  0
LINE
  8
0
 10
83.564522
 20
-83.829338
 11
83.794312
 21
-84.281464
  0
LINE
  8
0
 10
87.440102
 20
-84.281410
 11
87.302414
 21
-104.329292
  0
LINE
  8
0
 10
88.209053
 20
-83.829300
 11
88.270615
 21
-103.751968
  0
LINE
  8
0
 10
91.770676
 20
-103.751953
 11
92.451767
 21
-83.829315
  0
LINE
  8
0
 10
92.857651
 20
-104.329300
 11
93.517990
 21
-84.281433
  0
LINE
  8
0
 10
94.375519
 20
-83.829300
 11
93.937431
 21
-103.751938
  0
LINE
  8
0
 10
94.375580
 20
-83.829300
 11
93.517929
 21
-84.281433
  0
LINE
  8
0
 10
88.209068
 20
-83.829269
 11
87.440132
 21
-84.281403
  0
LINE
  8
0
 10
87.302406
 20
-104.329277
 11
88.270584
 21
-103.751923
  0
LINE
  8
0
 10
91.770599
 20
-103.751945
 11
91.211624
 21
-104.329285
  0
LINE
  8
0
 10
92.857597
 20
-104.329300
 11
93.937462
 21
-103.751953
  0
LINE
  8
0
 10
78.089691
 20
-103.752029
 11
83.039398
 21
-103.752029
  0
LINE
  8
0
 10
88.270599
 20
-103.752029
 11
91.770599
 21
-103.752029
  0
LINE
  8
0
 10
93.937469
 20
-103.752029
 11
94.164551
 21
-103.752029
  0
LINE
  8
0
 10
69.358429
 20
-103.752029
 11
72.858429
 21
-103.752029
  0
LINE
  8
0
 10
73.688873
 20
-84.281509
 11
77.334717
 21
-84.281509
  0
LINE
  8
0
 10
72.919952
 20
-83.829376
 11
77.564514
 21
-83.829376
  0
LINE
  8
0
 10
92.436249
 20
-84.281494
 11
93.517914
 21
-84.281494
  0
LINE
  8
0
 10
92.451691
 20
-83.829376
 11
94.375519
 21
-83.829376
  0
LINE
  8
0
 10
77.800323
 20
-104.329376
 11
83.328735
 21
-104.329376
  0
LINE
  8
0
 10
87.302429
 20
-104.329376
 11
91.211639
 21
-104.329376
  0
LINE
  8
0
 10
92.857574
 20
-104.329361
 11
93.164520
 21
-104.329361
  0
LINE
  8
0
 10
69.917419
 20
-104.329376
 11
73.826630
 21
-104.329376
  0
LINE
  8
0
 10
80.564545
 20
-110.247269
 11
80.564545
 21
-23.440485
  0
LINE
  8
0
 10
66.364532
 20
-68.829376
 11
66.364532
 21
-70.829315
  0
LINE
  8
0
 10
94.764526
 20
-68.829376
 11
94.764526
 21
-70.829300
  0
LINE
  8
0
 10
99.564545
 20
-70.829376
 11
109.064545
 21
-70.829376
  0
LINE
  8
0
 10
66.364532
 20
-77.829407
 11
66.364532
 21
-78.329315
  0
LINE
  8
0
 10
94.764526
 20
-77.829361
 11
94.764526
 21
-78.329300
  0
LINE
  8
0
 10
65.564545
 20
-70.829315
 11
65.564545
 21
-68.829376
  0
LINE
  8
0
 10
95.564545
 20
-70.829300
 11
95.564545
 21
-68.829376
  0
LINE
  8
0
 10
112.564545
 20
-88.829376
 11
112.564545
 21
-71.829376
  0
LINE
  8
0
 10
63.064545
 20
-70.829315
 11
63.064545
 21
-68.829376
  0
LINE
  8
0
 10
110.564545
 20
-88.829376
 11
110.564545
 21
-72.329300
  0
LINE
  8
0
 10
112.564545
 20
-88.829376
 11
110.564545
 21
-88.829376
  0
LINE
  8
0
 10
23.564545
 20
-65.829376
 11
44.064514
 21
-65.829376
  0
LINE
  8
0
 10
21.064423
 20
-23.579260
 11
20.564411
 21
-24.079271
  0
LINE
  8
0
 10
21.064491
 20
-66.079346
 11
20.564503
 21
-65.579361
  0
LINE
  8
0
 10
60.564552
 20
-39.106853
 11
54.564552
 21
-38.919350
  0
LINE
  8
0
 10
60.564583
 20
-51.407871
 11
54.564583
 21
-51.595367
  0
LINE
  8
0
 10
54.564545
 20
-37.829376
 11
54.564545
 21
-51.829361
  0
LINE
  8
0
 10
60.564526
 20
-38.250870
 11
54.564526
 21
-38.063366
  0
LINE
  8
0
 10
60.564552
 20
-50.551872
 11
54.564548
 21
-50.739372
  0
LINE
  8
0
 10
23.564545
 20
-23.829376
 11
44.064545
 21
-23.829376
  0
LINE
  8
0
 10
20.564545
 20
-24.079376
 11
20.564545
 21
-65.579361
  0
LINE
  8
0
 10
21.064545
 20
-66.079376
 11
23.564545
 21
-66.079376
  0
LINE
  8
0
 10
21.064545
 20
-23.579376
 11
21.064545
 21
-66.079376
  0
LINE
  8
0
 10
47.064545
 20
-26.829346
 11
47.064545
 21
-62.829361
  0
LINE
  8
0
 10
23.564545
 20
-23.579376
 11
23.564545
 21
-66.079376
  0
LINE
  8
0
 10
54.564545
 20
-51.829376
 11
47.064514
 21
-51.829376
  0
LINE
  8
0
 10
54.564545
 20
-37.829376
 11
47.064514
 21
-37.829376
  0
LINE
  8
0
 10
54.564522
 20
-51.829346
 11
47.064541
 21
-37.829365
  0
LINE
  8
0
 10
47.064533
 20
-51.829353
 11
54.564537
 21
-37.829361
  0
LINE
  8
0
 10
21.064545
 20
-23.579376
 11
23.564545
 21
-23.579376
  0
LINE
  8
0
 10
21.064579
 20
-23.579420
 11
20.564579
 21
-24.079420
  0
LINE
  8
0
 10
83.264557
 20
-66.329376
 11
77.864532
 21
-66.329376
  0
LINE
  8
0
 10
77.864532
 20
-68.829376
 11
77.864532
 21
-66.329376
  0
LINE
  8
0
 10
83.264557
 20
-68.829376
 11
83.264557
 21
-66.329376
  0
LINE
  8
0
 10
77.864532
 20
-68.329376
 11
61.064484
 21
-68.329376
  0
LINE
  8
0
 10
102.234528
 20
-39.433014
 11
102.234528
 21
-50.225769
  0
LINE
  8
0
 10
100.564537
 20
-38.250893
 11
101.534523
 21
-38.220577
  0
LINE
  8
0
 10
100.564537
 20
-39.106888
 11
102.019974
 21
-39.061409
  0
LINE
  8
0
 10
100.564537
 20
-50.551884
 11
102.019974
 21
-50.597366
  0
LINE
  8
0
 10
100.564537
 20
-51.407883
 11
101.534515
 21
-51.438194
  0
LINE
  8
0
 10
101.534546
 20
-38.220581
 11
101.534546
 21
-51.438187
  0
LINE
  8
0
 10
101.534561
 20
-38.220581
 11
102.234558
 21
-39.433014
  0
LINE
  8
0
 10
101.534523
 20
-51.438156
 11
102.234520
 21
-50.225727
  0
LINE
  8
0
 10
99.564545
 20
-68.829346
 11
61.564484
 21
-68.829346
  0
LINE
  8
0
 10
61.564514
 20
-70.829315
 11
99.564545
 21
-70.829315
  0
LINE
  8
0
 10
61.064545
 20
-68.829315
 11
61.064545
 21
-68.329391
  0
LINE
  8
0
 10
21.064545
 20
-44.829376
 11
23.564545
 21
-44.829376
  0
LINE
  8
0
 10
21.064545
 20
-47.829376
 11
23.564545
 21
-47.829376
  0
LINE
  8
0
 10
21.064545
 20
-41.829376
 11
23.564545
 21
-41.829376
  0
LINE
  8
0
 10
21.064545
 20
-38.829376
 11
23.564545
 21
-38.829376
  0
LINE
  8
0
 10
21.064545
 20
-50.829376
 11
23.564545
 21
-50.829376
  0
LINE
  8
0
 10
21.064545
 20
-35.829376
 11
23.564545
 21
-35.829376
  0
LINE
  8
0
 10
21.064545
 20
-53.829376
 11
23.564545
 21
-53.829376
  0
LINE
  8
0
 10
21.064545
 20
-32.829376
 11
23.564545
 21
-32.829376
  0
LINE
  8
0
 10
21.064545
 20
-56.829376
 11
23.564545
 21
-56.829376
  0
LINE
  8
0
 10
21.064545
 20
-29.829376
 11
23.564545
 21
-29.829376
  0
LINE
  8
0
 10
21.064545
 20
-59.829376
 11
23.564545
 21
-59.829376
  0
LINE
  8
0
 10
21.064545
 20
-26.829376
 11
23.564545
 21
-26.829376
  0
LINE
  8
0
 10
21.064545
 20
-62.829376
 11
23.564545
 21
-62.829376
  0
LINE
  8
0
 10
21.064545
 20
-23.829376
 11
23.564545
 21
-23.829376
  0
LINE
  8
0
 10
21.064545
 20
-65.829376
 11
23.564545
 21
-65.829376
  0
CIRCLE
  8
0
 10
80.564514
 20
-44.829315
 40
8.000000
  0
ARC
  8
0
 10
80.564575
 20
-175.579315
 40
121.250000
 50
84.794945
 51
95.205223
  0
ARC
  8
0
 10
94.264526
 20
-78.329300
 40
0.500000
 50
270.000000
 51
0.000000
  0
ARC
  8
0
 10
66.864502
 20
-78.329315
 40
0.500000
 50
180.000000
 51
270.000000
  0
ARC
  8
0
 10
68.964539
 20
-105.329315
 40
1.000000
 50
180.000000
 51
270.000000
  0
ARC
  8
0
 10
92.164551
 20
-105.329315
 40
1.000000
 50
270.000000
 51
0.000000
  0
ARC
  8
0
 10
109.064575
 20
-72.329300
 40
1.500000
 50
0.000000
 51
90.000000
  0
ARC
  8
0
 10
109.564545
 20
-71.829376
 40
3.000000
 50
0.000000
 51
90.000000
  0
ARC
  8
0
 10
44.064575
 20
-26.829376
 40
3.000000
 50
0.000000
 51
90.000000
  0
ARC
  8
0
 10
44.064514
 20
-62.829361
 40
3.000000
 50
270.000000
 51
0.000000
  0
ARC
  8
0
 10
63.064545
 20
-68.829315
 40
2.000000
 50
180.000000
 51
270.000000
  0
CIRCLE
  8
0
 10
80.564545
 20
-44.829376
 40
4.283000
  0
CIRCLE
  8
0
 10
80.564545
 20
-44.829376
 40
4.864000
  0
POINT
  8
0
 10
-69.435455
 20
73.436203
  0
POINT
  8
0
 10
-29.435455
 20
73.436203
  0
LINE
  8
0
 10
-49.435455
 20
107.269577
 11
-49.435455
 21
51.153549
  0
LINE
  8
0
 10
-71.739777
 20
73.436203
 11
-27.462494
 21
73.436203
  0
LINE
  8
0
 10
-52.143372
 20
83.374168
 11
-51.935883
 21
84.148514
  0
LINE
  8
0
 10
-57.462402
 20
80.957550
 11
-56.688023
 21
80.750061
  0
LINE
  8
0
 10
-59.962402
 20
70.245087
 11
-59.395523
 21
70.811966
  0
LINE
  8
0
 10
-59.395554
 20
76.060371
 11
-59.962440
 21
76.627258
  0
LINE
  8
0
 10
-51.935490
 20
62.724113
 11
-52.142967
 21
63.498436
  0
LINE
  8
0
 10
-56.688103
 20
66.122627
 11
-57.462425
 21
65.915154
  0
LINE
  8
0
 10
-41.408421
 20
65.915199
 11
-42.182800
 21
66.122688
  0
LINE
  8
0
 10
-46.728134
 20
63.498459
 11
-46.935623
 21
62.724094
  0
LINE
  8
0
 10
-38.908691
 20
76.627457
 11
-39.475571
 21
76.060577
  0
LINE
  8
0
 10
-39.475456
 20
70.812141
 11
-38.908569
 21
70.245255
  0
LINE
  8
0
 10
-46.935745
 20
84.148300
 11
-46.728256
 21
83.373947
  0
LINE
  8
0
 10
-42.182915
 20
80.750153
 11
-41.408535
 21
80.957649
  0
LINE
  8
0
 10
-68.435455
 20
61.436203
 11
-30.435425
 21
61.436203
  0
LINE
  8
0
 10
-68.435455
 20
85.436264
 11
-30.435425
 21
85.436264
  0
LINE
  8
0
 10
-29.435455
 20
84.436203
 11
-29.435455
 21
62.436234
  0
LINE
  8
0
 10
-69.435455
 20
84.436203
 11
-69.435455
 21
62.436234
  0
LINE
  8
0
 10
-69.435493
 20
62.436314
 11
-68.435425
 21
61.436245
  0
LINE
  8
0
 10
-69.435539
 20
84.436279
 11
-68.435532
 21
85.436279
  0
LINE
  8
0
 10
-30.435444
 20
85.436249
 11
-29.435421
 21
84.436226
  0
LINE
  8
0
 10
-30.435371
 20
61.436169
 11
-29.435371
 21
62.436169
  0
LINE
  8
0
 10
-45.435425
 20
96.348389
 11
-45.435425
 21
84.011917
  0
LINE
  8
0
 10
-35.435425
 20
92.436234
 11
-35.435425
 21
85.436264
  0
LINE
  8
0
 10
-55.435425
 20
92.436234
 11
-55.435425
 21
85.436264
  0
LINE
  8
0
 10
-54.435455
 20
93.436203
 11
-36.435455
 21
93.436203
  0
LINE
  8
0
 10
-54.435455
 20
53.436203
 11
-36.435455
 21
53.436203
  0
LINE
  8
0
 10
-55.435402
 20
54.436237
 11
-54.435425
 21
53.436256
  0
LINE
  8
0
 10
-36.435329
 20
53.436146
 11
-35.435329
 21
54.436150
  0
LINE
  8
0
 10
-55.435257
 20
92.436005
 11
-54.435257
 21
93.436005
  0
LINE
  8
0
 10
-36.435490
 20
93.436203
 11
-35.435463
 21
92.436188
  0
LINE
  8
0
 10
-55.435425
 20
61.436203
 11
-55.435425
 21
54.436203
  0
LINE
  8
0
 10
-35.435425
 20
61.436203
 11
-35.435425
 21
54.436203
  0
LINE
  8
0
 10
-68.435455
 20
85.436264
 11
-68.435455
 21
61.436203
  0
LINE
  8
0
 10
-30.435425
 20
61.436203
 11
-30.435425
 21
85.436264
  0
LINE
  8
0
 10
-55.435425
 20
54.436203
 11
-35.435425
 21
54.436203
  0
LINE
  8
0
 10
-69.435455
 20
84.436203
 11
-29.435455
 21
84.436203
  0
LINE
  8
0
 10
-69.435455
 20
62.436234
 11
-29.435455
 21
62.436234
  0
LINE
  8
0
 10
-55.435425
 20
92.436234
 11
-35.435425
 21
92.436234
  0
LINE
  8
0
 10
-45.435425
 20
63.116165
 11
-45.435425
 21
10.324753
  0
LINE
  8
0
 10
-74.435455
 20
105.436264
 11
-24.435455
 21
105.436264
  0
LINE
  8
0
 10
-24.435455
 20
105.436264
 11
-24.435455
 21
103.436264
  0
LINE
  8
0
 10
-74.435455
 20
105.436264
 11
-74.435455
 21
103.436264
  0
LINE
  8
0
 10
-74.435471
 20
103.436264
 11
-69.435463
 21
77.713486
  0
LINE
  8
0
 10
-29.435413
 20
77.713470
 11
-24.435417
 21
103.436218
  0
LINE
  8
0
 10
-66.435455
 20
107.269577
 11
-66.435455
 21
101.459366
  0
LINE
  8
0
 10
-32.435425
 20
107.269577
 11
-32.435425
 21
101.913620
  0
LINE
  8
0
 10
-24.435394
 20
16.436234
 11
-24.435394
 21
36.936203
  0
LINE
  8
0
 10
-66.685539
 20
13.936108
 11
-66.185547
 21
13.436115
  0
LINE
  8
0
 10
-24.185448
 20
13.936203
 11
-24.685436
 21
13.436214
  0
LINE
  8
0
 10
-51.157925
 20
53.436214
 11
-51.345421
 21
47.436214
  0
LINE
  8
0
 10
-38.856941
 20
53.436283
 11
-38.669441
 21
47.436314
  0
LINE
  8
0
 10
-52.435394
 20
47.436234
 11
-38.435425
 21
47.436234
  0
LINE
  8
0
 10
-52.013924
 20
53.436218
 11
-52.201424
 21
47.436249
  0
LINE
  8
0
 10
-39.712967
 20
53.436218
 11
-39.525467
 21
47.436249
  0
LINE
  8
0
 10
-66.435425
 20
16.436234
 11
-66.435425
 21
36.936234
  0
LINE
  8
0
 10
-66.185364
 20
13.436234
 11
-24.685394
 21
13.436234
  0
LINE
  8
0
 10
-24.185425
 20
13.936234
 11
-24.185425
 21
16.436234
  0
LINE
  8
0
 10
-66.685394
 20
13.936203
 11
-24.185394
 21
13.936203
  0
LINE
  8
0
 10
-63.435455
 20
39.936234
 11
-27.435455
 21
39.936234
  0
LINE
  8
0
 10
-66.685394
 20
16.436203
 11
-24.185394
 21
16.436203
  0
LINE
  8
0
 10
-38.435425
 20
47.436234
 11
-38.435425
 21
39.936203
  0
LINE
  8
0
 10
-52.435394
 20
47.436234
 11
-52.435394
 21
39.936203
  0
LINE
  8
0
 10
-38.435478
 20
47.436272
 11
-52.435455
 21
39.936279
  0
LINE
  8
0
 10
-38.435402
 20
39.936226
 11
-52.435410
 21
47.436222
  0
LINE
  8
0
 10
-66.685425
 20
13.936234
 11
-66.685425
 21
16.436234
  0
LINE
  8
0
 10
-66.685326
 20
13.936234
 11
-66.185333
 21
13.436241
  0
LINE
  8
0
 10
-50.831825
 20
95.106201
 11
-40.039024
 21
95.106201
  0
LINE
  8
0
 10
-52.044224
 20
94.406227
 11
-50.831825
 21
95.106201
  0
LINE
  8
0
 10
-40.039024
 20
95.106201
 11
-38.826622
 21
94.406219
  0
LINE
  8
0
 10
-52.044224
 20
94.406227
 11
-52.013924
 21
93.436203
  0
LINE
  8
0
 10
-38.826626
 20
94.406219
 11
-38.856926
 21
93.436203
  0
LINE
  8
0
 10
-51.203423
 20
94.891663
 11
-51.157921
 21
93.436203
  0
LINE
  8
0
 10
-39.667419
 20
94.891663
 11
-39.712921
 21
93.436203
  0
LINE
  8
0
 10
-52.044224
 20
94.406227
 11
-38.826626
 21
94.406219
  0
LINE
  8
0
 10
-45.435425
 20
16.436203
 11
-45.435425
 21
13.936203
  0
LINE
  8
0
 10
-42.435425
 20
16.436203
 11
-42.435425
 21
13.936203
  0
LINE
  8
0
 10
-48.435425
 20
16.436203
 11
-48.435425
 21
13.936203
  0
LINE
  8
0
 10
-39.435425
 20
16.436203
 11
-39.435425
 21
13.936203
  0
LINE
  8
0
 10
-51.435425
 20
16.436203
 11
-51.435425
 21
13.936203
  0
LINE
  8
0
 10
-36.435425
 20
16.436203
 11
-36.435425
 21
13.936203
  0
LINE
  8
0
 10
-54.435425
 20
16.436203
 11
-54.435425
 21
13.936203
  0
LINE
  8
0
 10
-33.435425
 20
16.436203
 11
-33.435425
 21
13.936203
  0
LINE
  8
0
 10
-57.435425
 20
16.436203
 11
-57.435425
 21
13.936203
  0
LINE
  8
0
 10
-30.435425
 20
16.436203
 11
-30.435425
 21
13.936203
  0
LINE
  8
0
 10
-60.435425
 20
16.436203
 11
-60.435425
 21
13.936203
  0
LINE
  8
0
 10
-27.435425
 20
16.436203
 11
-27.435425
 21
13.936203
  0
LINE
  8
0
 10
-63.435425
 20
16.436203
 11
-63.435425
 21
13.936203
  0
LINE
  8
0
 10
-24.435425
 20
16.436203
 11
-24.435425
 21
13.936203
  0
LINE
  8
0
 10
-66.435425
 20
16.436203
 11
-66.435425
 21
13.936203
  0
CIRCLE
  8
0
 10
-49.435455
 20
73.436203
 40
11.000000
  0
ARC
  8
0
 10
-49.435455
 20
73.436203
 40
10.300000
 50
105.240013
 51
134.760010
  0
ARC
  8
0
 10
-49.435455
 20
73.436203
 40
10.300002
 50
165.240005
 51
194.760040
  0
ARC
  8
0
 10
-49.435455
 20
73.436203
 40
10.300003
 50
225.240051
 51
254.760040
  0
ARC
  8
0
 10
-49.435455
 20
73.436203
 40
10.300002
 50
285.240021
 51
314.760010
  0
ARC
  8
0
 10
-49.435455
 20
73.436203
 40
10.300000
 50
345.240051
 51
14.760040
  0
ARC
  8
0
 10
-49.435455
 20
73.436203
 40
10.299998
 50
45.240017
 51
74.760033
  0
CIRCLE
  8
0
 10
-49.435455
 20
73.436203
 40
10.000000
  0
CIRCLE
  8
0
 10
-49.435455
 20
73.436203
 40
8.500000
  0
CIRCLE
  8
0
 10
-49.435455
 20
73.436203
 40
6.500000
  0
CIRCLE
  8
0
 10
-49.435455
 20
73.436203
 40
2.500000
  0
ARC
  8
0
 10
-49.435455
 20
73.436203
 40
19.500000
 50
37.979874
 51
44.114609
  0
ARC
  8
0
 10
-49.435455
 20
73.436203
 40
18.500002
 50
108.924652
 51
139.560211
  0
ARC
  8
0
 10
-49.435455
 20
73.436203
 40
18.500000
 50
220.439774
 51
251.075348
  0
ARC
  8
0
 10
-49.435455
 20
73.436203
 40
19.499998
 50
217.979843
 51
252.079773
  0
ARC
  8
0
 10
-49.435455
 20
73.436203
 40
19.499996
 50
315.885376
 51
322.020142
  0
ARC
  8
0
 10
-49.435455
 20
73.436203
 40
19.499996
 50
107.920227
 51
142.020157
  0
ARC
  8
0
 10
-27.435425
 20
36.936203
 40
3.000000
 50
0.000073
 51
90.000076
  0
ARC
  8
0
 10
-63.435425
 20
36.936234
 40
3.000000
 50
90.000076
 51
180.000076
  0
ENDSEC
  0
EOF
