  0
SECTION
  2
HEADER
  9
$ACADVER
  1
AC1009
  9
$DWGCODEPAGE
  3
dos932
  9
$INSBASE
 10
0.0
 20
0.0
 30
0.0
  9
$EXTMIN
 10
-194.25
 20
-133.5
 30
0.0
  9
$EXTMAX
 10
194.80000305
 20
132.6000061
 30
0.0
  9
$LIMMIN
 10
-194.25
 20
-133.5
  9
$LIMMAX
 10
194.80000305
 20
132.6000061
  9
$ORTHOMODE
 70
       0
  9
$REGENMODE
 70
       1
  9
$FILLMODE
 70
       1
  9
$QTEXTMODE
 70
       0
  9
$MIRRTEXT
 70
       1
  9
$DRAGMODE
 70
       2
  9
$LTSCALE
 40
1.0
  9
$OSMODE
 70
       0
  9
$ATTMODE
 70
       1
  9
$TEXTSIZE
 40
3.20000005
  9
$TRACEWID
 40
0.05
  9
$TEXTSTYLE
  7
MX_NOTE_STANDARD
  9
$CLAYER
  8
0
  9
$CELTYPE
  6
CONTINUOUS
  9
$CECOLOR
 62
     256
  9
$DIMSCALE
 40
1.0
  9
$DIMASZ
 40
2.5
  9
$DIMEXO
 40
1.5
  9
$DIMDLI
 40
3.75
  9
$DIMRND
 40
0.0
  9
$DIMDLE
 40
0.0
  9
$DIMEXE
 40
1.5
  9
$DIMTP
 40
0.0
  9
$DIMTM
 40
0.0
  9
$DIMTXT
 40
3.20000005
  9
$DIMCEN
 40
2.5
  9
$DIMTSZ
 40
0.0
  9
$DIMTOL
 70
       0
  9
$DIMLIM
 70
       0
  9
$DIMTIH
 70
       0
  9
$DIMTOH
 70
       0
  9
$DIMSE1
 70
       0
  9
$DIMSE2
 70
       0
  9
$DIMTAD
 70
       1
  9
$DIMZIN
 70
       8
  9
$DIMBLK
  1

  9
$DIMASO
 70
       1
  9
$DIMSHO
 70
       1
  9
$DIMPOST
  1

  9
$DIMAPOST
  1

  9
$DIMALT
 70
       0
  9
$DIMALTD
 70
       4
  9
$DIMALTF
 40
0.03937008
  9
$DIMLFAC
 40
1.0
  9
$DIMTOFL
 70
       1
  9
$DIMTVP
 40
0.0
  9
$DIMTIX
 70
       0
  9
$DIMSOXD
 70
       0
  9
$DIMSAH
 70
       0
  9
$DIMBLK1
  1

  9
$DIMBLK2
  1

  9
$DIMSTYLE
  2
MXDIMSTYLE
  9
$DIMCLRD
 70
       0
  9
$DIMCLRE
 70
       0
  9
$DIMCLRT
 70
       0
  9
$DIMTFAC
 40
1.0
  9
$DIMGAP
 40
1.0
  9
$LUNITS
 70
       2
  9
$LUPREC
 70
       4
  9
$AXISMODE
 70
       0
  9
$AXISUNIT
 10
0.0
 20
0.0
  9
$SKETCHINC
 40
0.1
  9
$FILLETRAD
 40
0.0
  9
$AUNITS
 70
       0
  9
$AUPREC
 70
       0
  9
$MENU
  1
acad
  9
$ELEVATION
 40
0.0
  9
$PELEVATION
 40
0.0
  9
$THICKNESS
 40
0.0
  9
$LIMCHECK
 70
       0
  9
$BLIPMODE
 70
       1
  9
$CHAMFERA
 40
0.0
  9
$CHAMFERB
 40
0.0
  9
$SKPOLY
 70
       0
  9
$TDCREATE
 40
2453581.678946759
  9
$TDUPDATE
 40
2453581.678946759
  9
$TDINDWG
 40
0.0000000000
  9
$TDUSRTIMER
 40
0.0000000000
  9
$USRTIMER
 70
       1
  9
$ANGBASE
 50
0.0
  9
$ANGDIR
 70
       0
  9
$PDMODE
 70
       0
  9
$PDSIZE
 40
0.0
  9
$PLINEWID
 40
0.0
  9
$COORDS
 70
       1
  9
$SPLFRAME
 70
       0
  9
$SPLINETYPE
 70
       6
  9
$SPLINESEGS
 70
       8
  9
$ATTDIA
 70
       0
  9
$ATTREQ
 70
       1
  9
$HANDLING
 70
       1
  9
$HANDSEED
  5
252
  9
$SURFTAB1
 70
       6
  9
$SURFTAB2
 70
       6
  9
$SURFTYPE
 70
       6
  9
$SURFU
 70
       6
  9
$SURFV
 70
       6
  9
$UCSNAME
  2

  9
$UCSORG
 10
0.0
 20
0.0
 30
0.0
  9
$UCSXDIR
 10
1.0
 20
0.0
 30
0.0
  9
$UCSYDIR
 10
0.0
 20
1.0
 30
0.0
  9
$PUCSNAME
  2

  9
$PUCSORG
 10
0.0
 20
0.0
 30
0.0
  9
$PUCSXDIR
 10
1.0
 20
0.0
 30
0.0
  9
$PUCSYDIR
 10
0.0
 20
1.0
 30
0.0
  9
$USERI1
 70
       0
  9
$USERI2
 70
       0
  9
$USERI3
 70
       0
  9
$USERI4
 70
       0
  9
$USERI5
 70
       0
  9
$USERR1
 40
0.0
  9
$USERR2
 40
0.0
  9
$USERR3
 40
0.0
  9
$USERR4
 40
0.0
  9
$USERR5
 40
0.0
  9
$WORLDVIEW
 70
       1
  9
$SHADEDGE
 70
       3
  9
$SHADEDIF
 70
      70
  9
$TILEMODE
 70
       1
  9
$MAXACTVP
 70
      16
  9
$PINSBASE
 10
0.0
 20
0.0
 30
0.0
  9
$PLIMCHECK
 70
       0
  9
$PEXTMIN
 10
1.00000000E+20
 20
1.00000000E+20
 30
1.00000000E+20
  9
$PEXTMAX
 10
-1.00000000E+20
 20
-1.00000000E+20
 30
-1.00000000E+20
  9
$PLIMMIN
 10
0.0
 20
0.0
  9
$PLIMMAX
 10
12.0
 20
9.0
  9
$UNITMODE
 70
       0
  9
$VISRETAIN
 70
       0
  9
$PLINEGEN
 70
       1
  9
$PSLTSCALE
 70
       0
  9
$TREEDEPTH
 70
    3020
  9
$DWGCODEPAGE
  3
dos932
  0
ENDSEC
  0
SECTION
  2
TABLES
  0
TABLE
  2
VPORT
 70
       1
  0
VPORT
  2
*ACTIVE
 70
       0
 10
0.0
 20
0.0
 11
1.0
 21
1.0
 12
0.27500153
 22
-0.44999695
 13
0.0
 23
0.0
 14
1.0
 24
1.0
 15
0.0
 25
0.0
 16
0.0
 26
0.0
 36
1.0
 17
0.0
 27
0.0
 37
0.0
 40
268.76100616
 41
1.73205081
 42
50.0
 43
0.0
 44
0.0
 50
0.0
 51
0.0
 71
       0
 72
     100
 73
       1
 74
       1
 75
       0
 76
       0
 77
       0
 78
       0
  0
ENDTAB
  0
TABLE
  2
LTYPE
 70
       2
  0
LTYPE
  2
CONTINUOUS
 70
      64
  3
Solid line
 72
      65
 73
       0
 40
0.0
  0
LTYPE
  2
DASHED
 70
      64
  3
Dashed __ __ __ __ __ __ __ __ __ __ __ __ __ _
 72
      65
 73
       2
 40
4.0
 49
2.0
 49
-2.0
  0
ENDTAB
  0
TABLE
  2
LAYER
 70
       2
  0
LAYER
  2
0
 70
       0
 62
       7
  6
CONTINUOUS
  0
LAYER
  2
DEFPOINTS
 70
       0
 62
       7
  6
CONTINUOUS
  0
ENDTAB
  0
TABLE
  2
STYLE
 70
       1
  0
STYLE
  2
MX_NOTE_STANDARD
 70
       0
 40
0.0
 41
1.0
 50
0.0
 71
       0
 42
3.20000005
  3
txt.shx
  4
extfont.shx
  0
ENDTAB
  0
TABLE
  2
VIEW
 70
       0
  0
ENDTAB
  0
TABLE
  2
UCS
 70
       0
  0
ENDTAB
  0
TABLE
  2
APPID
 70
       1
  0
APPID
  2
ACAD
 70
       0
  0
ENDTAB
  0
TABLE
  2
DIMSTYLE
 70
       1
  0
DIMSTYLE
  2
MXDIMSTYLE
 70
       0
  3

  4

  5

  6

  7

 40
1.0
 41
2.5
 42
1.5
 43
3.75
 44
1.5
 45
0.0
 46
0.0
 47
0.0
 48
0.0
 71
       0
 72
       0
 73
       0
 74
       0
 75
       0
 76
       0
 77
       1
 78
       8
140
3.20000005
141
2.5
142
0.0
143
0.03937008
144
1.0
145
0.0
146
1.0
147
1.0
170
       0
171
       4
172
       1
173
       0
174
       0
175
       0
176
       0
177
       0
178
       0
  0
ENDTAB
  0
ENDSEC
  0
SECTION
  2
BLOCKS
  0
ENDSEC
  0
SECTION
  2
ENTITIES
  0
TEXT
  8
0
  6
CONTINUOUS
 62
       7
  5
1E
 10
58.65651836
 20
-53.4113687
 30
0.0
 40
2.79999995
  1
OUT
 41
0.83333332
  7
MX_NOTE_STANDARD
 11
58.65651836
 21
-52.01136872
 31
0.0
 73
       2
  0
LINE
  8
0
  6
CONTINUOUS
 62
       7
  5
1F
 10
53.42181406
 20
48.0
 30
0.0
 11
53.42181406
 21
80.0
 31
0.0
  0
LINE
  8
0
  6
CONTINUOUS
 62
       7
  5
20
 10
53.42181406
 20
80.0
 30
0.0
 11
146.42181406
 21
80.0
 31
0.0
  0
LINE
  8
0
  6
CONTINUOUS
 62
       2
  5
21
 10
57.42181406
 20
57.54967589
 30
0.0
 11
57.42181406
 21
62.70187039
 31
0.0
  0
LINE
  8
0
  6
CONTINUOUS
 62
       2
  5
22
 10
54.76318938
 20
60.0
 30
0.0
 11
59.99464842
 21
60.0
 31
0.0
  0
CIRCLE
  8
0
  6
CONTINUOUS
 62
       7
  5
23
 10
57.42181406
 20
60.0
 30
0.0
 40
1.6
  0
LINE
  8
0
  6
CONTINUOUS
 62
       2
  5
24
 10
142.42181406
 20
57.54967589
 30
0.0
 11
142.42181406
 21
62.70187039
 31
0.0
  0
LINE
  8
0
  6
CONTINUOUS
 62
       2
  5
25
 10
145.08043874
 20
60.0
 30
0.0
 11
139.8489797
 21
60.0
 31
0.0
  0
CIRCLE
  8
0
  6
CONTINUOUS
 62
       7
  5
26
 10
142.42181406
 20
60.0
 30
0.0
 40
1.6
  0
LINE
  8
0
  6
CONTINUOUS
 62
       2
  5
27
 10
71.42181406
 20
19.6702877
 30
0.0
 11
71.42181406
 21
82.50169167
 31
0.0
  0
LINE
  8
0
  6
CONTINUOUS
 62
       7
  5
28
 10
62.42181406
 20
39.40672941
 30
0.0
 11
62.42181406
 21
80.0
 31
0.0
  0
LINE
  8
0
  6
CONTINUOUS
 62
       7
  5
29
 10
80.42181406
 20
39.40672941
 30
0.0
 11
80.42181406
 21
80.0
 31
0.0
  0
LINE
  8
0
  6
CONTINUOUS
 62
       7
  5
2A
 10
67.17181406
 20
23.0
 30
0.0
 11
75.67181406
 21
23.0
 31
0.0
  0
LINE
  8
0
  6
CONTINUOUS
 62
       7
  5
2B
 10
65.42181406
 20
25.5
 30
0.0
 11
77.42181406
 21
25.5
 31
0.0
  0
LINE
  8
0
  6
CONTINUOUS
 62
       7
  5
2C
 10
67.17181406
 20
23.0
 30
0.0
 11
67.17181406
 21
25.5
 31
0.0
  0
LINE
  8
0
  6
CONTINUOUS
 62
       7
  5
2D
 10
75.67181406
 20
23.0
 30
0.0
 11
75.67181406
 21
25.5
 31
0.0
  0
LINE
  8
0
  6
CONTINUOUS
 62
       7
  5
2E
 10
65.42181406
 20
25.5
 30
0.0
 11
65.42181406
 21
30.5
 31
0.0
  0
LINE
  8
0
  6
CONTINUOUS
 62
       7
  5
2F
 10
77.42181406
 20
25.5
 30
0.0
 11
77.42181406
 21
30.5
 31
0.0
  0
LINE
  8
0
  6
CONTINUOUS
 62
       2
  5
30
 10
77.02181406
 20
25.5
 30
0.0
 11
77.02181406
 21
30.5
 31
0.0
  0
LINE
  8
0
  6
CONTINUOUS
 62
       2
  5
31
 10
65.82181406
 20
25.5
 30
0.0
 11
65.82181406
 21
30.5
 31
0.0
  0
LINE
  8
0
  6
CONTINUOUS
 62
       7
  5
32
 10
63.92181406
 20
30.5
 30
0.0
 11
78.92181406
 21
30.5
 31
0.0
  0
LINE
  8
0
  6
CONTINUOUS
 62
       7
  5
33
 10
63.92181406
 20
33.0
 30
0.0
 11
78.92181406
 21
33.0
 31
0.0
  0
LINE
  8
0
  6
CONTINUOUS
 62
       7
  5
34
 10
62.42181406
 20
39.40672941
 30
0.0
 11
80.42181406
 21
39.40672941
 31
0.0
  0
LINE
  8
0
  6
CONTINUOUS
 62
       7
  5
35
 10
78.92181406
 20
30.5
 30
0.0
 11
78.92181406
 21
37.72759904
 31
0.0
  0
LINE
  8
0
  6
CONTINUOUS
 62
       7
  5
36
 10
63.92181406
 20
30.5
 30
0.0
 11
63.92181406
 21
37.72759904
 31
0.0
  0
LINE
  8
0
  6
CONTINUOUS
 62
       7
  5
37
 10
72.42181406
 20
30.5
 30
0.0
 11
72.42181406
 21
33.0
 31
0.0
  0
LINE
  8
0
  6
CONTINUOUS
 62
       7
  5
38
 10
73.42181406
 20
30.5
 30
0.0
 11
73.42181406
 21
33.0
 31
0.0
  0
LINE
  8
0
  6
CONTINUOUS
 62
       7
  5
39
 10
74.42181406
 20
30.5
 30
0.0
 11
74.42181406
 21
33.0
 31
0.0
  0
LINE
  8
0
  6
CONTINUOUS
 62
       7
  5
3A
 10
75.32181406
 20
30.5
 30
0.0
 11
75.32181406
 21
33.0
 31
0.0
  0
LINE
  8
0
  6
CONTINUOUS
 62
       7
  5
3B
 10
76.22181406
 20
30.5
 30
0.0
 11
76.22181406
 21
33.0
 31
0.0
  0
LINE
  8
0
  6
CONTINUOUS
 62
       7
  5
3C
 10
77.02181406
 20
30.5
 30
0.0
 11
77.02181406
 21
33.0
 31
0.0
  0
LINE
  8
0
  6
CONTINUOUS
 62
       7
  5
3D
 10
77.62181406
 20
30.5
 30
0.0
 11
77.62181406
 21
33.0
 31
0.0
  0
LINE
  8
0
  6
CONTINUOUS
 62
       7
  5
3E
 10
78.12181406
 20
30.5
 30
0.0
 11
78.12181406
 21
33.0
 31
0.0
  0
LINE
  8
0
  6
CONTINUOUS
 62
       7
  5
3F
 10
78.47181406
 20
30.5
 30
0.0
 11
78.47181406
 21
33.0
 31
0.0
  0
LINE
  8
0
  6
CONTINUOUS
 62
       7
  5
40
 10
78.72181406
 20
30.5
 30
0.0
 11
78.72181406
 21
33.0
 31
0.0
  0
LINE
  8
0
  6
CONTINUOUS
 62
       7
  5
41
 10
70.42181406
 20
30.5
 30
0.0
 11
70.42181406
 21
33.0
 31
0.0
  0
LINE
  8
0
  6
CONTINUOUS
 62
       7
  5
42
 10
69.42181406
 20
30.5
 30
0.0
 11
69.42181406
 21
33.0
 31
0.0
  0
LINE
  8
0
  6
CONTINUOUS
 62
       7
  5
43
 10
68.42181406
 20
30.5
 30
0.0
 11
68.42181406
 21
33.0
 31
0.0
  0
LINE
  8
0
  6
CONTINUOUS
 62
       7
  5
44
 10
67.52181406
 20
30.5
 30
0.0
 11
67.52181406
 21
33.0
 31
0.0
  0
LINE
  8
0
  6
CONTINUOUS
 62
       7
  5
45
 10
66.62181406
 20
30.5
 30
0.0
 11
66.62181406
 21
33.0
 31
0.0
  0
LINE
  8
0
  6
CONTINUOUS
 62
       7
  5
46
 10
65.82181406
 20
30.5
 30
0.0
 11
65.82181406
 21
33.0
 31
0.0
  0
LINE
  8
0
  6
CONTINUOUS
 62
       7
  5
47
 10
65.22181406
 20
30.5
 30
0.0
 11
65.22181406
 21
33.0
 31
0.0
  0
LINE
  8
0
  6
CONTINUOUS
 62
       7
  5
48
 10
64.72181406
 20
30.5
 30
0.0
 11
64.72181406
 21
33.0
 31
0.0
  0
LINE
  8
0
  6
CONTINUOUS
 62
       7
  5
49
 10
64.37181406
 20
30.5
 30
0.0
 11
64.37181406
 21
33.0
 31
0.0
  0
LINE
  8
0
  6
CONTINUOUS
 62
       7
  5
4A
 10
64.12181406
 20
30.5
 30
0.0
 11
64.12181406
 21
33.0
 31
0.0
  0
CIRCLE
  8
0
  6
CONTINUOUS
 62
       7
  5
4B
 10
77.92181406
 20
65.0
 30
0.0
 40
2.5
  0
LINE
  8
0
  6
CONTINUOUS
 62
       7
  5
4C
 10
76.68437719
 20
63.76256313
 30
0.0
 11
79.15925093
 21
66.23743687
 31
0.0
  0
LINE
  8
0
  6
CONTINUOUS
 62
       7
  5
4D
 10
79.15925093
 20
63.76256313
 30
0.0
 11
76.68437719
 21
66.23743687
 31
0.0
  0
CIRCLE
  8
0
  6
CONTINUOUS
 62
       7
  5
4E
 10
64.92181406
 20
65.0
 30
0.0
 40
2.5
  0
LINE
  8
0
  6
CONTINUOUS
 62
       7
  5
4F
 10
66.15925093
 20
63.76256313
 30
0.0
 11
63.68437719
 21
66.23743687
 31
0.0
  0
LINE
  8
0
  6
CONTINUOUS
 62
       7
  5
50
 10
63.68437719
 20
63.76256313
 30
0.0
 11
66.15925093
 21
66.23743687
 31
0.0
  0
LINE
  8
0
  6
CONTINUOUS
 62
       7
  5
51
 10
71.42181406
 20
33.0
 30
0.0
 11
71.42181406
 21
30.5
 31
0.0
  0
LINE
  8
0
  6
CONTINUOUS
 62
       7
  5
52
 10
65.42181406
 20
39.90672941
 30
0.0
 11
77.42181406
 21
39.90672941
 31
0.0
  0
LINE
  8
0
  6
CONTINUOUS
 62
       7
  5
53
 10
65.42181406
 20
50.90672941
 30
0.0
 11
77.42181406
 21
50.90672941
 31
0.0
  0
LINE
  8
0
  6
CONTINUOUS
 62
       7
  5
54
 10
77.42181406
 20
39.90672941
 30
0.0
 11
77.42181406
 21
50.90672941
 31
0.0
  0
LINE
  8
0
  6
CONTINUOUS
 62
       7
  5
55
 10
65.42181406
 20
39.90672941
 30
0.0
 11
65.42181406
 21
50.90672941
 31
0.0
  0
LINE
  8
0
  6
CONTINUOUS
 62
       7
  5
56
 10
69.92181406
 20
40.90672941
 30
0.0
 11
69.92181406
 21
47.40672941
 31
0.0
  0
LINE
  8
0
  6
CONTINUOUS
 62
       7
  5
57
 10
72.92181406
 20
40.90672941
 30
0.0
 11
72.92181406
 21
47.40672941
 31
0.0
  0
LINE
  8
0
  6
CONTINUOUS
 62
       7
  5
58
 10
69.92181406
 20
40.90672941
 30
0.0
 11
72.92181406
 21
40.90672941
 31
0.0
  0
LINE
  8
0
  6
CONTINUOUS
 62
       7
  5
59
 10
72.42181406
 20
40.90672941
 30
0.0
 11
72.42181406
 21
47.40672941
 31
0.0
  0
LINE
  8
0
  6
CONTINUOUS
 62
       7
  5
5A
 10
70.42181406
 20
40.90672941
 30
0.0
 11
70.42181406
 21
47.40672941
 31
0.0
  0
LINE
  8
0
  6
CONTINUOUS
 62
       7
  5
5B
 10
70.42181406
 20
41.65672941
 30
0.0
 11
72.42181406
 21
41.65672941
 31
0.0
  0
LINE
  8
0
  6
CONTINUOUS
 62
       7
  5
5C
 10
69.92181406
 20
47.40672941
 30
0.0
 11
72.92181406
 21
47.40672941
 31
0.0
  0
LINE
  8
0
  6
CONTINUOUS
 62
       7
  5
5D
 10
72.92181406
 20
42.70672941
 30
0.0
 11
74.42181406
 21
42.70672941
 31
0.0
  0
LINE
  8
0
  6
CONTINUOUS
 62
       7
  5
5E
 10
72.92181406
 20
44.30672941
 30
0.0
 11
74.42181406
 21
44.30672941
 31
0.0
  0
LINE
  8
0
  6
CONTINUOUS
 62
       7
  5
5F
 10
72.92181406
 20
45.90672941
 30
0.0
 11
74.42181406
 21
45.90672941
 31
0.0
  0
LINE
  8
0
  6
CONTINUOUS
 62
       7
  5
60
 10
68.42181406
 20
41.90672941
 30
0.0
 11
69.92181406
 21
41.90672941
 31
0.0
  0
LINE
  8
0
  6
CONTINUOUS
 62
       7
  5
61
 10
68.42181406
 20
43.50672941
 30
0.0
 11
69.92181406
 21
43.50672941
 31
0.0
  0
LINE
  8
0
  6
CONTINUOUS
 62
       7
  5
62
 10
68.42181406
 20
45.10672941
 30
0.0
 11
69.92181406
 21
45.10672941
 31
0.0
  0
LINE
  8
0
  6
CONTINUOUS
 62
       7
  5
63
 10
68.42181406
 20
46.70672941
 30
0.0
 11
69.92181406
 21
46.70672941
 31
0.0
  0
LINE
  8
0
  6
CONTINUOUS
 62
       7
  5
64
 10
63.92181406
 20
53.90672941
 30
0.0
 11
78.92181406
 21
53.90672941
 31
0.0
  0
LINE
  8
0
  6
CONTINUOUS
 62
       7
  5
65
 10
68.92181406
 20
67.90672941
 30
0.0
 11
73.92181406
 21
67.90672941
 31
0.0
  0
LINE
  8
0
  6
CONTINUOUS
 62
       7
  5
66
 10
63.92181406
 20
53.90672941
 30
0.0
 11
63.92181406
 21
61.0
 31
0.0
  0
LINE
  8
0
  6
CONTINUOUS
 62
       7
  5
67
 10
68.92181406
 20
65.0
 30
0.0
 11
68.92181406
 21
67.90672941
 31
0.0
  0
ARC
  8
0
  6
CONTINUOUS
 62
       7
  5
68
 10
64.92181406
 20
65.0
 30
0.0
 40
4.0
 50
270.0
 51
0.0
  0
LINE
  8
0
  6
CONTINUOUS
 62
       7
  5
69
 10
64.92181406
 20
61.0
 30
0.0
 11
63.92181406
 21
61.0
 31
0.0
  0
LINE
  8
0
  6
CONTINUOUS
 62
       7
  5
6A
 10
73.92181406
 20
65.0
 30
0.0
 11
73.92181406
 21
67.90672941
 31
0.0
  0
ARC
  8
0
  6
CONTINUOUS
 62
       7
  5
6B
 10
77.92181406
 20
65.0
 30
0.0
 40
4.0
 50
180.0
 51
270.0
  0
LINE
  8
0
  6
CONTINUOUS
 62
       7
  5
6C
 10
78.92181406
 20
53.90672941
 30
0.0
 11
78.92181406
 21
61.0
 31
0.0
  0
LINE
  8
0
  6
CONTINUOUS
 62
       7
  5
6D
 10
77.92181406
 20
61.0
 30
0.0
 11
78.92181406
 21
61.0
 31
0.0
  0
LINE
  8
0
  6
CONTINUOUS
 62
       7
  5
6E
 10
62.92181406
 20
79.0
 30
0.0
 11
79.92181406
 21
79.0
 31
0.0
  0
LINE
  8
0
  6
CONTINUOUS
 62
       7
  5
6F
 10
62.92181406
 20
72.0
 30
0.0
 11
79.92181406
 21
72.0
 31
0.0
  0
LINE
  8
0
  6
CONTINUOUS
 62
       7
  5
70
 10
62.92181406
 20
72.0
 30
0.0
 11
62.92181406
 21
79.0
 31
0.0
  0
LINE
  8
0
  6
CONTINUOUS
 62
       7
  5
71
 10
79.92181406
 20
72.0
 30
0.0
 11
79.92181406
 21
79.0
 31
0.0
  0
LINE
  8
0
  6
CONTINUOUS
 62
       7
  5
72
 10
-60.0
 20
-44.0
 30
0.0
 11
-60.0
 21
-60.0
 31
0.0
  0
LINE
  8
0
  6
CONTINUOUS
 62
       7
  5
73
 10
-28.0
 20
-44.0
 30
0.0
 11
-28.0
 21
-60.0
 31
0.0
  0
LINE
  8
0
  6
CONTINUOUS
 62
       2
  5
74
 10
-22.79703357
 20
-52.0
 30
0.0
 11
-37.726512
 21
-52.0
 31
0.0
  0
LINE
  8
0
  6
DASHED
 62
       2
  5
76
 10
-35.0
 20
-48.0
 30
0.0
 11
-29.0
 21
-48.0
 31
0.0
  0
LINE
  8
0
  6
DASHED
 62
       2
  5
77
 10
-35.0
 20
-56.0
 30
0.0
 11
-29.0
 21
-56.0
 31
0.0
  0
LINE
  8
0
  6
DASHED
 62
       2
  5
78
 10
-29.0
 20
-48.0
 30
0.0
 11
-29.0
 21
-56.0
 31
0.0
  0
LINE
  8
0
  6
DASHED
 62
       2
  5
79
 10
-29.0
 20
-48.0
 30
0.0
 11
-28.0
 21
-47.0
 31
0.0
  0
LINE
  8
0
  6
DASHED
 62
       2
  5
7A
 10
-28.0
 20
-47.0
 30
0.0
 11
-35.0
 21
-47.18330145
 31
0.0
  0
LINE
  8
0
  6
DASHED
 62
       2
  5
7B
 10
-28.0
 20
-57.0
 30
0.0
 11
-35.0
 21
-56.81669855
 31
0.0
  0
LINE
  8
0
  6
DASHED
 62
       2
  5
7C
 10
-29.0
 20
-56.0
 30
0.0
 11
-28.0
 21
-57.0
 31
0.0
  0
LINE
  8
0
  6
CONTINUOUS
 62
       7
  5
7D
 10
-60.0
 20
-44.0
 30
0.0
 11
-60.0
 21
-26.0
 31
0.0
  0
LINE
  8
0
  6
CONTINUOUS
 62
       2
  5
7E
 10
-0.70468265
 20
-35.0
 30
0.0
 11
-62.68350465
 21
-35.0
 31
0.0
  0
LINE
  8
0
  6
CONTINUOUS
 62
       7
  5
7F
 10
-13.0
 20
-35.0
 30
0.0
 11
-10.5
 21
-35.0
 31
0.0
  0
LINE
  8
0
  6
CONTINUOUS
 62
       7
  5
80
 10
-10.5
 20
-42.3
 30
0.0
 11
-13.0
 21
-42.3
 31
0.0
  0
LINE
  8
0
  6
CONTINUOUS
 62
       7
  5
81
 10
-10.5
 20
-42.05
 30
0.0
 11
-13.0
 21
-42.05
 31
0.0
  0
LINE
  8
0
  6
CONTINUOUS
 62
       7
  5
82
 10
-10.5
 20
-41.7
 30
0.0
 11
-13.0
 21
-41.7
 31
0.0
  0
LINE
  8
0
  6
CONTINUOUS
 62
       7
  5
83
 10
-10.5
 20
-41.2
 30
0.0
 11
-13.0
 21
-41.2
 31
0.0
  0
LINE
  8
0
  6
CONTINUOUS
 62
       7
  5
84
 10
-10.5
 20
-40.6
 30
0.0
 11
-13.0
 21
-40.6
 31
0.0
  0
LINE
  8
0
  6
CONTINUOUS
 62
       7
  5
85
 10
-10.5
 20
-39.8
 30
0.0
 11
-13.0
 21
-39.8
 31
0.0
  0
LINE
  8
0
  6
CONTINUOUS
 62
       7
  5
86
 10
-10.5
 20
-38.9
 30
0.0
 11
-13.0
 21
-38.9
 31
0.0
  0
LINE
  8
0
  6
CONTINUOUS
 62
       7
  5
87
 10
-10.5
 20
-38.0
 30
0.0
 11
-13.0
 21
-38.0
 31
0.0
  0
LINE
  8
0
  6
CONTINUOUS
 62
       7
  5
88
 10
-10.5
 20
-37.0
 30
0.0
 11
-13.0
 21
-37.0
 31
0.0
  0
LINE
  8
0
  6
CONTINUOUS
 62
       7
  5
89
 10
-10.5
 20
-36.0
 30
0.0
 11
-13.0
 21
-36.0
 31
0.0
  0
LINE
  8
0
  6
CONTINUOUS
 62
       7
  5
8A
 10
-10.5
 20
-27.7
 30
0.0
 11
-13.0
 21
-27.7
 31
0.0
  0
LINE
  8
0
  6
CONTINUOUS
 62
       7
  5
8B
 10
-10.5
 20
-27.95
 30
0.0
 11
-13.0
 21
-27.95
 31
0.0
  0
LINE
  8
0
  6
CONTINUOUS
 62
       7
  5
8C
 10
-10.5
 20
-28.3
 30
0.0
 11
-13.0
 21
-28.3
 31
0.0
  0
LINE
  8
0
  6
CONTINUOUS
 62
       7
  5
8D
 10
-10.5
 20
-28.8
 30
0.0
 11
-13.0
 21
-28.8
 31
0.0
  0
LINE
  8
0
  6
CONTINUOUS
 62
       7
  5
8E
 10
-10.5
 20
-29.4
 30
0.0
 11
-13.0
 21
-29.4
 31
0.0
  0
LINE
  8
0
  6
CONTINUOUS
 62
       7
  5
8F
 10
-10.5
 20
-30.2
 30
0.0
 11
-13.0
 21
-30.2
 31
0.0
  0
LINE
  8
0
  6
CONTINUOUS
 62
       7
  5
90
 10
-10.5
 20
-31.1
 30
0.0
 11
-13.0
 21
-31.1
 31
0.0
  0
LINE
  8
0
  6
CONTINUOUS
 62
       7
  5
91
 10
-10.5
 20
-32.0
 30
0.0
 11
-13.0
 21
-32.0
 31
0.0
  0
LINE
  8
0
  6
CONTINUOUS
 62
       7
  5
92
 10
-10.5
 20
-33.0
 30
0.0
 11
-13.0
 21
-33.0
 31
0.0
  0
LINE
  8
0
  6
CONTINUOUS
 62
       7
  5
93
 10
-10.5
 20
-34.0
 30
0.0
 11
-13.0
 21
-34.0
 31
0.0
  0
LINE
  8
0
  6
CONTINUOUS
 62
       7
  5
94
 10
-10.5
 20
-42.5
 30
0.0
 11
-19.40672941
 21
-42.5
 31
0.0
  0
LINE
  8
0
  6
CONTINUOUS
 62
       7
  5
95
 10
-10.5
 20
-27.5
 30
0.0
 11
-19.40672941
 21
-27.5
 31
0.0
  0
LINE
  8
0
  6
CONTINUOUS
 62
       7
  5
96
 10
-19.40672941
 20
-44.0
 30
0.0
 11
-19.40672941
 21
-26.0
 31
0.0
  0
LINE
  8
0
  6
CONTINUOUS
 62
       7
  5
97
 10
-13.0
 20
-42.5
 30
0.0
 11
-13.0
 21
-27.5
 31
0.0
  0
LINE
  8
0
  6
CONTINUOUS
 62
       7
  5
98
 10
-10.5
 20
-42.5
 30
0.0
 11
-10.5
 21
-27.5
 31
0.0
  0
LINE
  8
0
  6
CONTINUOUS
 62
       2
  5
99
 10
-5.5
 20
-40.6
 30
0.0
 11
-10.5
 21
-40.6
 31
0.0
  0
LINE
  8
0
  6
CONTINUOUS
 62
       2
  5
9A
 10
-5.5
 20
-29.4
 30
0.0
 11
-10.5
 21
-29.4
 31
0.0
  0
LINE
  8
0
  6
CONTINUOUS
 62
       7
  5
9B
 10
-5.5
 20
-29.0
 30
0.0
 11
-10.5
 21
-29.0
 31
0.0
  0
LINE
  8
0
  6
CONTINUOUS
 62
       7
  5
9C
 10
-5.5
 20
-41.0
 30
0.0
 11
-10.5
 21
-41.0
 31
0.0
  0
LINE
  8
0
  6
CONTINUOUS
 62
       7
  5
9D
 10
-3.0
 20
-30.75
 30
0.0
 11
-5.5
 21
-30.75
 31
0.0
  0
LINE
  8
0
  6
CONTINUOUS
 62
       7
  5
9E
 10
-3.0
 20
-39.25
 30
0.0
 11
-5.5
 21
-39.25
 31
0.0
  0
LINE
  8
0
  6
CONTINUOUS
 62
       7
  5
9F
 10
-5.5
 20
-41.0
 30
0.0
 11
-5.5
 21
-29.0
 31
0.0
  0
LINE
  8
0
  6
CONTINUOUS
 62
       7
  5
A0
 10
-3.0
 20
-39.25
 30
0.0
 11
-3.0
 21
-35.75
 31
0.0
  0
LINE
  8
0
  6
CONTINUOUS
 62
       7
  5
A1
 10
-19.40672941
 20
-26.0
 30
0.0
 11
-60.0
 21
-26.0
 31
0.0
  0
LINE
  8
0
  6
CONTINUOUS
 62
       7
  5
A2
 10
-19.40672941
 20
-44.0
 30
0.0
 11
-60.0
 21
-44.0
 31
0.0
  0
LINE
  8
0
  6
CONTINUOUS
 62
       7
  5
A3
 10
-3.0
 20
-34.25
 30
0.0
 11
-5.0
 21
-34.25
 31
0.0
  0
LINE
  8
0
  6
CONTINUOUS
 62
       7
  5
A4
 10
-3.0
 20
-35.75
 30
0.0
 11
-5.0
 21
-35.75
 31
0.0
  0
LINE
  8
0
  6
CONTINUOUS
 62
       7
  5
A5
 10
-5.0
 20
-35.75
 30
0.0
 11
-5.0
 21
-34.25
 31
0.0
  0
LINE
  8
0
  6
CONTINUOUS
 62
       7
  5
A6
 10
-3.0
 20
-34.25
 30
0.0
 11
-3.0
 21
-30.75
 31
0.0
  0
LINE
  8
0
  6
CONTINUOUS
 62
       2
  5
A7
 10
64.42181406
 20
37.11642654
 30
0.0
 11
64.42181406
 21
39.88472874
 31
0.0
  0
ARC
  8
0
  6
CONTINUOUS
 62
       7
  5
A8
 10
64.42181406
 20
39.40672941
 30
0.0
 40
2.0
 50
180.0
 51
223.54732539
  0
ARC
  8
0
  6
CONTINUOUS
 62
       7
  5
A9
 10
64.42181406
 20
43.70672941
 30
0.0
 40
6.0
 50
260.3712884
 51
270.0
  0
ARC
  8
0
  6
CONTINUOUS
 62
       7
  5
AA
 10
63.5520474
 20
38.57998522
 30
0.0
 40
0.8
 50
223.54732539
 51
260.3712884
  0
ARC
  8
0
  6
CONTINUOUS
 62
       7
  5
AB
 10
64.42181406
 20
39.40672941
 30
0.0
 40
2.0
 50
316.45267461
 51
0.0
  0
ARC
  8
0
  6
CONTINUOUS
 62
       7
  5
AC
 10
64.42181406
 20
43.70672941
 30
0.0
 40
6.0
 50
270.0
 51
279.6287116
  0
ARC
  8
0
  6
CONTINUOUS
 62
       7
  5
AD
 10
65.29158073
 20
38.57998522
 30
0.0
 40
0.8
 50
279.6287116
 51
316.45267461
  0
LINE
  8
0
  6
CONTINUOUS
 62
       2
  5
AE
 10
78.42181406
 20
37.11642654
 30
0.0
 11
78.42181406
 21
39.88472874
 31
0.0
  0
ARC
  8
0
  6
CONTINUOUS
 62
       7
  5
AF
 10
78.42181406
 20
39.40672941
 30
0.0
 40
2.0
 50
316.45267461
 51
0.0
  0
ARC
  8
0
  6
CONTINUOUS
 62
       7
  5
B0
 10
78.42181406
 20
39.40672941
 30
0.0
 40
2.0
 50
180.0
 51
223.54732539
  0
ARC
  8
0
  6
CONTINUOUS
 62
       7
  5
B1
 10
77.5520474
 20
38.57998522
 30
0.0
 40
0.8
 50
223.54732539
 51
260.3712884
  0
ARC
  8
0
  6
CONTINUOUS
 62
       7
  5
B2
 10
78.42181406
 20
43.70672941
 30
0.0
 40
6.0
 50
260.3712884
 51
270.0
  0
ARC
  8
0
  6
CONTINUOUS
 62
       7
  5
B3
 10
79.29158073
 20
38.57998522
 30
0.0
 40
0.8
 50
279.6287116
 51
316.45267461
  0
ARC
  8
0
  6
CONTINUOUS
 62
       7
  5
B4
 10
78.42181406
 20
43.70672941
 30
0.0
 40
6.0
 50
270.0
 51
279.6287116
  0
LINE
  8
0
  6
CONTINUOUS
 62
       7
  5
B5
 10
-28.0
 20
-60.0
 30
0.0
 11
-60.0
 21
-60.0
 31
0.0
  0
LINE
  8
0
  6
CONTINUOUS
 62
       7
  5
B6
 10
53.42181406
 20
48.0
 30
0.0
 11
62.42181406
 21
48.0
 31
0.0
  0
LINE
  8
0
  6
CONTINUOUS
 62
       7
  5
B7
 10
80.42181406
 20
48.0
 30
0.0
 11
81.42181406
 21
48.0
 31
0.0
  0
LINE
  8
0
  6
CONTINUOUS
 62
       2
  5
B8
 10
-136.20318346
 20
-52.0
 30
0.0
 11
-124.2673623
 21
-52.0
 31
0.0
  0
LINE
  8
0
  6
CONTINUOUS
 62
       7
  5
B9
 10
-112.23527288
 20
-60.0
 30
0.0
 11
-148.23527288
 21
-60.0
 31
0.0
  0
LINE
  8
0
  6
CONTINUOUS
 62
       2
  5
BA
 10
-141.76855719
 20
-35.0
 30
0.0
 11
-118.70198856
 21
-35.0
 31
0.0
  0
LINE
  8
0
  6
CONTINUOUS
 62
       7
  5
BB
 10
-121.23527288
 20
-26.0
 30
0.0
 11
-139.23527288
 21
-26.0
 31
0.0
  0
LINE
  8
0
  6
CONTINUOUS
 62
       7
  5
BC
 10
-121.23527288
 20
-26.0
 30
0.0
 11
-121.23527288
 21
-44.0
 31
0.0
  0
LINE
  8
0
  6
CONTINUOUS
 62
       7
  5
BD
 10
-139.23527288
 20
-26.0
 30
0.0
 11
-139.23527288
 21
-44.0
 31
0.0
  0
CIRCLE
  8
0
  6
CONTINUOUS
 62
       2
  5
BE
 10
-130.23527288
 20
-52.0
 30
0.0
 40
5.0
  0
CIRCLE
  8
0
  6
CONTINUOUS
 62
       7
  5
BF
 10
-130.23527288
 20
-52.0
 30
0.0
 40
4.0
  0
LINE
  8
0
  6
CONTINUOUS
 62
       2
  5
C0
 10
-130.23527288
 20
-23.46671569
 30
0.0
 11
-130.23527288
 21
-59.14902421
 31
0.0
  0
LINE
  8
0
  6
CONTINUOUS
 62
       7
  5
C1
 10
-148.23527288
 20
-44.0
 30
0.0
 11
-148.23527288
 21
-60.0
 31
0.0
  0
LINE
  8
0
  6
CONTINUOUS
 62
       7
  5
C2
 10
-112.23527288
 20
-44.0
 30
0.0
 11
-112.23527288
 21
-60.0
 31
0.0
  0
LINE
  8
0
  6
CONTINUOUS
 62
       7
  5
C3
 10
-112.23527288
 20
-44.0
 30
0.0
 11
-148.23527288
 21
-44.0
 31
0.0
  0
LINE
  8
0
  6
CONTINUOUS
 62
       2
  5
C4
 10
78.45043302
 20
-52.0
 30
0.0
 11
65.45390348
 21
-52.0
 31
0.0
  0
LINE
  8
0
  6
CONTINUOUS
 62
       7
  5
C5
 10
53.42181406
 20
-60.0
 30
0.0
 11
146.42181406
 21
-60.0
 31
0.0
  0
LINE
  8
0
  6
CONTINUOUS
 62
       7
  5
C6
 10
75.60511419
 20
-34.25
 30
0.0
 11
67.23851393
 21
-34.25
 31
0.0
  0
LINE
  8
0
  6
CONTINUOUS
 62
       7
  5
C7
 10
75.60511419
 20
-35.75
 30
0.0
 11
67.23851393
 21
-35.75
 31
0.0
  0
CIRCLE
  8
0
  6
CONTINUOUS
 62
       7
  5
C8
 10
71.42181406
 20
-35.0
 30
0.0
 40
7.5
  0
CIRCLE
  8
0
  6
CONTINUOUS
 62
       7
  5
C9
 10
78.42181406
 20
-28.0
 30
0.0
 40
2.0
  0
CIRCLE
  8
0
  6
CONTINUOUS
 62
       7
  5
CA
 10
78.42181406
 20
-42.0
 30
0.0
 40
2.0
  0
CIRCLE
  8
0
  6
CONTINUOUS
 62
       7
  5
CB
 10
64.42181406
 20
-42.0
 30
0.0
 40
2.0
  0
CIRCLE
  8
0
  6
CONTINUOUS
 62
       7
  5
CC
 10
64.42181406
 20
-28.0
 30
0.0
 40
2.0
  0
LINE
  8
0
  6
CONTINUOUS
 62
       7
  5
CD
 10
79.34105288
 20
-27.08076118
 30
0.0
 11
77.50257525
 21
-28.91923882
 31
0.0
  0
LINE
  8
0
  6
CONTINUOUS
 62
       7
  5
CE
 10
77.50257525
 20
-27.08076118
 30
0.0
 11
79.34105288
 21
-28.91923882
 31
0.0
  0
LINE
  8
0
  6
CONTINUOUS
 62
       2
  5
CF
 10
78.42181406
 20
-24.65953097
 30
0.0
 11
78.42181406
 21
-31.25771862
 31
0.0
  0
LINE
  8
0
  6
CONTINUOUS
 62
       7
  5
D0
 10
79.34105288
 20
-42.91923882
 30
0.0
 11
77.50257525
 21
-41.08076118
 31
0.0
  0
LINE
  8
0
  6
CONTINUOUS
 62
       7
  5
D1
 10
77.50257525
 20
-42.91923882
 30
0.0
 11
79.34105288
 21
-41.08076118
 31
0.0
  0
LINE
  8
0
  6
CONTINUOUS
 62
       7
  5
D2
 10
63.50257525
 20
-42.91923882
 30
0.0
 11
65.34105288
 21
-41.08076118
 31
0.0
  0
LINE
  8
0
  6
CONTINUOUS
 62
       7
  5
D3
 10
65.34105288
 20
-42.91923882
 30
0.0
 11
63.50257525
 21
-41.08076118
 31
0.0
  0
LINE
  8
0
  6
CONTINUOUS
 62
       7
  5
D4
 10
63.50257525
 20
-27.08076118
 30
0.0
 11
65.34105288
 21
-28.91923882
 31
0.0
  0
LINE
  8
0
  6
CONTINUOUS
 62
       7
  5
D5
 10
65.34105288
 20
-27.08076118
 30
0.0
 11
63.50257525
 21
-28.91923882
 31
0.0
  0
CIRCLE
  8
0
  6
CONTINUOUS
 62
       2
  5
D6
 10
71.42181406
 20
-35.0
 30
0.0
 40
5.6
  0
CIRCLE
  8
0
  6
CONTINUOUS
 62
       7
  5
D7
 10
71.42181406
 20
-35.0
 30
0.0
 40
6.0
  0
CIRCLE
  8
0
  6
CONTINUOUS
 62
       7
  5
D8
 10
71.42181406
 20
-35.0
 30
0.0
 40
4.25
  0
LINE
  8
0
  6
CONTINUOUS
 62
       7
  5
D9
 10
62.42181406
 20
-26.0
 30
0.0
 11
80.42181406
 21
-26.0
 31
0.0
  0
LINE
  8
0
  6
CONTINUOUS
 62
       7
  5
DA
 10
62.42181406
 20
-26.0
 30
0.0
 11
62.42181406
 21
-44.0
 31
0.0
  0
LINE
  8
0
  6
CONTINUOUS
 62
       7
  5
DB
 10
80.42181406
 20
-26.0
 30
0.0
 11
80.42181406
 21
-44.0
 31
0.0
  0
TEXT
  8
0
  6
CONTINUOUS
 62
       7
  5
DC
 10
58.65651836
 20
-53.4113687
 30
0.0
 40
2.79999995
  1
OUT
 41
0.83333332
  7
MX_NOTE_STANDARD
 11
58.65651836
 21
-52.01136872
 31
0.0
 73
       2
  0
CIRCLE
  8
0
  6
CONTINUOUS
 62
       2
  5
DD
 10
71.42181406
 20
-52.0
 30
0.0
 40
5.0
  0
CIRCLE
  8
0
  6
CONTINUOUS
 62
       7
  5
DE
 10
71.42181406
 20
-52.0
 30
0.0
 40
4.0
  0
LINE
  8
0
  6
CONTINUOUS
 62
       2
  5
DF
 10
71.42181406
 20
-23.34394523
 30
0.0
 11
71.42181406
 21
-59.14902421
 31
0.0
  0
LINE
  8
0
  6
CONTINUOUS
 62
       2
  5
E0
 10
50.91157355
 20
-52.0
 30
0.0
 11
57.82029322
 21
-52.0
 31
0.0
  0
LINE
  8
0
  6
CONTINUOUS
 62
       7
  5
E1
 10
53.42181406
 20
-44.0
 30
0.0
 11
53.42181406
 21
-60.0
 31
0.0
  0
LINE
  8
0
  6
CONTINUOUS
 62
       7
  5
E2
 10
53.42181406
 20
-44.0
 30
0.0
 11
146.42181406
 21
-44.0
 31
0.0
  0
CIRCLE
  8
0
  6
CONTINUOUS
 62
       7
  5
E3
 10
-130.23527288
 20
-35.0
 30
0.0
 40
6.5
  0
ARC
  8
0
  6
CONTINUOUS
 62
       7
  5
E4
 10
-126.24369258
 20
-37.11547479
 30
0.0
 40
1.5
 50
244.5542515
 51
337.61635364
  0
CIRCLE
  8
0
  6
CONTINUOUS
 62
       7
  5
E5
 10
-127.61066577
 20
-39.98579278
 30
0.0
 40
0.75
  0
ARC
  8
0
  6
CONTINUOUS
 62
       7
  5
E6
 10
-127.60895796
 20
-39.98480196
 30
0.0
 40
1.6775758
 50
64.5542515
 51
194.48729064
  0
LINE
  8
0
  6
CONTINUOUS
 62
       7
  5
E7
 10
-129.27887636
 20
-40.16843805
 30
0.0
 11
-129.05125306
 21
-41.3912516
 31
0.0
  0
ARC
  8
0
  6
CONTINUOUS
 62
       7
  5
E8
 10
-134.22685318
 20
-37.11547479
 30
0.0
 40
1.5
 50
202.38364636
 51
295.4457485
  0
ARC
  8
0
  6
CONTINUOUS
 62
       7
  5
E9
 10
-130.23527288
 20
-35.4715968
 30
0.0
 40
5.81683311
 50
337.61635364
 51
202.38364636
  0
CIRCLE
  8
0
  6
CONTINUOUS
 62
       7
  5
EA
 10
-132.85987998
 20
-39.98579278
 30
0.0
 40
0.75
  0
ARC
  8
0
  6
CONTINUOUS
 62
       7
  5
EB
 10
-132.86158779
 20
-39.98480196
 30
0.0
 40
1.6775758
 50
345.51270936
 51
115.4457485
  0
LINE
  8
0
  6
CONTINUOUS
 62
       7
  5
EC
 10
-131.1916694
 20
-40.16843805
 30
0.0
 11
-131.4192927
 21
-41.3912516
 31
0.0
  0
TEXT
  8
0
  6
CONTINUOUS
 62
       7
  5
ED
 10
-185.39738806
 20
95.6000061
 30
0.0
 40
4.0
  1
stn.1-4:MR052
 41
1.09141791
  7
MX_NOTE_STANDARD
 11
-185.39738806
 21
97.6000061
 31
0.0
 73
       2
  0
LINE
  8
0
  6
CONTINUOUS
 62
       7
  5
EE
 10
146.42181406
 20
48.0
 30
0.0
 11
146.42181406
 21
80.0
 31
0.0
  0
LINE
  8
0
  6
CONTINUOUS
 62
       7
  5
EF
 10
146.42181406
 20
-44.0
 30
0.0
 11
146.42181406
 21
-60.0
 31
0.0
  0
LINE
  8
0
  6
CONTINUOUS
 62
       2
  5
F0
 10
90.42181406
 20
-23.34394523
 30
0.0
 11
90.42181406
 21
-59.14902421
 31
0.0
  0
LINE
  8
0
  6
CONTINUOUS
 62
       7
  5
F1
 10
94.60511419
 20
-34.25
 30
0.0
 11
86.23851393
 21
-34.25
 31
0.0
  0
LINE
  8
0
  6
CONTINUOUS
 62
       7
  5
F2
 10
94.60511419
 20
-35.75
 30
0.0
 11
86.23851393
 21
-35.75
 31
0.0
  0
CIRCLE
  8
0
  6
CONTINUOUS
 62
       7
  5
F3
 10
90.42181406
 20
-35.0
 30
0.0
 40
7.5
  0
CIRCLE
  8
0
  6
CONTINUOUS
 62
       7
  5
F4
 10
97.42181406
 20
-28.0
 30
0.0
 40
2.0
  0
CIRCLE
  8
0
  6
CONTINUOUS
 62
       7
  5
F5
 10
97.42181406
 20
-42.0
 30
0.0
 40
2.0
  0
CIRCLE
  8
0
  6
CONTINUOUS
 62
       7
  5
F6
 10
83.42181406
 20
-42.0
 30
0.0
 40
2.0
  0
CIRCLE
  8
0
  6
CONTINUOUS
 62
       7
  5
F7
 10
83.42181406
 20
-28.0
 30
0.0
 40
2.0
  0
LINE
  8
0
  6
CONTINUOUS
 62
       7
  5
F8
 10
98.34105288
 20
-27.08076118
 30
0.0
 11
96.50257525
 21
-28.91923882
 31
0.0
  0
LINE
  8
0
  6
CONTINUOUS
 62
       7
  5
F9
 10
96.50257525
 20
-27.08076118
 30
0.0
 11
98.34105288
 21
-28.91923882
 31
0.0
  0
LINE
  8
0
  6
CONTINUOUS
 62
       7
  5
FA
 10
98.34105288
 20
-42.91923882
 30
0.0
 11
96.50257525
 21
-41.08076118
 31
0.0
  0
LINE
  8
0
  6
CONTINUOUS
 62
       7
  5
FB
 10
96.50257525
 20
-42.91923882
 30
0.0
 11
98.34105288
 21
-41.08076118
 31
0.0
  0
LINE
  8
0
  6
CONTINUOUS
 62
       7
  5
FC
 10
82.50257525
 20
-42.91923882
 30
0.0
 11
84.34105288
 21
-41.08076118
 31
0.0
  0
LINE
  8
0
  6
CONTINUOUS
 62
       7
  5
FD
 10
84.34105288
 20
-42.91923882
 30
0.0
 11
82.50257525
 21
-41.08076118
 31
0.0
  0
LINE
  8
0
  6
CONTINUOUS
 62
       7
  5
FE
 10
82.50257525
 20
-27.08076118
 30
0.0
 11
84.34105288
 21
-28.91923882
 31
0.0
  0
LINE
  8
0
  6
CONTINUOUS
 62
       7
  5
FF
 10
84.34105288
 20
-27.08076118
 30
0.0
 11
82.50257525
 21
-28.91923882
 31
0.0
  0
CIRCLE
  8
0
  6
CONTINUOUS
 62
       2
  5
100
 10
90.42181406
 20
-35.0
 30
0.0
 40
5.6
  0
CIRCLE
  8
0
  6
CONTINUOUS
 62
       7
  5
101
 10
90.42181406
 20
-35.0
 30
0.0
 40
6.0
  0
CIRCLE
  8
0
  6
CONTINUOUS
 62
       7
  5
102
 10
90.42181406
 20
-35.0
 30
0.0
 40
4.25
  0
LINE
  8
0
  6
CONTINUOUS
 62
       7
  5
103
 10
81.42181406
 20
-26.0
 30
0.0
 11
99.42181406
 21
-26.0
 31
0.0
  0
LINE
  8
0
  6
CONTINUOUS
 62
       7
  5
104
 10
81.42181406
 20
-26.0
 30
0.0
 11
81.42181406
 21
-44.0
 31
0.0
  0
LINE
  8
0
  6
CONTINUOUS
 62
       7
  5
105
 10
99.42181406
 20
-26.0
 30
0.0
 11
99.42181406
 21
-44.0
 31
0.0
  0
LINE
  8
0
  6
CONTINUOUS
 62
       2
  5
106
 10
97.45043302
 20
-52.0
 30
0.0
 11
84.45390348
 21
-52.0
 31
0.0
  0
CIRCLE
  8
0
  6
CONTINUOUS
 62
       2
  5
107
 10
90.42181406
 20
-52.0
 30
0.0
 40
5.0
  0
CIRCLE
  8
0
  6
CONTINUOUS
 62
       7
  5
108
 10
90.42181406
 20
-52.0
 30
0.0
 40
4.0
  0
LINE
  8
0
  6
CONTINUOUS
 62
       2
  5
109
 10
109.42181406
 20
-23.34394523
 30
0.0
 11
109.42181406
 21
-59.14902421
 31
0.0
  0
LINE
  8
0
  6
CONTINUOUS
 62
       7
  5
10A
 10
113.60511419
 20
-34.25
 30
0.0
 11
105.23851393
 21
-34.25
 31
0.0
  0
LINE
  8
0
  6
CONTINUOUS
 62
       7
  5
10B
 10
113.60511419
 20
-35.75
 30
0.0
 11
105.23851393
 21
-35.75
 31
0.0
  0
CIRCLE
  8
0
  6
CONTINUOUS
 62
       7
  5
10C
 10
109.42181406
 20
-35.0
 30
0.0
 40
7.5
  0
CIRCLE
  8
0
  6
CONTINUOUS
 62
       7
  5
10D
 10
116.42181406
 20
-28.0
 30
0.0
 40
2.0
  0
CIRCLE
  8
0
  6
CONTINUOUS
 62
       7
  5
10E
 10
116.42181406
 20
-42.0
 30
0.0
 40
2.0
  0
CIRCLE
  8
0
  6
CONTINUOUS
 62
       7
  5
10F
 10
102.42181406
 20
-42.0
 30
0.0
 40
2.0
  0
CIRCLE
  8
0
  6
CONTINUOUS
 62
       7
  5
110
 10
102.42181406
 20
-28.0
 30
0.0
 40
2.0
  0
LINE
  8
0
  6
CONTINUOUS
 62
       7
  5
111
 10
117.34105288
 20
-27.08076118
 30
0.0
 11
115.50257525
 21
-28.91923882
 31
0.0
  0
LINE
  8
0
  6
CONTINUOUS
 62
       7
  5
112
 10
115.50257525
 20
-27.08076118
 30
0.0
 11
117.34105288
 21
-28.91923882
 31
0.0
  0
LINE
  8
0
  6
CONTINUOUS
 62
       7
  5
113
 10
117.34105288
 20
-42.91923882
 30
0.0
 11
115.50257525
 21
-41.08076118
 31
0.0
  0
LINE
  8
0
  6
CONTINUOUS
 62
       7
  5
114
 10
115.50257525
 20
-42.91923882
 30
0.0
 11
117.34105288
 21
-41.08076118
 31
0.0
  0
LINE
  8
0
  6
CONTINUOUS
 62
       7
  5
115
 10
101.50257525
 20
-42.91923882
 30
0.0
 11
103.34105288
 21
-41.08076118
 31
0.0
  0
LINE
  8
0
  6
CONTINUOUS
 62
       7
  5
116
 10
103.34105288
 20
-42.91923882
 30
0.0
 11
101.50257525
 21
-41.08076118
 31
0.0
  0
LINE
  8
0
  6
CONTINUOUS
 62
       7
  5
117
 10
101.50257525
 20
-27.08076118
 30
0.0
 11
103.34105288
 21
-28.91923882
 31
0.0
  0
LINE
  8
0
  6
CONTINUOUS
 62
       7
  5
118
 10
103.34105288
 20
-27.08076118
 30
0.0
 11
101.50257525
 21
-28.91923882
 31
0.0
  0
CIRCLE
  8
0
  6
CONTINUOUS
 62
       2
  5
119
 10
109.42181406
 20
-35.0
 30
0.0
 40
5.6
  0
CIRCLE
  8
0
  6
CONTINUOUS
 62
       7
  5
11A
 10
109.42181406
 20
-35.0
 30
0.0
 40
6.0
  0
CIRCLE
  8
0
  6
CONTINUOUS
 62
       7
  5
11B
 10
109.42181406
 20
-35.0
 30
0.0
 40
4.25
  0
LINE
  8
0
  6
CONTINUOUS
 62
       7
  5
11C
 10
100.42181406
 20
-26.0
 30
0.0
 11
118.42181406
 21
-26.0
 31
0.0
  0
LINE
  8
0
  6
CONTINUOUS
 62
       7
  5
11D
 10
100.42181406
 20
-26.0
 30
0.0
 11
100.42181406
 21
-44.0
 31
0.0
  0
LINE
  8
0
  6
CONTINUOUS
 62
       7
  5
11E
 10
118.42181406
 20
-26.0
 30
0.0
 11
118.42181406
 21
-44.0
 31
0.0
  0
LINE
  8
0
  6
CONTINUOUS
 62
       2
  5
11F
 10
116.45043302
 20
-52.0
 30
0.0
 11
103.45390348
 21
-52.0
 31
0.0
  0
CIRCLE
  8
0
  6
CONTINUOUS
 62
       2
  5
120
 10
109.42181406
 20
-52.0
 30
0.0
 40
5.0
  0
CIRCLE
  8
0
  6
CONTINUOUS
 62
       7
  5
121
 10
109.42181406
 20
-52.0
 30
0.0
 40
4.0
  0
LINE
  8
0
  6
CONTINUOUS
 62
       2
  5
122
 10
128.42181406
 20
-23.34394523
 30
0.0
 11
128.42181406
 21
-59.14902421
 31
0.0
  0
LINE
  8
0
  6
CONTINUOUS
 62
       2
  5
123
 10
131.92206362
 20
-42.0
 30
0.0
 11
139.2028224
 21
-42.0
 31
0.0
  0
LINE
  8
0
  6
CONTINUOUS
 62
       7
  5
124
 10
132.60511419
 20
-34.25
 30
0.0
 11
124.23851393
 21
-34.25
 31
0.0
  0
LINE
  8
0
  6
CONTINUOUS
 62
       7
  5
125
 10
132.60511419
 20
-35.75
 30
0.0
 11
124.23851393
 21
-35.75
 31
0.0
  0
CIRCLE
  8
0
  6
CONTINUOUS
 62
       7
  5
126
 10
128.42181406
 20
-35.0
 30
0.0
 40
7.5
  0
CIRCLE
  8
0
  6
CONTINUOUS
 62
       7
  5
127
 10
135.42181406
 20
-28.0
 30
0.0
 40
2.0
  0
CIRCLE
  8
0
  6
CONTINUOUS
 62
       7
  5
128
 10
135.42181406
 20
-42.0
 30
0.0
 40
2.0
  0
CIRCLE
  8
0
  6
CONTINUOUS
 62
       7
  5
129
 10
121.42181406
 20
-42.0
 30
0.0
 40
2.0
  0
CIRCLE
  8
0
  6
CONTINUOUS
 62
       7
  5
12A
 10
121.42181406
 20
-28.0
 30
0.0
 40
2.0
  0
LINE
  8
0
  6
CONTINUOUS
 62
       7
  5
12B
 10
136.34105288
 20
-27.08076118
 30
0.0
 11
134.50257525
 21
-28.91923882
 31
0.0
  0
LINE
  8
0
  6
CONTINUOUS
 62
       7
  5
12C
 10
134.50257525
 20
-27.08076118
 30
0.0
 11
136.34105288
 21
-28.91923882
 31
0.0
  0
LINE
  8
0
  6
CONTINUOUS
 62
       7
  5
12D
 10
136.34105288
 20
-42.91923882
 30
0.0
 11
134.50257525
 21
-41.08076118
 31
0.0
  0
LINE
  8
0
  6
CONTINUOUS
 62
       7
  5
12E
 10
134.50257525
 20
-42.91923882
 30
0.0
 11
136.34105288
 21
-41.08076118
 31
0.0
  0
LINE
  8
0
  6
CONTINUOUS
 62
       7
  5
12F
 10
120.50257525
 20
-42.91923882
 30
0.0
 11
122.34105288
 21
-41.08076118
 31
0.0
  0
LINE
  8
0
  6
CONTINUOUS
 62
       7
  5
130
 10
122.34105288
 20
-42.91923882
 30
0.0
 11
120.50257525
 21
-41.08076118
 31
0.0
  0
LINE
  8
0
  6
CONTINUOUS
 62
       7
  5
131
 10
120.50257525
 20
-27.08076118
 30
0.0
 11
122.34105288
 21
-28.91923882
 31
0.0
  0
LINE
  8
0
  6
CONTINUOUS
 62
       7
  5
132
 10
122.34105288
 20
-27.08076118
 30
0.0
 11
120.50257525
 21
-28.91923882
 31
0.0
  0
CIRCLE
  8
0
  6
CONTINUOUS
 62
       2
  5
133
 10
128.42181406
 20
-35.0
 30
0.0
 40
5.6
  0
CIRCLE
  8
0
  6
CONTINUOUS
 62
       7
  5
134
 10
128.42181406
 20
-35.0
 30
0.0
 40
6.0
  0
CIRCLE
  8
0
  6
CONTINUOUS
 62
       7
  5
135
 10
128.42181406
 20
-35.0
 30
0.0
 40
4.25
  0
LINE
  8
0
  6
CONTINUOUS
 62
       7
  5
136
 10
119.42181406
 20
-26.0
 30
0.0
 11
137.42181406
 21
-26.0
 31
0.0
  0
LINE
  8
0
  6
CONTINUOUS
 62
       7
  5
137
 10
119.42181406
 20
-26.0
 30
0.0
 11
119.42181406
 21
-44.0
 31
0.0
  0
LINE
  8
0
  6
CONTINUOUS
 62
       7
  5
138
 10
137.42181406
 20
-26.0
 30
0.0
 11
137.42181406
 21
-44.0
 31
0.0
  0
LINE
  8
0
  6
CONTINUOUS
 62
       2
  5
139
 10
135.45043302
 20
-52.0
 30
0.0
 11
122.45390348
 21
-52.0
 31
0.0
  0
CIRCLE
  8
0
  6
CONTINUOUS
 62
       2
  5
13A
 10
128.42181406
 20
-52.0
 30
0.0
 40
5.0
  0
CIRCLE
  8
0
  6
CONTINUOUS
 62
       7
  5
13B
 10
128.42181406
 20
-52.0
 30
0.0
 40
4.0
  0
LINE
  8
0
  6
CONTINUOUS
 62
       2
  5
13C
 10
139.95509838
 20
-35.0
 30
0.0
 11
59.28119931
 21
-35.0
 31
0.0
  0
LINE
  8
0
  6
CONTINUOUS
 62
       2
  5
13D
 10
90.42181406
 20
19.6702877
 30
0.0
 11
90.42181406
 21
82.50169167
 31
0.0
  0
ARC
  8
0
  6
CONTINUOUS
 62
       7
  5
13E
 10
97.42181406
 20
43.70672941
 30
0.0
 40
6.0
 50
270.0
 51
279.6287116
  0
ARC
  8
0
  6
CONTINUOUS
 62
       7
  5
13F
 10
98.29158073
 20
38.57998522
 30
0.0
 40
0.8
 50
279.6287116
 51
316.45267461
  0
ARC
  8
0
  6
CONTINUOUS
 62
       7
  5
140
 10
97.42181406
 20
43.70672941
 30
0.0
 40
6.0
 50
260.3712884
 51
270.0
  0
ARC
  8
0
  6
CONTINUOUS
 62
       7
  5
141
 10
96.5520474
 20
38.57998522
 30
0.0
 40
0.8
 50
223.54732539
 51
260.3712884
  0
ARC
  8
0
  6
CONTINUOUS
 62
       7
  5
142
 10
97.42181406
 20
39.40672941
 30
0.0
 40
2.0
 50
180.0
 51
223.54732539
  0
ARC
  8
0
  6
CONTINUOUS
 62
       7
  5
143
 10
97.42181406
 20
39.40672941
 30
0.0
 40
2.0
 50
316.45267461
 51
0.0
  0
LINE
  8
0
  6
CONTINUOUS
 62
       2
  5
144
 10
97.42181406
 20
37.11642654
 30
0.0
 11
97.42181406
 21
39.88472874
 31
0.0
  0
ARC
  8
0
  6
CONTINUOUS
 62
       7
  5
145
 10
84.29158073
 20
38.57998522
 30
0.0
 40
0.8
 50
279.6287116
 51
316.45267461
  0
ARC
  8
0
  6
CONTINUOUS
 62
       7
  5
146
 10
83.42181406
 20
43.70672941
 30
0.0
 40
6.0
 50
270.0
 51
279.6287116
  0
ARC
  8
0
  6
CONTINUOUS
 62
       7
  5
147
 10
83.42181406
 20
39.40672941
 30
0.0
 40
2.0
 50
316.45267461
 51
0.0
  0
ARC
  8
0
  6
CONTINUOUS
 62
       7
  5
148
 10
82.5520474
 20
38.57998522
 30
0.0
 40
0.8
 50
223.54732539
 51
260.3712884
  0
ARC
  8
0
  6
CONTINUOUS
 62
       7
  5
149
 10
83.42181406
 20
43.70672941
 30
0.0
 40
6.0
 50
260.3712884
 51
270.0
  0
ARC
  8
0
  6
CONTINUOUS
 62
       7
  5
14A
 10
83.42181406
 20
39.40672941
 30
0.0
 40
2.0
 50
180.0
 51
223.54732539
  0
LINE
  8
0
  6
CONTINUOUS
 62
       2
  5
14B
 10
83.42181406
 20
37.11642654
 30
0.0
 11
83.42181406
 21
39.88472874
 31
0.0
  0
LINE
  8
0
  6
CONTINUOUS
 62
       7
  5
14C
 10
98.92181406
 20
72.0
 30
0.0
 11
98.92181406
 21
79.0
 31
0.0
  0
LINE
  8
0
  6
CONTINUOUS
 62
       7
  5
14D
 10
81.92181406
 20
72.0
 30
0.0
 11
81.92181406
 21
79.0
 31
0.0
  0
LINE
  8
0
  6
CONTINUOUS
 62
       7
  5
14E
 10
81.92181406
 20
72.0
 30
0.0
 11
98.92181406
 21
72.0
 31
0.0
  0
LINE
  8
0
  6
CONTINUOUS
 62
       7
  5
14F
 10
81.92181406
 20
79.0
 30
0.0
 11
98.92181406
 21
79.0
 31
0.0
  0
LINE
  8
0
  6
CONTINUOUS
 62
       7
  5
150
 10
96.92181406
 20
61.0
 30
0.0
 11
97.92181406
 21
61.0
 31
0.0
  0
LINE
  8
0
  6
CONTINUOUS
 62
       7
  5
151
 10
97.92181406
 20
53.90672941
 30
0.0
 11
97.92181406
 21
61.0
 31
0.0
  0
ARC
  8
0
  6
CONTINUOUS
 62
       7
  5
152
 10
96.92181406
 20
65.0
 30
0.0
 40
4.0
 50
180.0
 51
270.0
  0
LINE
  8
0
  6
CONTINUOUS
 62
       7
  5
153
 10
92.92181406
 20
65.0
 30
0.0
 11
92.92181406
 21
67.90672941
 31
0.0
  0
LINE
  8
0
  6
CONTINUOUS
 62
       7
  5
154
 10
83.92181406
 20
61.0
 30
0.0
 11
82.92181406
 21
61.0
 31
0.0
  0
ARC
  8
0
  6
CONTINUOUS
 62
       7
  5
155
 10
83.92181406
 20
65.0
 30
0.0
 40
4.0
 50
270.0
 51
0.0
  0
LINE
  8
0
  6
CONTINUOUS
 62
       7
  5
156
 10
87.92181406
 20
65.0
 30
0.0
 11
87.92181406
 21
67.90672941
 31
0.0
  0
LINE
  8
0
  6
CONTINUOUS
 62
       7
  5
157
 10
82.92181406
 20
53.90672941
 30
0.0
 11
82.92181406
 21
61.0
 31
0.0
  0
LINE
  8
0
  6
CONTINUOUS
 62
       7
  5
158
 10
87.92181406
 20
67.90672941
 30
0.0
 11
92.92181406
 21
67.90672941
 31
0.0
  0
LINE
  8
0
  6
CONTINUOUS
 62
       7
  5
159
 10
82.92181406
 20
53.90672941
 30
0.0
 11
97.92181406
 21
53.90672941
 31
0.0
  0
LINE
  8
0
  6
CONTINUOUS
 62
       7
  5
15A
 10
87.42181406
 20
46.70672941
 30
0.0
 11
88.92181406
 21
46.70672941
 31
0.0
  0
LINE
  8
0
  6
CONTINUOUS
 62
       7
  5
15B
 10
87.42181406
 20
45.10672941
 30
0.0
 11
88.92181406
 21
45.10672941
 31
0.0
  0
LINE
  8
0
  6
CONTINUOUS
 62
       7
  5
15C
 10
87.42181406
 20
43.50672941
 30
0.0
 11
88.92181406
 21
43.50672941
 31
0.0
  0
LINE
  8
0
  6
CONTINUOUS
 62
       7
  5
15D
 10
87.42181406
 20
41.90672941
 30
0.0
 11
88.92181406
 21
41.90672941
 31
0.0
  0
LINE
  8
0
  6
CONTINUOUS
 62
       7
  5
15E
 10
91.92181406
 20
45.90672941
 30
0.0
 11
93.42181406
 21
45.90672941
 31
0.0
  0
LINE
  8
0
  6
CONTINUOUS
 62
       7
  5
15F
 10
91.92181406
 20
44.30672941
 30
0.0
 11
93.42181406
 21
44.30672941
 31
0.0
  0
LINE
  8
0
  6
CONTINUOUS
 62
       7
  5
160
 10
91.92181406
 20
42.70672941
 30
0.0
 11
93.42181406
 21
42.70672941
 31
0.0
  0
LINE
  8
0
  6
CONTINUOUS
 62
       7
  5
161
 10
88.92181406
 20
47.40672941
 30
0.0
 11
91.92181406
 21
47.40672941
 31
0.0
  0
LINE
  8
0
  6
CONTINUOUS
 62
       7
  5
162
 10
89.42181406
 20
41.65672941
 30
0.0
 11
91.42181406
 21
41.65672941
 31
0.0
  0
LINE
  8
0
  6
CONTINUOUS
 62
       7
  5
163
 10
89.42181406
 20
40.90672941
 30
0.0
 11
89.42181406
 21
47.40672941
 31
0.0
  0
LINE
  8
0
  6
CONTINUOUS
 62
       7
  5
164
 10
91.42181406
 20
40.90672941
 30
0.0
 11
91.42181406
 21
47.40672941
 31
0.0
  0
LINE
  8
0
  6
CONTINUOUS
 62
       7
  5
165
 10
88.92181406
 20
40.90672941
 30
0.0
 11
91.92181406
 21
40.90672941
 31
0.0
  0
LINE
  8
0
  6
CONTINUOUS
 62
       7
  5
166
 10
91.92181406
 20
40.90672941
 30
0.0
 11
91.92181406
 21
47.40672941
 31
0.0
  0
LINE
  8
0
  6
CONTINUOUS
 62
       7
  5
167
 10
88.92181406
 20
40.90672941
 30
0.0
 11
88.92181406
 21
47.40672941
 31
0.0
  0
LINE
  8
0
  6
CONTINUOUS
 62
       7
  5
168
 10
84.42181406
 20
39.90672941
 30
0.0
 11
84.42181406
 21
50.90672941
 31
0.0
  0
LINE
  8
0
  6
CONTINUOUS
 62
       7
  5
169
 10
96.42181406
 20
39.90672941
 30
0.0
 11
96.42181406
 21
50.90672941
 31
0.0
  0
LINE
  8
0
  6
CONTINUOUS
 62
       7
  5
16A
 10
84.42181406
 20
50.90672941
 30
0.0
 11
96.42181406
 21
50.90672941
 31
0.0
  0
LINE
  8
0
  6
CONTINUOUS
 62
       7
  5
16B
 10
84.42181406
 20
39.90672941
 30
0.0
 11
96.42181406
 21
39.90672941
 31
0.0
  0
LINE
  8
0
  6
CONTINUOUS
 62
       7
  5
16C
 10
90.42181406
 20
33.0
 30
0.0
 11
90.42181406
 21
30.5
 31
0.0
  0
LINE
  8
0
  6
CONTINUOUS
 62
       7
  5
16D
 10
82.68437719
 20
63.76256313
 30
0.0
 11
85.15925093
 21
66.23743687
 31
0.0
  0
LINE
  8
0
  6
CONTINUOUS
 62
       7
  5
16E
 10
85.15925093
 20
63.76256313
 30
0.0
 11
82.68437719
 21
66.23743687
 31
0.0
  0
CIRCLE
  8
0
  6
CONTINUOUS
 62
       7
  5
16F
 10
83.92181406
 20
65.0
 30
0.0
 40
2.5
  0
LINE
  8
0
  6
CONTINUOUS
 62
       7
  5
170
 10
98.15925093
 20
63.76256313
 30
0.0
 11
95.68437719
 21
66.23743687
 31
0.0
  0
LINE
  8
0
  6
CONTINUOUS
 62
       7
  5
171
 10
95.68437719
 20
63.76256313
 30
0.0
 11
98.15925093
 21
66.23743687
 31
0.0
  0
CIRCLE
  8
0
  6
CONTINUOUS
 62
       7
  5
172
 10
96.92181406
 20
65.0
 30
0.0
 40
2.5
  0
LINE
  8
0
  6
CONTINUOUS
 62
       7
  5
173
 10
83.12181406
 20
30.5
 30
0.0
 11
83.12181406
 21
33.0
 31
0.0
  0
LINE
  8
0
  6
CONTINUOUS
 62
       7
  5
174
 10
83.37181406
 20
30.5
 30
0.0
 11
83.37181406
 21
33.0
 31
0.0
  0
LINE
  8
0
  6
CONTINUOUS
 62
       7
  5
175
 10
83.72181406
 20
30.5
 30
0.0
 11
83.72181406
 21
33.0
 31
0.0
  0
LINE
  8
0
  6
CONTINUOUS
 62
       7
  5
176
 10
84.22181406
 20
30.5
 30
0.0
 11
84.22181406
 21
33.0
 31
0.0
  0
LINE
  8
0
  6
CONTINUOUS
 62
       7
  5
177
 10
84.82181406
 20
30.5
 30
0.0
 11
84.82181406
 21
33.0
 31
0.0
  0
LINE
  8
0
  6
CONTINUOUS
 62
       7
  5
178
 10
85.62181406
 20
30.5
 30
0.0
 11
85.62181406
 21
33.0
 31
0.0
  0
LINE
  8
0
  6
CONTINUOUS
 62
       7
  5
179
 10
86.52181406
 20
30.5
 30
0.0
 11
86.52181406
 21
33.0
 31
0.0
  0
LINE
  8
0
  6
CONTINUOUS
 62
       7
  5
17A
 10
87.42181406
 20
30.5
 30
0.0
 11
87.42181406
 21
33.0
 31
0.0
  0
LINE
  8
0
  6
CONTINUOUS
 62
       7
  5
17B
 10
88.42181406
 20
30.5
 30
0.0
 11
88.42181406
 21
33.0
 31
0.0
  0
LINE
  8
0
  6
CONTINUOUS
 62
       7
  5
17C
 10
89.42181406
 20
30.5
 30
0.0
 11
89.42181406
 21
33.0
 31
0.0
  0
LINE
  8
0
  6
CONTINUOUS
 62
       7
  5
17D
 10
97.72181406
 20
30.5
 30
0.0
 11
97.72181406
 21
33.0
 31
0.0
  0
LINE
  8
0
  6
CONTINUOUS
 62
       7
  5
17E
 10
97.47181406
 20
30.5
 30
0.0
 11
97.47181406
 21
33.0
 31
0.0
  0
LINE
  8
0
  6
CONTINUOUS
 62
       7
  5
17F
 10
97.12181406
 20
30.5
 30
0.0
 11
97.12181406
 21
33.0
 31
0.0
  0
LINE
  8
0
  6
CONTINUOUS
 62
       7
  5
180
 10
96.62181406
 20
30.5
 30
0.0
 11
96.62181406
 21
33.0
 31
0.0
  0
LINE
  8
0
  6
CONTINUOUS
 62
       7
  5
181
 10
96.02181406
 20
30.5
 30
0.0
 11
96.02181406
 21
33.0
 31
0.0
  0
LINE
  8
0
  6
CONTINUOUS
 62
       7
  5
182
 10
95.22181406
 20
30.5
 30
0.0
 11
95.22181406
 21
33.0
 31
0.0
  0
LINE
  8
0
  6
CONTINUOUS
 62
       7
  5
183
 10
94.32181406
 20
30.5
 30
0.0
 11
94.32181406
 21
33.0
 31
0.0
  0
LINE
  8
0
  6
CONTINUOUS
 62
       7
  5
184
 10
93.42181406
 20
30.5
 30
0.0
 11
93.42181406
 21
33.0
 31
0.0
  0
LINE
  8
0
  6
CONTINUOUS
 62
       7
  5
185
 10
92.42181406
 20
30.5
 30
0.0
 11
92.42181406
 21
33.0
 31
0.0
  0
LINE
  8
0
  6
CONTINUOUS
 62
       7
  5
186
 10
91.42181406
 20
30.5
 30
0.0
 11
91.42181406
 21
33.0
 31
0.0
  0
LINE
  8
0
  6
CONTINUOUS
 62
       7
  5
187
 10
82.92181406
 20
30.5
 30
0.0
 11
82.92181406
 21
37.72759904
 31
0.0
  0
LINE
  8
0
  6
CONTINUOUS
 62
       7
  5
188
 10
97.92181406
 20
30.5
 30
0.0
 11
97.92181406
 21
37.72759904
 31
0.0
  0
LINE
  8
0
  6
CONTINUOUS
 62
       7
  5
189
 10
81.42181406
 20
39.40672941
 30
0.0
 11
99.42181406
 21
39.40672941
 31
0.0
  0
LINE
  8
0
  6
CONTINUOUS
 62
       7
  5
18A
 10
82.92181406
 20
33.0
 30
0.0
 11
97.92181406
 21
33.0
 31
0.0
  0
LINE
  8
0
  6
CONTINUOUS
 62
       7
  5
18B
 10
82.92181406
 20
30.5
 30
0.0
 11
97.92181406
 21
30.5
 31
0.0
  0
LINE
  8
0
  6
CONTINUOUS
 62
       2
  5
18C
 10
84.82181406
 20
25.5
 30
0.0
 11
84.82181406
 21
30.5
 31
0.0
  0
LINE
  8
0
  6
CONTINUOUS
 62
       2
  5
18D
 10
96.02181406
 20
25.5
 30
0.0
 11
96.02181406
 21
30.5
 31
0.0
  0
LINE
  8
0
  6
CONTINUOUS
 62
       7
  5
18E
 10
96.42181406
 20
25.5
 30
0.0
 11
96.42181406
 21
30.5
 31
0.0
  0
LINE
  8
0
  6
CONTINUOUS
 62
       7
  5
18F
 10
84.42181406
 20
25.5
 30
0.0
 11
84.42181406
 21
30.5
 31
0.0
  0
LINE
  8
0
  6
CONTINUOUS
 62
       7
  5
190
 10
94.67181406
 20
23.0
 30
0.0
 11
94.67181406
 21
25.5
 31
0.0
  0
LINE
  8
0
  6
CONTINUOUS
 62
       7
  5
191
 10
86.17181406
 20
23.0
 30
0.0
 11
86.17181406
 21
25.5
 31
0.0
  0
LINE
  8
0
  6
CONTINUOUS
 62
       7
  5
192
 10
84.42181406
 20
25.5
 30
0.0
 11
96.42181406
 21
25.5
 31
0.0
  0
LINE
  8
0
  6
CONTINUOUS
 62
       7
  5
193
 10
86.17181406
 20
23.0
 30
0.0
 11
94.67181406
 21
23.0
 31
0.0
  0
LINE
  8
0
  6
CONTINUOUS
 62
       7
  5
194
 10
99.42181406
 20
39.40672941
 30
0.0
 11
99.42181406
 21
80.0
 31
0.0
  0
LINE
  8
0
  6
CONTINUOUS
 62
       7
  5
195
 10
81.42181406
 20
39.40672941
 30
0.0
 11
81.42181406
 21
80.0
 31
0.0
  0
LINE
  8
0
  6
CONTINUOUS
 62
       2
  5
196
 10
109.42181406
 20
19.6702877
 30
0.0
 11
109.42181406
 21
82.50169167
 31
0.0
  0
ARC
  8
0
  6
CONTINUOUS
 62
       7
  5
197
 10
116.42181406
 20
43.70672941
 30
0.0
 40
6.0
 50
270.0
 51
279.6287116
  0
ARC
  8
0
  6
CONTINUOUS
 62
       7
  5
198
 10
117.29158073
 20
38.57998522
 30
0.0
 40
0.8
 50
279.6287116
 51
316.45267461
  0
ARC
  8
0
  6
CONTINUOUS
 62
       7
  5
199
 10
116.42181406
 20
43.70672941
 30
0.0
 40
6.0
 50
260.3712884
 51
270.0
  0
ARC
  8
0
  6
CONTINUOUS
 62
       7
  5
19A
 10
115.5520474
 20
38.57998522
 30
0.0
 40
0.8
 50
223.54732539
 51
260.3712884
  0
ARC
  8
0
  6
CONTINUOUS
 62
       7
  5
19B
 10
116.42181406
 20
39.40672941
 30
0.0
 40
2.0
 50
180.0
 51
223.54732539
  0
ARC
  8
0
  6
CONTINUOUS
 62
       7
  5
19C
 10
116.42181406
 20
39.40672941
 30
0.0
 40
2.0
 50
316.45267461
 51
0.0
  0
LINE
  8
0
  6
CONTINUOUS
 62
       2
  5
19D
 10
116.42181406
 20
37.11642654
 30
0.0
 11
116.42181406
 21
39.88472874
 31
0.0
  0
ARC
  8
0
  6
CONTINUOUS
 62
       7
  5
19E
 10
103.29158073
 20
38.57998522
 30
0.0
 40
0.8
 50
279.6287116
 51
316.45267461
  0
ARC
  8
0
  6
CONTINUOUS
 62
       7
  5
19F
 10
102.42181406
 20
43.70672941
 30
0.0
 40
6.0
 50
270.0
 51
279.6287116
  0
ARC
  8
0
  6
CONTINUOUS
 62
       7
  5
1A0
 10
102.42181406
 20
39.40672941
 30
0.0
 40
2.0
 50
316.45267461
 51
0.0
  0
ARC
  8
0
  6
CONTINUOUS
 62
       7
  5
1A1
 10
101.5520474
 20
38.57998522
 30
0.0
 40
0.8
 50
223.54732539
 51
260.3712884
  0
ARC
  8
0
  6
CONTINUOUS
 62
       7
  5
1A2
 10
102.42181406
 20
43.70672941
 30
0.0
 40
6.0
 50
260.3712884
 51
270.0
  0
ARC
  8
0
  6
CONTINUOUS
 62
       7
  5
1A3
 10
102.42181406
 20
39.40672941
 30
0.0
 40
2.0
 50
180.0
 51
223.54732539
  0
LINE
  8
0
  6
CONTINUOUS
 62
       2
  5
1A4
 10
102.42181406
 20
37.11642654
 30
0.0
 11
102.42181406
 21
39.88472874
 31
0.0
  0
LINE
  8
0
  6
CONTINUOUS
 62
       7
  5
1A5
 10
117.92181406
 20
72.0
 30
0.0
 11
117.92181406
 21
79.0
 31
0.0
  0
LINE
  8
0
  6
CONTINUOUS
 62
       7
  5
1A6
 10
100.92181406
 20
72.0
 30
0.0
 11
100.92181406
 21
79.0
 31
0.0
  0
LINE
  8
0
  6
CONTINUOUS
 62
       7
  5
1A7
 10
100.92181406
 20
72.0
 30
0.0
 11
117.92181406
 21
72.0
 31
0.0
  0
LINE
  8
0
  6
CONTINUOUS
 62
       7
  5
1A8
 10
100.92181406
 20
79.0
 30
0.0
 11
117.92181406
 21
79.0
 31
0.0
  0
LINE
  8
0
  6
CONTINUOUS
 62
       7
  5
1A9
 10
115.92181406
 20
61.0
 30
0.0
 11
116.92181406
 21
61.0
 31
0.0
  0
LINE
  8
0
  6
CONTINUOUS
 62
       7
  5
1AA
 10
116.92181406
 20
53.90672941
 30
0.0
 11
116.92181406
 21
61.0
 31
0.0
  0
ARC
  8
0
  6
CONTINUOUS
 62
       7
  5
1AB
 10
115.92181406
 20
65.0
 30
0.0
 40
4.0
 50
180.0
 51
270.0
  0
LINE
  8
0
  6
CONTINUOUS
 62
       7
  5
1AC
 10
111.92181406
 20
65.0
 30
0.0
 11
111.92181406
 21
67.90672941
 31
0.0
  0
LINE
  8
0
  6
CONTINUOUS
 62
       7
  5
1AD
 10
102.92181406
 20
61.0
 30
0.0
 11
101.92181406
 21
61.0
 31
0.0
  0
ARC
  8
0
  6
CONTINUOUS
 62
       7
  5
1AE
 10
102.92181406
 20
65.0
 30
0.0
 40
4.0
 50
270.0
 51
0.0
  0
LINE
  8
0
  6
CONTINUOUS
 62
       7
  5
1AF
 10
106.92181406
 20
65.0
 30
0.0
 11
106.92181406
 21
67.90672941
 31
0.0
  0
LINE
  8
0
  6
CONTINUOUS
 62
       7
  5
1B0
 10
101.92181406
 20
53.90672941
 30
0.0
 11
101.92181406
 21
61.0
 31
0.0
  0
LINE
  8
0
  6
CONTINUOUS
 62
       7
  5
1B1
 10
106.92181406
 20
67.90672941
 30
0.0
 11
111.92181406
 21
67.90672941
 31
0.0
  0
LINE
  8
0
  6
CONTINUOUS
 62
       7
  5
1B2
 10
101.92181406
 20
53.90672941
 30
0.0
 11
116.92181406
 21
53.90672941
 31
0.0
  0
LINE
  8
0
  6
CONTINUOUS
 62
       7
  5
1B3
 10
106.42181406
 20
46.70672941
 30
0.0
 11
107.92181406
 21
46.70672941
 31
0.0
  0
LINE
  8
0
  6
CONTINUOUS
 62
       7
  5
1B4
 10
106.42181406
 20
45.10672941
 30
0.0
 11
107.92181406
 21
45.10672941
 31
0.0
  0
LINE
  8
0
  6
CONTINUOUS
 62
       7
  5
1B5
 10
106.42181406
 20
43.50672941
 30
0.0
 11
107.92181406
 21
43.50672941
 31
0.0
  0
LINE
  8
0
  6
CONTINUOUS
 62
       7
  5
1B6
 10
106.42181406
 20
41.90672941
 30
0.0
 11
107.92181406
 21
41.90672941
 31
0.0
  0
LINE
  8
0
  6
CONTINUOUS
 62
       7
  5
1B7
 10
110.92181406
 20
45.90672941
 30
0.0
 11
112.42181406
 21
45.90672941
 31
0.0
  0
LINE
  8
0
  6
CONTINUOUS
 62
       7
  5
1B8
 10
110.92181406
 20
44.30672941
 30
0.0
 11
112.42181406
 21
44.30672941
 31
0.0
  0
LINE
  8
0
  6
CONTINUOUS
 62
       7
  5
1B9
 10
110.92181406
 20
42.70672941
 30
0.0
 11
112.42181406
 21
42.70672941
 31
0.0
  0
LINE
  8
0
  6
CONTINUOUS
 62
       7
  5
1BA
 10
107.92181406
 20
47.40672941
 30
0.0
 11
110.92181406
 21
47.40672941
 31
0.0
  0
LINE
  8
0
  6
CONTINUOUS
 62
       7
  5
1BB
 10
108.42181406
 20
41.65672941
 30
0.0
 11
110.42181406
 21
41.65672941
 31
0.0
  0
LINE
  8
0
  6
CONTINUOUS
 62
       7
  5
1BC
 10
108.42181406
 20
40.90672941
 30
0.0
 11
108.42181406
 21
47.40672941
 31
0.0
  0
LINE
  8
0
  6
CONTINUOUS
 62
       7
  5
1BD
 10
110.42181406
 20
40.90672941
 30
0.0
 11
110.42181406
 21
47.40672941
 31
0.0
  0
LINE
  8
0
  6
CONTINUOUS
 62
       7
  5
1BE
 10
107.92181406
 20
40.90672941
 30
0.0
 11
110.92181406
 21
40.90672941
 31
0.0
  0
LINE
  8
0
  6
CONTINUOUS
 62
       7
  5
1BF
 10
110.92181406
 20
40.90672941
 30
0.0
 11
110.92181406
 21
47.40672941
 31
0.0
  0
LINE
  8
0
  6
CONTINUOUS
 62
       7
  5
1C0
 10
107.92181406
 20
40.90672941
 30
0.0
 11
107.92181406
 21
47.40672941
 31
0.0
  0
LINE
  8
0
  6
CONTINUOUS
 62
       7
  5
1C1
 10
103.42181406
 20
39.90672941
 30
0.0
 11
103.42181406
 21
50.90672941
 31
0.0
  0
LINE
  8
0
  6
CONTINUOUS
 62
       7
  5
1C2
 10
115.42181406
 20
39.90672941
 30
0.0
 11
115.42181406
 21
50.90672941
 31
0.0
  0
LINE
  8
0
  6
CONTINUOUS
 62
       7
  5
1C3
 10
103.42181406
 20
50.90672941
 30
0.0
 11
115.42181406
 21
50.90672941
 31
0.0
  0
LINE
  8
0
  6
CONTINUOUS
 62
       7
  5
1C4
 10
103.42181406
 20
39.90672941
 30
0.0
 11
115.42181406
 21
39.90672941
 31
0.0
  0
LINE
  8
0
  6
CONTINUOUS
 62
       7
  5
1C5
 10
109.42181406
 20
33.0
 30
0.0
 11
109.42181406
 21
30.5
 31
0.0
  0
LINE
  8
0
  6
CONTINUOUS
 62
       7
  5
1C6
 10
101.68437719
 20
63.76256313
 30
0.0
 11
104.15925093
 21
66.23743687
 31
0.0
  0
LINE
  8
0
  6
CONTINUOUS
 62
       7
  5
1C7
 10
104.15925093
 20
63.76256313
 30
0.0
 11
101.68437719
 21
66.23743687
 31
0.0
  0
CIRCLE
  8
0
  6
CONTINUOUS
 62
       7
  5
1C8
 10
102.92181406
 20
65.0
 30
0.0
 40
2.5
  0
LINE
  8
0
  6
CONTINUOUS
 62
       7
  5
1C9
 10
117.15925093
 20
63.76256313
 30
0.0
 11
114.68437719
 21
66.23743687
 31
0.0
  0
LINE
  8
0
  6
CONTINUOUS
 62
       7
  5
1CA
 10
114.68437719
 20
63.76256313
 30
0.0
 11
117.15925093
 21
66.23743687
 31
0.0
  0
CIRCLE
  8
0
  6
CONTINUOUS
 62
       7
  5
1CB
 10
115.92181406
 20
65.0
 30
0.0
 40
2.5
  0
LINE
  8
0
  6
CONTINUOUS
 62
       7
  5
1CC
 10
102.12181406
 20
30.5
 30
0.0
 11
102.12181406
 21
33.0
 31
0.0
  0
LINE
  8
0
  6
CONTINUOUS
 62
       7
  5
1CD
 10
102.37181406
 20
30.5
 30
0.0
 11
102.37181406
 21
33.0
 31
0.0
  0
LINE
  8
0
  6
CONTINUOUS
 62
       7
  5
1CE
 10
102.72181406
 20
30.5
 30
0.0
 11
102.72181406
 21
33.0
 31
0.0
  0
LINE
  8
0
  6
CONTINUOUS
 62
       7
  5
1CF
 10
103.22181406
 20
30.5
 30
0.0
 11
103.22181406
 21
33.0
 31
0.0
  0
LINE
  8
0
  6
CONTINUOUS
 62
       7
  5
1D0
 10
103.82181406
 20
30.5
 30
0.0
 11
103.82181406
 21
33.0
 31
0.0
  0
LINE
  8
0
  6
CONTINUOUS
 62
       7
  5
1D1
 10
104.62181406
 20
30.5
 30
0.0
 11
104.62181406
 21
33.0
 31
0.0
  0
LINE
  8
0
  6
CONTINUOUS
 62
       7
  5
1D2
 10
105.52181406
 20
30.5
 30
0.0
 11
105.52181406
 21
33.0
 31
0.0
  0
LINE
  8
0
  6
CONTINUOUS
 62
       7
  5
1D3
 10
106.42181406
 20
30.5
 30
0.0
 11
106.42181406
 21
33.0
 31
0.0
  0
LINE
  8
0
  6
CONTINUOUS
 62
       7
  5
1D4
 10
107.42181406
 20
30.5
 30
0.0
 11
107.42181406
 21
33.0
 31
0.0
  0
LINE
  8
0
  6
CONTINUOUS
 62
       7
  5
1D5
 10
108.42181406
 20
30.5
 30
0.0
 11
108.42181406
 21
33.0
 31
0.0
  0
LINE
  8
0
  6
CONTINUOUS
 62
       7
  5
1D6
 10
116.72181406
 20
30.5
 30
0.0
 11
116.72181406
 21
33.0
 31
0.0
  0
LINE
  8
0
  6
CONTINUOUS
 62
       7
  5
1D7
 10
116.47181406
 20
30.5
 30
0.0
 11
116.47181406
 21
33.0
 31
0.0
  0
LINE
  8
0
  6
CONTINUOUS
 62
       7
  5
1D8
 10
116.12181406
 20
30.5
 30
0.0
 11
116.12181406
 21
33.0
 31
0.0
  0
LINE
  8
0
  6
CONTINUOUS
 62
       7
  5
1D9
 10
115.62181406
 20
30.5
 30
0.0
 11
115.62181406
 21
33.0
 31
0.0
  0
LINE
  8
0
  6
CONTINUOUS
 62
       7
  5
1DA
 10
115.02181406
 20
30.5
 30
0.0
 11
115.02181406
 21
33.0
 31
0.0
  0
LINE
  8
0
  6
CONTINUOUS
 62
       7
  5
1DB
 10
114.22181406
 20
30.5
 30
0.0
 11
114.22181406
 21
33.0
 31
0.0
  0
LINE
  8
0
  6
CONTINUOUS
 62
       7
  5
1DC
 10
113.32181406
 20
30.5
 30
0.0
 11
113.32181406
 21
33.0
 31
0.0
  0
LINE
  8
0
  6
CONTINUOUS
 62
       7
  5
1DD
 10
112.42181406
 20
30.5
 30
0.0
 11
112.42181406
 21
33.0
 31
0.0
  0
LINE
  8
0
  6
CONTINUOUS
 62
       7
  5
1DE
 10
111.42181406
 20
30.5
 30
0.0
 11
111.42181406
 21
33.0
 31
0.0
  0
LINE
  8
0
  6
CONTINUOUS
 62
       7
  5
1DF
 10
110.42181406
 20
30.5
 30
0.0
 11
110.42181406
 21
33.0
 31
0.0
  0
LINE
  8
0
  6
CONTINUOUS
 62
       7
  5
1E0
 10
101.92181406
 20
30.5
 30
0.0
 11
101.92181406
 21
37.72759904
 31
0.0
  0
LINE
  8
0
  6
CONTINUOUS
 62
       7
  5
1E1
 10
116.92181406
 20
30.5
 30
0.0
 11
116.92181406
 21
37.72759904
 31
0.0
  0
LINE
  8
0
  6
CONTINUOUS
 62
       7
  5
1E2
 10
100.42181406
 20
39.40672941
 30
0.0
 11
118.42181406
 21
39.40672941
 31
0.0
  0
LINE
  8
0
  6
CONTINUOUS
 62
       7
  5
1E3
 10
101.92181406
 20
33.0
 30
0.0
 11
116.92181406
 21
33.0
 31
0.0
  0
LINE
  8
0
  6
CONTINUOUS
 62
       7
  5
1E4
 10
101.92181406
 20
30.5
 30
0.0
 11
116.92181406
 21
30.5
 31
0.0
  0
LINE
  8
0
  6
CONTINUOUS
 62
       2
  5
1E5
 10
103.82181406
 20
25.5
 30
0.0
 11
103.82181406
 21
30.5
 31
0.0
  0
LINE
  8
0
  6
CONTINUOUS
 62
       2
  5
1E6
 10
115.02181406
 20
25.5
 30
0.0
 11
115.02181406
 21
30.5
 31
0.0
  0
LINE
  8
0
  6
CONTINUOUS
 62
       7
  5
1E7
 10
115.42181406
 20
25.5
 30
0.0
 11
115.42181406
 21
30.5
 31
0.0
  0
LINE
  8
0
  6
CONTINUOUS
 62
       7
  5
1E8
 10
103.42181406
 20
25.5
 30
0.0
 11
103.42181406
 21
30.5
 31
0.0
  0
LINE
  8
0
  6
CONTINUOUS
 62
       7
  5
1E9
 10
113.67181406
 20
23.0
 30
0.0
 11
113.67181406
 21
25.5
 31
0.0
  0
LINE
  8
0
  6
CONTINUOUS
 62
       7
  5
1EA
 10
105.17181406
 20
23.0
 30
0.0
 11
105.17181406
 21
25.5
 31
0.0
  0
LINE
  8
0
  6
CONTINUOUS
 62
       7
  5
1EB
 10
103.42181406
 20
25.5
 30
0.0
 11
115.42181406
 21
25.5
 31
0.0
  0
LINE
  8
0
  6
CONTINUOUS
 62
       7
  5
1EC
 10
105.17181406
 20
23.0
 30
0.0
 11
113.67181406
 21
23.0
 31
0.0
  0
LINE
  8
0
  6
CONTINUOUS
 62
       7
  5
1ED
 10
118.42181406
 20
39.40672941
 30
0.0
 11
118.42181406
 21
80.0
 31
0.0
  0
LINE
  8
0
  6
CONTINUOUS
 62
       7
  5
1EE
 10
100.42181406
 20
39.40672941
 30
0.0
 11
100.42181406
 21
80.0
 31
0.0
  0
LINE
  8
0
  6
CONTINUOUS
 62
       2
  5
1EF
 10
128.42181406
 20
19.6702877
 30
0.0
 11
128.42181406
 21
82.50169167
 31
0.0
  0
ARC
  8
0
  6
CONTINUOUS
 62
       7
  5
1F0
 10
135.42181406
 20
43.70672941
 30
0.0
 40
6.0
 50
270.0
 51
279.6287116
  0
ARC
  8
0
  6
CONTINUOUS
 62
       7
  5
1F1
 10
136.29158073
 20
38.57998522
 30
0.0
 40
0.8
 50
279.6287116
 51
316.45267461
  0
ARC
  8
0
  6
CONTINUOUS
 62
       7
  5
1F2
 10
135.42181406
 20
43.70672941
 30
0.0
 40
6.0
 50
260.3712884
 51
270.0
  0
ARC
  8
0
  6
CONTINUOUS
 62
       7
  5
1F3
 10
134.5520474
 20
38.57998522
 30
0.0
 40
0.8
 50
223.54732539
 51
260.3712884
  0
ARC
  8
0
  6
CONTINUOUS
 62
       7
  5
1F4
 10
135.42181406
 20
39.40672941
 30
0.0
 40
2.0
 50
180.0
 51
223.54732539
  0
ARC
  8
0
  6
CONTINUOUS
 62
       7
  5
1F5
 10
135.42181406
 20
39.40672941
 30
0.0
 40
2.0
 50
316.45267461
 51
0.0
  0
LINE
  8
0
  6
CONTINUOUS
 62
       2
  5
1F6
 10
135.42181406
 20
37.11642654
 30
0.0
 11
135.42181406
 21
39.88472874
 31
0.0
  0
ARC
  8
0
  6
CONTINUOUS
 62
       7
  5
1F7
 10
122.29158073
 20
38.57998522
 30
0.0
 40
0.8
 50
279.6287116
 51
316.45267461
  0
ARC
  8
0
  6
CONTINUOUS
 62
       7
  5
1F8
 10
121.42181406
 20
43.70672941
 30
0.0
 40
6.0
 50
270.0
 51
279.6287116
  0
ARC
  8
0
  6
CONTINUOUS
 62
       7
  5
1F9
 10
121.42181406
 20
39.40672941
 30
0.0
 40
2.0
 50
316.45267461
 51
0.0
  0
ARC
  8
0
  6
CONTINUOUS
 62
       7
  5
1FA
 10
120.5520474
 20
38.57998522
 30
0.0
 40
0.8
 50
223.54732539
 51
260.3712884
  0
ARC
  8
0
  6
CONTINUOUS
 62
       7
  5
1FB
 10
121.42181406
 20
43.70672941
 30
0.0
 40
6.0
 50
260.3712884
 51
270.0
  0
ARC
  8
0
  6
CONTINUOUS
 62
       7
  5
1FC
 10
121.42181406
 20
39.40672941
 30
0.0
 40
2.0
 50
180.0
 51
223.54732539
  0
LINE
  8
0
  6
CONTINUOUS
 62
       2
  5
1FD
 10
121.42181406
 20
37.11642654
 30
0.0
 11
121.42181406
 21
39.88472874
 31
0.0
  0
LINE
  8
0
  6
CONTINUOUS
 62
       7
  5
1FE
 10
136.92181406
 20
72.0
 30
0.0
 11
136.92181406
 21
79.0
 31
0.0
  0
LINE
  8
0
  6
CONTINUOUS
 62
       7
  5
1FF
 10
119.92181406
 20
72.0
 30
0.0
 11
119.92181406
 21
79.0
 31
0.0
  0
LINE
  8
0
  6
CONTINUOUS
 62
       7
  5
200
 10
119.92181406
 20
72.0
 30
0.0
 11
136.92181406
 21
72.0
 31
0.0
  0
LINE
  8
0
  6
CONTINUOUS
 62
       7
  5
201
 10
119.92181406
 20
79.0
 30
0.0
 11
136.92181406
 21
79.0
 31
0.0
  0
LINE
  8
0
  6
CONTINUOUS
 62
       7
  5
202
 10
134.92181406
 20
61.0
 30
0.0
 11
135.92181406
 21
61.0
 31
0.0
  0
LINE
  8
0
  6
CONTINUOUS
 62
       7
  5
203
 10
135.92181406
 20
53.90672941
 30
0.0
 11
135.92181406
 21
61.0
 31
0.0
  0
ARC
  8
0
  6
CONTINUOUS
 62
       7
  5
204
 10
134.92181406
 20
65.0
 30
0.0
 40
4.0
 50
180.0
 51
270.0
  0
LINE
  8
0
  6
CONTINUOUS
 62
       7
  5
205
 10
130.92181406
 20
65.0
 30
0.0
 11
130.92181406
 21
67.90672941
 31
0.0
  0
LINE
  8
0
  6
CONTINUOUS
 62
       7
  5
206
 10
121.92181406
 20
61.0
 30
0.0
 11
120.92181406
 21
61.0
 31
0.0
  0
ARC
  8
0
  6
CONTINUOUS
 62
       7
  5
207
 10
121.92181406
 20
65.0
 30
0.0
 40
4.0
 50
270.0
 51
0.0
  0
LINE
  8
0
  6
CONTINUOUS
 62
       7
  5
208
 10
125.92181406
 20
65.0
 30
0.0
 11
125.92181406
 21
67.90672941
 31
0.0
  0
LINE
  8
0
  6
CONTINUOUS
 62
       7
  5
209
 10
120.92181406
 20
53.90672941
 30
0.0
 11
120.92181406
 21
61.0
 31
0.0
  0
LINE
  8
0
  6
CONTINUOUS
 62
       7
  5
20A
 10
125.92181406
 20
67.90672941
 30
0.0
 11
130.92181406
 21
67.90672941
 31
0.0
  0
LINE
  8
0
  6
CONTINUOUS
 62
       7
  5
20B
 10
120.92181406
 20
53.90672941
 30
0.0
 11
135.92181406
 21
53.90672941
 31
0.0
  0
LINE
  8
0
  6
CONTINUOUS
 62
       7
  5
20C
 10
125.42181406
 20
46.70672941
 30
0.0
 11
126.92181406
 21
46.70672941
 31
0.0
  0
LINE
  8
0
  6
CONTINUOUS
 62
       7
  5
20D
 10
125.42181406
 20
45.10672941
 30
0.0
 11
126.92181406
 21
45.10672941
 31
0.0
  0
LINE
  8
0
  6
CONTINUOUS
 62
       7
  5
20E
 10
125.42181406
 20
43.50672941
 30
0.0
 11
126.92181406
 21
43.50672941
 31
0.0
  0
LINE
  8
0
  6
CONTINUOUS
 62
       7
  5
20F
 10
125.42181406
 20
41.90672941
 30
0.0
 11
126.92181406
 21
41.90672941
 31
0.0
  0
LINE
  8
0
  6
CONTINUOUS
 62
       7
  5
210
 10
129.92181406
 20
45.90672941
 30
0.0
 11
131.42181406
 21
45.90672941
 31
0.0
  0
LINE
  8
0
  6
CONTINUOUS
 62
       7
  5
211
 10
129.92181406
 20
44.30672941
 30
0.0
 11
131.42181406
 21
44.30672941
 31
0.0
  0
LINE
  8
0
  6
CONTINUOUS
 62
       7
  5
212
 10
129.92181406
 20
42.70672941
 30
0.0
 11
131.42181406
 21
42.70672941
 31
0.0
  0
LINE
  8
0
  6
CONTINUOUS
 62
       7
  5
213
 10
126.92181406
 20
47.40672941
 30
0.0
 11
129.92181406
 21
47.40672941
 31
0.0
  0
LINE
  8
0
  6
CONTINUOUS
 62
       7
  5
214
 10
127.42181406
 20
41.65672941
 30
0.0
 11
129.42181406
 21
41.65672941
 31
0.0
  0
LINE
  8
0
  6
CONTINUOUS
 62
       7
  5
215
 10
127.42181406
 20
40.90672941
 30
0.0
 11
127.42181406
 21
47.40672941
 31
0.0
  0
LINE
  8
0
  6
CONTINUOUS
 62
       7
  5
216
 10
129.42181406
 20
40.90672941
 30
0.0
 11
129.42181406
 21
47.40672941
 31
0.0
  0
LINE
  8
0
  6
CONTINUOUS
 62
       7
  5
217
 10
126.92181406
 20
40.90672941
 30
0.0
 11
129.92181406
 21
40.90672941
 31
0.0
  0
LINE
  8
0
  6
CONTINUOUS
 62
       7
  5
218
 10
129.92181406
 20
40.90672941
 30
0.0
 11
129.92181406
 21
47.40672941
 31
0.0
  0
LINE
  8
0
  6
CONTINUOUS
 62
       7
  5
219
 10
126.92181406
 20
40.90672941
 30
0.0
 11
126.92181406
 21
47.40672941
 31
0.0
  0
LINE
  8
0
  6
CONTINUOUS
 62
       7
  5
21A
 10
122.42181406
 20
39.90672941
 30
0.0
 11
122.42181406
 21
50.90672941
 31
0.0
  0
LINE
  8
0
  6
CONTINUOUS
 62
       7
  5
21B
 10
134.42181406
 20
39.90672941
 30
0.0
 11
134.42181406
 21
50.90672941
 31
0.0
  0
LINE
  8
0
  6
CONTINUOUS
 62
       7
  5
21C
 10
122.42181406
 20
50.90672941
 30
0.0
 11
134.42181406
 21
50.90672941
 31
0.0
  0
LINE
  8
0
  6
CONTINUOUS
 62
       7
  5
21D
 10
122.42181406
 20
39.90672941
 30
0.0
 11
134.42181406
 21
39.90672941
 31
0.0
  0
LINE
  8
0
  6
CONTINUOUS
 62
       7
  5
21E
 10
128.42181406
 20
33.0
 30
0.0
 11
128.42181406
 21
30.5
 31
0.0
  0
LINE
  8
0
  6
CONTINUOUS
 62
       7
  5
21F
 10
120.68437719
 20
63.76256313
 30
0.0
 11
123.15925093
 21
66.23743687
 31
0.0
  0
LINE
  8
0
  6
CONTINUOUS
 62
       7
  5
220
 10
123.15925093
 20
63.76256313
 30
0.0
 11
120.68437719
 21
66.23743687
 31
0.0
  0
CIRCLE
  8
0
  6
CONTINUOUS
 62
       7
  5
221
 10
121.92181406
 20
65.0
 30
0.0
 40
2.5
  0
LINE
  8
0
  6
CONTINUOUS
 62
       7
  5
222
 10
136.15925093
 20
63.76256313
 30
0.0
 11
133.68437719
 21
66.23743687
 31
0.0
  0
LINE
  8
0
  6
CONTINUOUS
 62
       7
  5
223
 10
133.68437719
 20
63.76256313
 30
0.0
 11
136.15925093
 21
66.23743687
 31
0.0
  0
CIRCLE
  8
0
  6
CONTINUOUS
 62
       7
  5
224
 10
134.92181406
 20
65.0
 30
0.0
 40
2.5
  0
LINE
  8
0
  6
CONTINUOUS
 62
       7
  5
225
 10
121.12181406
 20
30.5
 30
0.0
 11
121.12181406
 21
33.0
 31
0.0
  0
LINE
  8
0
  6
CONTINUOUS
 62
       7
  5
226
 10
121.37181406
 20
30.5
 30
0.0
 11
121.37181406
 21
33.0
 31
0.0
  0
LINE
  8
0
  6
CONTINUOUS
 62
       7
  5
227
 10
121.72181406
 20
30.5
 30
0.0
 11
121.72181406
 21
33.0
 31
0.0
  0
LINE
  8
0
  6
CONTINUOUS
 62
       7
  5
228
 10
122.22181406
 20
30.5
 30
0.0
 11
122.22181406
 21
33.0
 31
0.0
  0
LINE
  8
0
  6
CONTINUOUS
 62
       7
  5
229
 10
122.82181406
 20
30.5
 30
0.0
 11
122.82181406
 21
33.0
 31
0.0
  0
LINE
  8
0
  6
CONTINUOUS
 62
       7
  5
22A
 10
123.62181406
 20
30.5
 30
0.0
 11
123.62181406
 21
33.0
 31
0.0
  0
LINE
  8
0
  6
CONTINUOUS
 62
       7
  5
22B
 10
124.52181406
 20
30.5
 30
0.0
 11
124.52181406
 21
33.0
 31
0.0
  0
LINE
  8
0
  6
CONTINUOUS
 62
       7
  5
22C
 10
125.42181406
 20
30.5
 30
0.0
 11
125.42181406
 21
33.0
 31
0.0
  0
LINE
  8
0
  6
CONTINUOUS
 62
       7
  5
22D
 10
126.42181406
 20
30.5
 30
0.0
 11
126.42181406
 21
33.0
 31
0.0
  0
LINE
  8
0
  6
CONTINUOUS
 62
       7
  5
22E
 10
127.42181406
 20
30.5
 30
0.0
 11
127.42181406
 21
33.0
 31
0.0
  0
LINE
  8
0
  6
CONTINUOUS
 62
       7
  5
22F
 10
135.72181406
 20
30.5
 30
0.0
 11
135.72181406
 21
33.0
 31
0.0
  0
LINE
  8
0
  6
CONTINUOUS
 62
       7
  5
230
 10
135.47181406
 20
30.5
 30
0.0
 11
135.47181406
 21
33.0
 31
0.0
  0
LINE
  8
0
  6
CONTINUOUS
 62
       7
  5
231
 10
135.12181406
 20
30.5
 30
0.0
 11
135.12181406
 21
33.0
 31
0.0
  0
LINE
  8
0
  6
CONTINUOUS
 62
       7
  5
232
 10
134.62181406
 20
30.5
 30
0.0
 11
134.62181406
 21
33.0
 31
0.0
  0
LINE
  8
0
  6
CONTINUOUS
 62
       7
  5
233
 10
134.02181406
 20
30.5
 30
0.0
 11
134.02181406
 21
33.0
 31
0.0
  0
LINE
  8
0
  6
CONTINUOUS
 62
       7
  5
234
 10
133.22181406
 20
30.5
 30
0.0
 11
133.22181406
 21
33.0
 31
0.0
  0
LINE
  8
0
  6
CONTINUOUS
 62
       7
  5
235
 10
132.32181406
 20
30.5
 30
0.0
 11
132.32181406
 21
33.0
 31
0.0
  0
LINE
  8
0
  6
CONTINUOUS
 62
       7
  5
236
 10
131.42181406
 20
30.5
 30
0.0
 11
131.42181406
 21
33.0
 31
0.0
  0
LINE
  8
0
  6
CONTINUOUS
 62
       7
  5
237
 10
130.42181406
 20
30.5
 30
0.0
 11
130.42181406
 21
33.0
 31
0.0
  0
LINE
  8
0
  6
CONTINUOUS
 62
       7
  5
238
 10
129.42181406
 20
30.5
 30
0.0
 11
129.42181406
 21
33.0
 31
0.0
  0
LINE
  8
0
  6
CONTINUOUS
 62
       7
  5
239
 10
120.92181406
 20
30.5
 30
0.0
 11
120.92181406
 21
37.72759904
 31
0.0
  0
LINE
  8
0
  6
CONTINUOUS
 62
       7
  5
23A
 10
135.92181406
 20
30.5
 30
0.0
 11
135.92181406
 21
37.72759904
 31
0.0
  0
LINE
  8
0
  6
CONTINUOUS
 62
       7
  5
23B
 10
119.42181406
 20
39.40672941
 30
0.0
 11
137.42181406
 21
39.40672941
 31
0.0
  0
LINE
  8
0
  6
CONTINUOUS
 62
       7
  5
23C
 10
120.92181406
 20
33.0
 30
0.0
 11
135.92181406
 21
33.0
 31
0.0
  0
LINE
  8
0
  6
CONTINUOUS
 62
       7
  5
23D
 10
120.92181406
 20
30.5
 30
0.0
 11
135.92181406
 21
30.5
 31
0.0
  0
LINE
  8
0
  6
CONTINUOUS
 62
       2
  5
23E
 10
122.82181406
 20
25.5
 30
0.0
 11
122.82181406
 21
30.5
 31
0.0
  0
LINE
  8
0
  6
CONTINUOUS
 62
       2
  5
23F
 10
134.02181406
 20
25.5
 30
0.0
 11
134.02181406
 21
30.5
 31
0.0
  0
LINE
  8
0
  6
CONTINUOUS
 62
       7
  5
240
 10
134.42181406
 20
25.5
 30
0.0
 11
134.42181406
 21
30.5
 31
0.0
  0
LINE
  8
0
  6
CONTINUOUS
 62
       7
  5
241
 10
122.42181406
 20
25.5
 30
0.0
 11
122.42181406
 21
30.5
 31
0.0
  0
LINE
  8
0
  6
CONTINUOUS
 62
       7
  5
242
 10
132.67181406
 20
23.0
 30
0.0
 11
132.67181406
 21
25.5
 31
0.0
  0
LINE
  8
0
  6
CONTINUOUS
 62
       7
  5
243
 10
124.17181406
 20
23.0
 30
0.0
 11
124.17181406
 21
25.5
 31
0.0
  0
LINE
  8
0
  6
CONTINUOUS
 62
       7
  5
244
 10
122.42181406
 20
25.5
 30
0.0
 11
134.42181406
 21
25.5
 31
0.0
  0
LINE
  8
0
  6
CONTINUOUS
 62
       7
  5
245
 10
124.17181406
 20
23.0
 30
0.0
 11
132.67181406
 21
23.0
 31
0.0
  0
LINE
  8
0
  6
CONTINUOUS
 62
       7
  5
246
 10
137.42181406
 20
39.40672941
 30
0.0
 11
137.42181406
 21
80.0
 31
0.0
  0
LINE
  8
0
  6
CONTINUOUS
 62
       7
  5
247
 10
119.42181406
 20
39.40672941
 30
0.0
 11
119.42181406
 21
80.0
 31
0.0
  0
LINE
  8
0
  6
CONTINUOUS
 62
       7
  5
248
 10
99.42181406
 20
48.0
 30
0.0
 11
100.42181406
 21
48.0
 31
0.0
  0
LINE
  8
0
  6
CONTINUOUS
 62
       7
  5
249
 10
118.42181406
 20
48.0
 30
0.0
 11
119.42181406
 21
48.0
 31
0.0
  0
LINE
  8
0
  6
CONTINUOUS
 62
       7
  5
24A
 10
137.42181406
 20
48.0
 30
0.0
 11
146.42181406
 21
48.0
 31
0.0
  0
TEXT
  8
0
  6
CONTINUOUS
 62
       7
  5
24B
 10
-185.6875
 20
105.3500061
 30
0.0
 40
4.5
  1
MODEL:R050M4B
 41
1.08333334
  7
MX_NOTE_STANDARD
 11
-185.6875
 21
107.6000061
 31
0.0
 73
       2
  0
LINE
  8
0
  6
CONTINUOUS
 62
       7
  5
24C
 10
-194.25
 20
132.6000061
 30
0.0
 11
194.80000305
 21
132.6000061
 31
0.0
  0
LINE
  8
0
  6
CONTINUOUS
 62
       7
  5
24D
 10
194.80000305
 20
132.6000061
 30
0.0
 11
194.80000305
 21
-133.5
 31
0.0
  0
LINE
  8
0
  6
CONTINUOUS
 62
       7
  5
24E
 10
-194.25
 20
132.6000061
 30
0.0
 11
-194.25
 21
-133.5
 31
0.0
  0
LINE
  8
0
  6
CONTINUOUS
 62
       7
  5
24F
 10
-194.25
 20
-133.5
 30
0.0
 11
194.80000305
 21
-133.5
 31
0.0
  0
ENDSEC
  0
EOF
