  0
SECTION
  2
HEADER
  0
ENDSEC
  0
SECTION
  2
TABLES
  0
TABLE
  2
LTYPE
 70
     4
  0
LTYPE
  2
CONTINUOUS
 70
    64
  3
Solid line
 72
    65
 73
     0
 40
0.000000
  0
LTYPE
  2
DASHED
 70
    64
  3
__ __ __ __ __ __ __ __ __ __ __ __ __ __ __
 72
    65
 73
     2
 40
3.500000
 49
2.000000
 49
-1.500000
  0
LTYPE
  2
CENTER
 70
    64
  3
____ _ ____ _ ____ _ ____ _ ____ _ ____ _ ____
 72
    65
 73
     4
 40
17.500000
 49
13.000000
 49
-1.500000
 49
1.500000
 49
-1.500000
  0
LTYPE
  2
PHANTOM
 70
    64
  3
_____ _ _ _____ _ _ _____ _ _ _____ _ _ ____  
 72
    65
 73
     6
 40
15.500000
 49
8.000000
 49
-1.500000
 49
1.500000
 49
-1.500000
 49
1.500000
 49
-1.500000
  0
LTYPE
  2
DASHED1
 70
    64
  3
__ __ __ __ __ __ __ __ __ __ __ __ __ __ __
 72
    65
 73
     2
 40
1.500000
 49
1.000000
 49
-0.500000
  0
LTYPE
  2
DASHED2
 70
    64
  3
__ __ __ __ __ __ __ __ __ __ __ __ __ __ __
 72
    65
 73
     2
 40
3.500000
 49
2.500000
 49
-1.000000
  0
LTYPE
  2
DASHED3
 70
    64
  3
__ __ __ __ __ __ __ __ __ __ __ __ __ __ __
 72
    65
 73
     2
 40
6.000000
 49
4.000000
 49
-2.000000
  0
LTYPE
  2
DASHED4
 70
    64
  3
__ __ __ __ __ __ __ __ __ __ __ __ __ __ __
 72
    65
 73
     2
 40
12.000000
 49
10.000000
 49
-2.000000
  0
LTYPE
  2
DASHED5
 70
    64
  3
__ __ __ __ __ __ __ __ __ __ __ __ __ __ __
 72
    65
 73
     2
 40
17.000000
 49
15.000000
 49
-2.000000
  0
LTYPE
  2
DASHED6
 70
    64
  3
__ __ __ __ __ __ __ __ __ __ __ __ __ __ __
 72
    65
 73
     2
 40
29.000000
 49
27.000000
 49
-2.000000
  0
LTYPE
  2
PHANTOM1
 70
    64
  3
_____ _ _ _____ _ _ _____ _ _ _____ _ _ ____  
 72
    65
 73
     6
 40
31.000000
 49
25.000000
 49
-1.500000
 49
1.000000
 49
-1.000000
 49
1.000000
 49
-1.500000
  0
LTYPE
  2
PHANTOM2
 70
    64
  3
_____ _ _ _____ _ _ _____ _ _ _____ _ _ ____  
 72
    65
 73
     6
 40
36.000000
 49
27.000000
 49
-1.500000
 49
2.500000
 49
-1.000000
 49
2.500000
 49
-1.500000
  0
LTYPE
  2
PHANTOM3
 70
    64
  3
_____ _ _ _____ _ _ _____ _ _ _____ _ _ ____  
 72
    65
 73
     6
 40
78.000000
 49
64.000000
 49
-2.000000
 49
4.000000
 49
-2.000000
 49
4.000000
 49
-2.000000
  0
LTYPE
  2
CENTER1
 70
    64
  3
____ _ ____ _ ____ _ ____ _ ____ _ ____ _ ____
 72
    65
 73
     4
 40
19.000000
 49
14.000000
 49
-1.000000
 49
3.000000
 49
-1.000000
  0
LTYPE
  2
CENTER2
 70
    64
  3
____ _ ____ _ ____ _ ____ _ ____ _ ____ _ ____
 72
    65
 73
     4
 40
28.500000
 49
25.000000
 49
-1.000000
 49
1.500000
 49
-1.000000
  0
LTYPE
  2
CENTER3
 70
    64
  3
____ _ ____ _ ____ _ ____ _ ____ _ ____ _ ____
 72
    65
 73
     4
 40
31.500000
 49
27.000000
 49
-1.000000
 49
2.500000
 49
-1.000000
  0
LTYPE
  2
CENTER4
 70
    64
  3
____ _ ____ _ ____ _ ____ _ ____ _ ____ _ ____
 72
    65
 73
     4
 40
50.000000
 49
45.000000
 49
-1.000000
 49
3.000000
 49
-1.000000
  0
LTYPE
  2
CENTER5
 70
    64
  3
____ _ ____ _ ____ _ ____ _ ____ _ ____ _ ____
 72
    65
 73
     4
 40
100.000000
 49
92.000000
 49
-2.000000
 49
4.000000
 49
-2.000000
  0
LTYPE
  2
SBK1
 70
    64
  3
______ _ _ _ ______ _ _ _ ______ _ _ _ _____  
 72
    65
 73
     8
 40
60.500000
 49
45.000000
 49
-2.000000
 49
2.500000
 49
-2.000000
 49
2.500000
 49
-2.000000
 49
2.500000
 49
-2.000000
  0
LTYPE
  2
SBK2
 70
    64
  3
______ _ _ _ ______ _ _ _ ______ _ _ _ _____  
 72
    65
 73
     8
 40
84.000000
 49
64.000000
 49
-2.000000
 49
4.000000
 49
-2.000000
 49
4.000000
 49
-2.000000
 49
4.000000
 49
-2.000000
  0
LTYPE
  2
STCH
 70
    64
  3
__ __ __ __ __ __ __ __ __ __ __ __ __ __ __
 72
    65
 73
     2
 40
3.000000
 49
1.000000
 49
-2.000000
  0
LTYPE
  2
MTCH
 70
    64
  3
_____ _ _ _____ _ _ _____ _ _ _____ _ _ ____  
 72
    65
 73
     6
 40
80.000000
 49
66.000000
 49
-2.000000
 49
4.000000
 49
-2.000000
 49
4.000000
 49
-2.000000
  0
ENDTAB
  0
TABLE
  2
LAYER
 70
     1
  0
LAYER
  2
0
 70
     0
 62
     7
  6
CONTINUOUS
  0
ENDTAB
  0
TABLE
  2
STYLE
 70
     1
  0
STYLE
  2
STANDARD
 70
     0
 40
0.000000
 41
1.000000
 50
0.000000
 71
     0
 42
0.200000
  3
txt
  4
BIGFONT
  0
ENDTAB
  0
TABLE
  2
VIEW
 70
     0
  0
ENDTAB
  0
ENDSEC
  0
SECTION
  2
BLOCKS
  0
ENDSEC
  0
SECTION
  2
ENTITIES
  0
LINE
  8
0
 10
-94.250000
 20
132.600006
 11
-94.250000
 21
117.600006
  0
LINE
  8
0
 10
-194.250000
 20
117.600006
 11
-94.250000
 21
117.600006
  0
LINE
  8
0
 10
94.800003
 20
132.600006
 11
94.800003
 21
117.600006
  0
LINE
  8
0
 10
94.800003
 20
117.600006
 11
194.800003
 21
117.600006
  0
LINE
  8
0
 10
94.800003
 20
-113.500000
 11
94.800003
 21
-133.500000
  0
LINE
  8
0
 10
94.800003
 20
-113.500000
 11
194.800003
 21
-113.500000
  0
LINE
  8
0
 10
-194.250000
 20
-123.500000
 11
94.800003
 21
-123.500000
  0
LINE
  8
0
 10
-194.250000
 20
43.900002
 11
194.800003
 21
43.900002
  0
LINE
  8
0
 10
-194.250000
 20
-44.800003
 11
194.800003
 21
-44.800003
  0
LINE
  8
0
 10
0.274994
 20
-133.500000
 11
0.274994
 21
43.900002
  0
LINE
  8
0
 10
-64.566666
 20
132.600006
 11
-64.566666
 21
43.900002
  0
LINE
  8
0
 10
65.116669
 20
132.600006
 11
65.116669
 21
43.900002
  0
LINE
  8
0
 10
-194.250000
 20
-34.800003
 11
194.800003
 21
-34.800003
  0
LINE
  8
0
 10
-194.250000
 20
53.900002
 11
194.800003
 21
53.900002
  0
LINE
  8
0
 10
210.000000
 20
148.500000
 11
210.000000
 21
-148.500000
  0
LINE
  8
0
 10
-210.000000
 20
148.500000
 11
-210.000000
 21
-148.500000
  0
LINE
  8
0
 10
-210.000000
 20
148.500000
 11
210.000000
 21
148.500000
  0
LINE
  8
0
 10
-210.000000
 20
-148.500000
 11
210.000000
 21
-148.500000
  0
LINE
  8
0
 10
-194.250000
 20
132.600006
 11
194.800003
 21
132.600006
  0
LINE
  8
0
 10
194.800003
 20
132.600006
 11
194.800003
 21
-133.500000
  0
LINE
  8
0
 10
-194.250000
 20
132.600006
 11
-194.250000
 21
-133.500000
  0
LINE
  8
0
 10
-194.250000
 20
-133.500000
 11
194.800003
 21
-133.500000
  0
TEXT
  8
0
 10
-194.128311
 20
120.880005
 40
5.800000
  1
QUICK FITTING,USD
 50
0.000000
 41
1.052632
 51
0.000000
  7
STANDARD
  0
TEXT
  8
0
 10
100.721687
 20
120.880005
 40
5.800000
  1
DATE: MAY ,1992
 50
0.000000
 41
1.052632
 51
0.000000
  7
STANDARD
  0
TEXT
  8
0
 10
90.700897
 20
-128.800003
 40
7.000000
  1
ＫＯＧＡＮＥＩ，ＣＯＲＰ．
 50
0.000000
 41
0.902367
 51
15.000000
  7
STANDARD
  0
TEXT
  8
0
 10
5.524994
 20
-130.500000
 40
5.000000
  1
MODEL:USD16-12
 50
0.000000
 41
1.052632
 51
0.000000
  7
STANDARD
  0
TEXT
  8
0
 10
-189.000000
 20
46.900002
 40
5.000000
  1
MODEL:USD4-3M
 50
0.000000
 41
1.052632
 51
0.000000
  7
STANDARD
  0
TEXT
  8
0
 10
-59.316666
 20
46.900002
 40
5.000000
  1
MODEL:USD6-4M
 50
0.000000
 41
1.052632
 51
0.000000
  7
STANDARD
  0
TEXT
  8
0
 10
70.366669
 20
46.900002
 40
5.000000
  1
MODEL:USD6-4
 50
0.000000
 41
1.052632
 51
0.000000
  7
STANDARD
  0
TEXT
  8
0
 10
-189.000000
 20
-41.800003
 40
5.000000
  1
MODEL:USD8-6
 50
0.000000
 41
1.052632
 51
0.000000
  7
STANDARD
  0
TEXT
  8
0
 10
5.524994
 20
-41.800003
 40
5.000000
  1
MODEL:USD10-8
 50
0.000000
 41
1.052632
 51
0.000000
  7
STANDARD
  0
TEXT
  8
0
 10
-189.000000
 20
-130.500000
 40
5.000000
  1
MODEL:USD12-10
 50
0.000000
 41
1.052632
 51
0.000000
  7
STANDARD
  0
POINT
  8
0
 10
-133.626114
 20
80.427299
  0
POINT
  8
0
 10
-110.926117
 20
80.427299
  0
LINE
  8
0
  6
CENTER
 10
-141.663498
 20
80.427299
 11
-103.197624
 21
80.427299
  0
LINE
  8
0
 10
-131.476105
 20
84.677299
 11
-123.853462
 21
84.677299
  0
LINE
  8
0
 10
-131.476105
 20
76.177299
 11
-123.853470
 21
76.177299
  0
LINE
  8
0
 10
-123.276115
 20
83.677299
 11
-123.276115
 21
80.927299
  0
LINE
  8
0
 10
-121.276108
 20
83.677299
 11
-121.276108
 21
80.927299
  0
LINE
  8
0
 10
-123.276115
 20
83.677299
 11
-121.276108
 21
83.677299
  0
LINE
  8
0
 10
-123.276115
 20
77.177299
 11
-121.276108
 21
77.177299
  0
LINE
  8
0
 10
-123.853470
 20
76.177299
 11
-123.276115
 21
77.177299
  0
LINE
  8
0
 10
-123.853462
 20
84.677292
 11
-123.276108
 21
83.677292
  0
LINE
  8
0
 10
-121.276123
 20
77.177299
 11
-120.698769
 21
76.177299
  0
LINE
  8
0
 10
-121.276123
 20
83.677299
 11
-120.698769
 21
84.677299
  0
LINE
  8
0
 10
-123.853424
 20
84.677299
 11
-123.853424
 21
80.927299
  0
LINE
  8
0
 10
-120.698761
 20
84.677299
 11
-120.698761
 21
80.927299
  0
LINE
  8
0
 10
-123.853470
 20
79.927299
 11
-120.698761
 21
79.927299
  0
LINE
  8
0
 10
-123.853470
 20
80.927299
 11
-120.698761
 21
80.927299
  0
LINE
  8
0
 10
-123.853424
 20
79.927299
 11
-123.853424
 21
76.177299
  0
LINE
  8
0
 10
-123.276115
 20
79.927299
 11
-123.276115
 21
77.177299
  0
LINE
  8
0
 10
-121.276108
 20
79.927299
 11
-121.276108
 21
77.177299
  0
LINE
  8
0
 10
-120.698761
 20
79.927299
 11
-120.698761
 21
76.177299
  0
LINE
  8
0
 10
-120.698761
 20
84.677299
 11
-113.076111
 21
84.677299
  0
LINE
  8
0
 10
-120.698761
 20
76.177299
 11
-113.076111
 21
76.177299
  0
LINE
  8
0
 10
-131.476105
 20
84.677299
 11
-131.476105
 21
76.177299
  0
LINE
  8
0
 10
-113.076111
 20
84.677299
 11
-113.076111
 21
76.177299
  0
LINE
  8
0
 10
-110.926117
 20
85.327301
 11
-110.926117
 21
75.527298
  0
LINE
  8
0
 10
-133.626114
 20
85.327301
 11
-133.626114
 21
75.527298
  0
LINE
  8
0
 10
-132.426117
 20
85.327301
 11
-132.426117
 21
75.527298
  0
LINE
  8
0
 10
-112.126114
 20
85.327301
 11
-112.126114
 21
75.527298
  0
LINE
  8
0
 10
-133.626114
 20
75.527298
 11
-132.426117
 21
75.527298
  0
LINE
  8
0
 10
-133.626114
 20
85.327301
 11
-132.426117
 21
85.327301
  0
LINE
  8
0
 10
-132.426117
 20
83.027298
 11
-131.476105
 21
83.027298
  0
LINE
  8
0
 10
-132.426117
 20
77.827301
 11
-131.476105
 21
77.827301
  0
LINE
  8
0
 10
-112.126114
 20
85.327301
 11
-110.926117
 21
85.327301
  0
LINE
  8
0
 10
-112.126114
 20
75.527298
 11
-110.926117
 21
75.527298
  0
LINE
  8
0
 10
-113.076111
 20
83.027298
 11
-112.126114
 21
83.027298
  0
LINE
  8
0
 10
-113.076111
 20
77.827301
 11
-112.126114
 21
77.827301
  0
POINT
  8
0
 10
-159.812927
 20
80.427299
  0
POINT
  8
0
 10
-155.912933
 20
80.427299
  0
LINE
  8
0
  6
CENTER
 10
-159.812927
 20
92.807121
 11
-159.812927
 21
68.931747
  0
LINE
  8
0
  6
CENTER
 10
-172.312927
 20
80.427299
 11
-148.312927
 21
80.427299
  0
CIRCLE
  8
0
 10
-159.812927
 20
80.427299
 40
2.100000
  0
ARC
  8
0
 10
-159.812927
 20
78.645012
 40
3.117717
 50
257.454193
 51
282.545807
  0
ARC
  8
0
 10
-159.966995
 20
79.118080
 40
3.613270
 50
283.301086
 51
317.428680
  0
ARC
  8
0
 10
-161.666351
 20
80.427299
 40
5.753414
 50
319.276031
 51
40.724026
  0
ARC
  8
0
 10
-159.967010
 20
81.736519
 40
3.613276
 50
42.571239
 51
76.698669
  0
ARC
  8
0
 10
-159.812927
 20
82.209587
 40
3.117717
 50
77.454193
 51
102.545807
  0
ARC
  8
0
 10
-159.658859
 20
81.736519
 40
3.613270
 50
103.301094
 51
137.428680
  0
ARC
  8
0
 10
-157.959503
 20
80.427299
 40
5.753414
 50
139.276031
 51
220.724030
  0
ARC
  8
0
 10
-159.658844
 20
79.118080
 40
3.613276
 50
222.571243
 51
256.698669
  0
POINT
  8
0
 10
-86.938652
 20
80.427299
  0
POINT
  8
0
 10
-83.038651
 20
80.427299
  0
LINE
  8
0
  6
CENTER
 10
-86.938652
 20
93.249260
 11
-86.938652
 21
68.489616
  0
LINE
  8
0
  6
CENTER
 10
-96.938652
 20
80.427299
 11
-75.938652
 21
80.427299
  0
CIRCLE
  8
0
 10
-86.938652
 20
80.427299
 40
1.600000
  0
ARC
  8
0
 10
-86.938652
 20
78.645012
 40
3.117715
 50
257.454315
 51
282.545807
  0
ARC
  8
0
 10
-87.092728
 20
79.118080
 40
3.613272
 50
283.301208
 51
317.428772
  0
ARC
  8
0
 10
-88.792068
 20
80.427299
 40
5.753408
 50
319.275970
 51
40.724075
  0
ARC
  8
0
 10
-87.092728
 20
81.736519
 40
3.613271
 50
42.571320
 51
76.698906
  0
ARC
  8
0
 10
-86.938652
 20
82.209587
 40
3.117715
 50
77.454330
 51
102.545807
  0
ARC
  8
0
 10
-86.784576
 20
81.736519
 40
3.613272
 50
103.301208
 51
137.428772
  0
ARC
  8
0
 10
-85.085236
 20
80.427299
 40
5.753408
 50
139.275986
 51
220.724075
  0
ARC
  8
0
 10
-86.784576
 20
79.118080
 40
3.613271
 50
222.571320
 51
256.698914
  0
POINT
  8
0
 10
17.601440
 20
79.543030
  0
POINT
  8
0
 10
-6.598557
 20
79.543030
  0
LINE
  8
0
 10
-4.148558
 20
83.043030
 11
-5.398558
 21
83.043030
  0
LINE
  8
0
  6
CENTER
 10
25.801441
 20
79.543030
 11
-18.198559
 21
79.543030
  0
LINE
  8
0
 10
15.451439
 20
74.293030
 11
7.473128
 21
74.293030
  0
LINE
  8
0
 10
15.451441
 20
84.793030
 11
7.473130
 21
84.793030
  0
LINE
  8
0
 10
6.751440
 20
75.543030
 11
6.751440
 21
79.043030
  0
LINE
  8
0
 10
4.651442
 20
75.543030
 11
4.651442
 21
79.043030
  0
LINE
  8
0
 10
6.751439
 20
75.543030
 11
4.651441
 21
75.543030
  0
LINE
  8
0
 10
6.751441
 20
83.543030
 11
4.651443
 21
83.543030
  0
LINE
  8
0
 10
7.473129
 20
79.043030
 11
3.929753
 21
79.043030
  0
LINE
  8
0
 10
7.473129
 20
80.043030
 11
3.929753
 21
80.043030
  0
LINE
  8
0
 10
7.473125
 20
84.793030
 11
6.751436
 21
83.543030
  0
LINE
  8
0
 10
7.473132
 20
74.293030
 11
6.751445
 21
75.543030
  0
LINE
  8
0
 10
4.651440
 20
75.543030
 11
3.929751
 21
74.293037
  0
LINE
  8
0
 10
4.651442
 20
83.543030
 11
3.929754
 21
84.793030
  0
LINE
  8
0
 10
7.473130
 20
74.293030
 11
7.473130
 21
79.043030
  0
LINE
  8
0
 10
3.929751
 20
84.793030
 11
3.929751
 21
80.043030
  0
LINE
  8
0
 10
3.929754
 20
84.793030
 11
-4.148558
 21
84.793030
  0
LINE
  8
0
 10
3.929752
 20
74.293030
 11
-4.148558
 21
74.293030
  0
LINE
  8
0
 10
6.751440
 20
80.043030
 11
6.751440
 21
83.543030
  0
LINE
  8
0
 10
7.473130
 20
80.043030
 11
7.473130
 21
84.793030
  0
LINE
  8
0
 10
4.651442
 20
80.043030
 11
4.651442
 21
83.543030
  0
LINE
  8
0
 10
3.929751
 20
79.043030
 11
3.929751
 21
74.293030
  0
LINE
  8
0
 10
15.451441
 20
74.293030
 11
15.451441
 21
84.793030
  0
LINE
  8
0
 10
17.601440
 20
74.643028
 11
17.601440
 21
84.443031
  0
LINE
  8
0
 10
16.401440
 20
74.643028
 11
16.401440
 21
84.443031
  0
LINE
  8
0
 10
17.601440
 20
84.443031
 11
16.401442
 21
84.443031
  0
LINE
  8
0
 10
17.601440
 20
74.643028
 11
16.401440
 21
74.643028
  0
LINE
  8
0
 10
16.401442
 20
82.143028
 11
15.451441
 21
82.143028
  0
LINE
  8
0
 10
16.401440
 20
76.943031
 11
15.451439
 21
76.943031
  0
LINE
  8
0
 10
-4.148558
 20
74.293030
 11
-4.148558
 21
84.793030
  0
LINE
  8
0
 10
-6.598557
 20
73.643036
 11
-6.598557
 21
85.443039
  0
LINE
  8
0
 10
-5.398558
 20
73.643028
 11
-5.398558
 21
85.443031
  0
LINE
  8
0
 10
-5.398558
 20
85.443031
 11
-6.598557
 21
85.443031
  0
LINE
  8
0
 10
-5.398558
 20
73.643028
 11
-6.598557
 21
73.643028
  0
LINE
  8
0
 10
-4.148558
 20
76.043030
 11
-5.398558
 21
76.043030
  0
POINT
  8
0
 10
-34.500000
 20
79.543030
  0
POINT
  8
0
 10
-29.599998
 20
79.543030
  0
LINE
  8
0
  6
CENTER
 10
-34.500000
 20
93.249260
 11
-34.500000
 21
68.047478
  0
LINE
  8
0
  6
CENTER
 10
-46.299999
 20
79.543030
 11
-22.299999
 21
79.543030
  0
CIRCLE
  8
0
 10
-34.500000
 20
79.543030
 40
3.100000
  0
ARC
  8
0
 10
-34.500000
 20
77.726425
 40
4.083400
 50
257.972961
 51
282.027161
  0
ARC
  8
0
 10
-34.650501
 20
78.208603
 40
4.586586
 50
282.610870
 51
316.015259
  0
ARC
  8
0
 10
-36.310417
 20
79.543030
 40
6.710419
 50
317.659973
 51
42.340084
  0
ARC
  8
0
 10
-34.650501
 20
80.877457
 40
4.586591
 50
43.984856
 51
77.389259
  0
ARC
  8
0
 10
-34.500000
 20
81.359634
 40
4.083400
 50
77.972954
 51
102.027176
  0
ARC
  8
0
 10
-34.349499
 20
80.877457
 40
4.586586
 50
102.610855
 51
136.015244
  0
ARC
  8
0
 10
-32.689583
 20
79.543030
 40
6.710419
 50
137.659988
 51
222.340088
  0
ARC
  8
0
 10
-34.349499
 20
78.208603
 40
4.586591
 50
223.984863
 51
257.389252
  0
POINT
  8
0
 10
48.499996
 20
79.543030
  0
POINT
  8
0
 10
52.399994
 20
79.543030
  0
LINE
  8
0
  6
CENTER
 10
34.699997
 20
79.543030
 11
63.500000
 21
79.543030
  0
LINE
  8
0
  6
CENTER
 10
48.499996
 20
90.596443
 11
48.499996
 21
65.836800
  0
CIRCLE
  8
0
 10
48.499996
 20
79.543030
 40
2.100000
  0
ARC
  8
0
 10
48.499996
 20
77.760750
 40
3.117723
 50
257.454285
 51
282.545776
  0
ARC
  8
0
 10
48.345924
 20
78.233818
 40
3.613278
 50
283.301117
 51
317.428711
  0
ARC
  8
0
 10
46.646595
 20
79.543030
 40
5.753402
 50
319.275940
 51
40.724152
  0
ARC
  8
0
 10
48.345921
 20
80.852242
 40
3.613279
 50
42.571369
 51
76.698875
  0
ARC
  8
0
 10
48.499996
 20
81.325310
 40
3.117723
 50
77.454292
 51
102.545776
  0
ARC
  8
0
 10
48.654068
 20
80.852242
 40
3.613278
 50
103.301125
 51
137.428726
  0
ARC
  8
0
 10
50.353397
 20
79.543030
 40
5.753402
 50
139.275925
 51
220.724152
  0
ARC
  8
0
 10
48.654072
 20
78.233818
 40
3.613279
 50
222.571365
 51
256.698883
  0
POINT
  8
0
 10
120.084785
 20
79.543030
  0
POINT
  8
0
 10
154.784790
 20
79.543030
  0
LINE
  8
0
 10
120.084785
 20
73.643028
 11
121.884789
 21
73.643028
  0
LINE
  8
0
  6
CENTER
 10
114.399796
 20
79.543030
 11
159.846924
 21
79.543030
  0
LINE
  8
0
 10
123.084785
 20
85.793030
 11
134.284790
 21
85.793030
  0
LINE
  8
0
 10
123.084785
 20
73.293030
 11
134.284790
 21
73.293030
  0
LINE
  8
0
 10
136.284790
 20
84.793030
 11
136.284790
 21
81.043030
  0
LINE
  8
0
 10
139.084793
 20
84.793030
 11
139.084793
 21
81.043030
  0
LINE
  8
0
 10
134.284790
 20
85.793030
 11
134.284790
 21
73.293030
  0
LINE
  8
0
 10
141.084793
 20
85.793030
 11
141.084793
 21
73.293030
  0
LINE
  8
0
 10
134.284790
 20
81.043030
 11
141.084793
 21
81.043030
  0
LINE
  8
0
 10
134.284790
 20
78.043030
 11
141.084793
 21
78.043030
  0
LINE
  8
0
 10
136.284790
 20
84.793030
 11
139.084793
 21
84.793030
  0
LINE
  8
0
 10
136.284790
 20
74.293030
 11
139.084793
 21
74.293030
  0
LINE
  8
0
 10
134.284790
 20
73.293022
 11
136.284790
 21
74.293022
  0
LINE
  8
0
 10
139.084793
 20
74.293030
 11
141.084793
 21
73.293030
  0
LINE
  8
0
 10
139.084793
 20
84.793015
 11
141.084793
 21
85.793015
  0
LINE
  8
0
 10
136.284790
 20
84.793030
 11
134.284775
 21
85.793030
  0
LINE
  8
0
 10
141.084793
 20
73.293030
 11
151.984787
 21
73.293030
  0
LINE
  8
0
 10
141.084793
 20
85.793030
 11
151.984787
 21
85.793030
  0
LINE
  8
0
 10
136.284790
 20
78.043030
 11
136.284790
 21
74.293030
  0
LINE
  8
0
 10
139.084793
 20
78.043030
 11
139.084793
 21
74.293030
  0
LINE
  8
0
 10
151.984787
 20
85.793030
 11
151.984787
 21
73.293030
  0
LINE
  8
0
 10
154.784790
 20
84.493027
 11
154.784790
 21
74.593033
  0
LINE
  8
0
 10
123.084785
 20
85.793030
 11
123.084785
 21
73.293030
  0
LINE
  8
0
 10
120.084785
 20
85.443031
 11
120.084785
 21
73.643028
  0
LINE
  8
0
 10
153.184784
 20
84.493027
 11
153.184784
 21
74.593033
  0
LINE
  8
0
 10
151.984787
 20
76.843033
 11
153.184784
 21
76.843033
  0
LINE
  8
0
 10
151.984787
 20
82.243027
 11
153.184784
 21
82.243027
  0
LINE
  8
0
 10
153.184784
 20
84.493027
 11
154.784790
 21
84.493027
  0
LINE
  8
0
 10
153.184784
 20
74.593033
 11
154.784790
 21
74.593033
  0
LINE
  8
0
 10
121.884789
 20
85.443031
 11
121.884789
 21
73.643028
  0
LINE
  8
0
 10
121.884789
 20
75.493027
 11
123.084785
 21
75.493027
  0
LINE
  8
0
 10
121.884789
 20
83.593033
 11
123.084785
 21
83.593033
  0
LINE
  8
0
 10
120.084785
 20
85.443031
 11
121.884789
 21
85.443031
  0
POINT
  8
0
 10
94.000717
 20
79.543030
  0
POINT
  8
0
 10
100.250717
 20
79.543030
  0
LINE
  8
0
  6
CENTER
 10
83.590416
 20
79.543030
 11
105.754288
 21
79.543030
  0
LINE
  8
0
  6
CENTER
 10
94.000717
 20
89.393639
 11
94.000717
 21
69.692421
  0
CIRCLE
  8
0
 10
94.000717
 20
79.543030
 40
6.250000
  0
CIRCLE
  8
0
 10
94.000717
 20
79.543030
 40
5.900000
  0
CIRCLE
  8
0
 10
94.000717
 20
79.543030
 40
3.100000
  0
POINT
  8
0
 10
178.000702
 20
79.543030
  0
POINT
  8
0
 10
184.250702
 20
79.543030
  0
LINE
  8
0
  6
CENTER
 10
178.000702
 20
91.480713
 11
178.000702
 21
66.721069
  0
LINE
  8
0
  6
CENTER
 10
165.841949
 20
79.543030
 11
191.485870
 21
79.543030
  0
CIRCLE
  8
0
 10
178.000702
 20
79.543030
 40
4.950000
  0
CIRCLE
  8
0
 10
178.000702
 20
79.543030
 40
6.250000
  0
CIRCLE
  8
0
 10
178.000702
 20
79.543030
 40
2.100000
  0
POINT
  8
0
 10
-128.865784
 20
0.400593
  0
POINT
  8
0
 10
-90.565788
 20
0.400593
  0
LINE
  8
0
 10
-128.865784
 20
-6.499409
 11
-126.865784
 21
-6.499409
  0
LINE
  8
0
 10
-126.865784
 20
7.300594
 11
-126.865784
 21
-6.499409
  0
LINE
  8
0
  6
CENTER
 10
-133.508209
 20
0.400593
 11
-83.104660
 21
0.400593
  0
LINE
  8
0
 10
-125.865784
 20
-6.849407
 11
-113.265785
 21
-6.849407
  0
LINE
  8
0
 10
-125.865784
 20
7.650593
 11
-113.265785
 21
7.650593
  0
LINE
  8
0
 10
-113.265785
 20
-1.099407
 11
-106.265785
 21
-1.099407
  0
LINE
  8
0
 10
-113.265785
 20
1.900593
 11
-106.265785
 21
1.900593
  0
LINE
  8
0
 10
-111.265785
 20
-4.849407
 11
-108.265785
 21
-4.849407
  0
LINE
  8
0
 10
-111.265785
 20
5.650593
 11
-108.265785
 21
5.650593
  0
LINE
  8
0
 10
-108.265785
 20
5.650593
 11
-108.265785
 21
1.900593
  0
LINE
  8
0
 10
-111.265785
 20
5.650593
 11
-111.265785
 21
1.900593
  0
LINE
  8
0
 10
-113.265785
 20
7.650593
 11
-113.265785
 21
-6.849407
  0
LINE
  8
0
 10
-106.265785
 20
7.650593
 11
-106.265785
 21
-6.849407
  0
LINE
  8
0
 10
-113.265785
 20
-6.849405
 11
-111.265785
 21
-4.849409
  0
LINE
  8
0
 10
-108.265785
 20
-4.849408
 11
-106.265785
 21
-6.849408
  0
LINE
  8
0
 10
-108.265785
 20
5.650594
 11
-106.265793
 21
7.650590
  0
LINE
  8
0
 10
-113.265785
 20
7.650593
 11
-111.265785
 21
5.650593
  0
LINE
  8
0
 10
-106.265785
 20
-6.849407
 11
-93.565788
 21
-6.849407
  0
LINE
  8
0
 10
-111.265785
 20
-1.099407
 11
-111.265785
 21
-4.849407
  0
LINE
  8
0
 10
-108.265785
 20
-1.099407
 11
-108.265785
 21
-4.849407
  0
LINE
  8
0
 10
-106.265785
 20
7.650593
 11
-93.565788
 21
7.650593
  0
LINE
  8
0
 10
-125.865784
 20
7.650593
 11
-125.865784
 21
-6.849407
  0
LINE
  8
0
 10
-128.865784
 20
7.300594
 11
-128.865784
 21
-6.499409
  0
LINE
  8
0
 10
-93.565788
 20
7.650593
 11
-93.565788
 21
-6.849407
  0
LINE
  8
0
 10
-90.565788
 20
6.300594
 11
-90.565788
 21
-5.499409
  0
LINE
  8
0
 10
-92.365791
 20
6.300594
 11
-92.365791
 21
-5.499409
  0
LINE
  8
0
 10
-93.565788
 20
4.450596
 11
-92.365791
 21
4.450596
  0
LINE
  8
0
 10
-93.565788
 20
-3.649410
 11
-92.365791
 21
-3.649410
  0
LINE
  8
0
 10
-92.365791
 20
-5.499409
 11
-90.565788
 21
-5.499409
  0
LINE
  8
0
 10
-92.365791
 20
6.300594
 11
-90.565788
 21
6.300594
  0
LINE
  8
0
 10
-126.865784
 20
5.300594
 11
-125.865784
 21
5.300594
  0
LINE
  8
0
 10
-126.865784
 20
-4.499409
 11
-125.865784
 21
-4.499409
  0
LINE
  8
0
 10
-128.865784
 20
7.300594
 11
-126.865784
 21
7.300594
  0
POINT
  8
0
 10
-158.649872
 20
0.400593
  0
POINT
  8
0
 10
-151.399872
 20
0.400593
  0
LINE
  8
0
  6
CENTER
 10
-175.229996
 20
0.400593
 11
-139.249878
 21
0.400593
  0
LINE
  8
0
  6
CENTER
 10
-158.649872
 20
13.664688
 11
-158.649872
 21
-13.747775
  0
CIRCLE
  8
0
 10
-158.649872
 20
0.400593
 40
6.900000
  0
CIRCLE
  8
0
 10
-158.649872
 20
0.400593
 40
7.250000
  0
CIRCLE
  8
0
 10
-158.649872
 20
0.400593
 40
4.100000
  0
POINT
  8
0
 10
-53.449867
 20
0.400593
  0
POINT
  8
0
 10
-46.199867
 20
0.400593
  0
LINE
  8
0
  6
CENTER
 10
-53.449867
 20
14.548961
 11
-53.449867
 21
-14.189912
  0
LINE
  8
0
  6
CENTER
 10
-72.249863
 20
0.400593
 11
-34.659065
 21
0.400593
  0
CIRCLE
  8
0
 10
-53.449867
 20
0.400593
 40
7.250000
  0
CIRCLE
  8
0
 10
-53.449867
 20
0.400593
 40
5.900000
  0
CIRCLE
  8
0
 10
-53.449867
 20
0.400593
 40
3.100000
  0
POINT
  8
0
 10
85.326408
 20
0.400597
  0
POINT
  8
0
 10
129.126404
 20
0.400597
  0
LINE
  8
0
 10
127.126404
 20
-6.499405
 11
129.126404
 21
-6.499405
  0
LINE
  8
0
 10
127.126404
 20
7.300598
 11
127.126404
 21
-6.499405
  0
LINE
  8
0
  6
CENTER
 10
74.694061
 20
0.400597
 11
140.572403
 21
0.400597
  0
LINE
  8
0
 10
88.726410
 20
-8.349403
 11
102.326408
 21
-8.349403
  0
LINE
  8
0
 10
88.726410
 20
9.150597
 11
102.326408
 21
9.150597
  0
LINE
  8
0
 10
110.026413
 20
6.650597
 11
110.026413
 21
1.900597
  0
LINE
  8
0
 10
104.826408
 20
6.650597
 11
104.826408
 21
1.900597
  0
LINE
  8
0
 10
102.326408
 20
9.150597
 11
102.326408
 21
-8.349403
  0
LINE
  8
0
 10
112.526413
 20
9.150597
 11
112.526413
 21
-8.349403
  0
LINE
  8
0
 10
102.326408
 20
1.900597
 11
112.526413
 21
1.900597
  0
LINE
  8
0
 10
102.326408
 20
-1.099403
 11
112.526413
 21
-1.099403
  0
LINE
  8
0
 10
104.826408
 20
6.650597
 11
110.026413
 21
6.650597
  0
LINE
  8
0
 10
104.826408
 20
-5.849403
 11
110.026413
 21
-5.849403
  0
LINE
  8
0
 10
102.326408
 20
9.150595
 11
104.826408
 21
6.650595
  0
LINE
  8
0
 10
110.026413
 20
6.650600
 11
112.526405
 21
9.150598
  0
LINE
  8
0
 10
110.026405
 20
-5.849404
 11
112.526405
 21
-8.349404
  0
LINE
  8
0
 10
104.826408
 20
-5.849405
 11
102.326408
 21
-8.349401
  0
LINE
  8
0
 10
112.526413
 20
-8.349403
 11
126.126404
 21
-8.349403
  0
LINE
  8
0
 10
112.526413
 20
9.150597
 11
126.126404
 21
9.150597
  0
LINE
  8
0
 10
104.826408
 20
-1.099403
 11
104.826408
 21
-5.849403
  0
LINE
  8
0
 10
110.026413
 20
-1.099403
 11
110.026413
 21
-5.849403
  0
LINE
  8
0
 10
88.726410
 20
9.150597
 11
88.726410
 21
-8.349403
  0
LINE
  8
0
 10
85.326408
 20
8.800598
 11
85.326408
 21
-7.999405
  0
LINE
  8
0
 10
126.126404
 20
9.150597
 11
126.126404
 21
-8.349403
  0
LINE
  8
0
 10
129.126404
 20
7.300598
 11
129.126404
 21
-6.499405
  0
LINE
  8
0
 10
87.526405
 20
8.800598
 11
87.526405
 21
-7.999405
  0
LINE
  8
0
 10
87.526405
 20
-5.599403
 11
88.726410
 21
-5.599403
  0
LINE
  8
0
 10
87.526405
 20
6.400597
 11
88.726410
 21
6.400597
  0
LINE
  8
0
 10
85.326408
 20
8.800598
 11
87.526405
 21
8.800598
  0
LINE
  8
0
 10
85.326408
 20
-7.999405
 11
87.526405
 21
-7.999405
  0
LINE
  8
0
 10
126.126404
 20
5.300598
 11
127.126404
 21
5.300598
  0
LINE
  8
0
 10
126.126404
 20
-4.499405
 11
127.126404
 21
-4.499405
  0
LINE
  8
0
 10
127.126404
 20
7.300598
 11
129.126404
 21
7.300598
  0
POINT
  8
0
 10
44.062683
 20
0.400597
  0
POINT
  8
0
 10
52.812683
 20
0.400597
  0
LINE
  8
0
  6
CENTER
 10
27.482565
 20
0.400597
 11
61.527077
 21
0.400597
  0
LINE
  8
0
  6
CENTER
 10
44.062683
 20
18.086056
 11
44.062683
 21
-17.726999
  0
CIRCLE
  8
0
 10
44.062683
 20
0.400597
 40
8.400000
  0
CIRCLE
  8
0
 10
44.062683
 20
0.400597
 40
8.750000
  0
CIRCLE
  8
0
 10
44.062683
 20
0.400597
 40
5.100000
  0
POINT
  8
0
 10
166.196014
 20
0.400597
  0
POINT
  8
0
 10
174.946014
 20
0.400597
  0
LINE
  8
0
  6
CENTER
 10
166.196014
 20
15.875374
 11
166.196014
 21
-16.400591
  0
LINE
  8
0
  6
CENTER
 10
150.729340
 20
0.400597
 11
182.626373
 21
0.400597
  0
CIRCLE
  8
0
 10
166.196014
 20
0.400597
 40
6.900000
  0
CIRCLE
  8
0
 10
166.196014
 20
0.400597
 40
8.750000
  0
CIRCLE
  8
0
 10
166.196014
 20
0.400597
 40
4.100000
  0
POINT
  8
0
 10
-121.235413
 20
-92.005936
  0
POINT
  8
0
 10
-67.935417
 20
-92.005936
  0
LINE
  8
0
 10
-121.235413
 20
-82.105934
 11
-119.035416
 21
-82.105934
  0
LINE
  8
0
 10
-121.235413
 20
-101.905937
 11
-119.035416
 21
-101.905937
  0
LINE
  8
0
  6
CENTER
 10
-131.549866
 20
-92.005936
 11
-64.078735
 21
-92.005936
  0
LINE
  8
0
 10
-91.635414
 20
-84.505936
 11
-91.635414
 21
-90.505936
  0
LINE
  8
0
 10
-97.535416
 20
-84.505936
 11
-97.535416
 21
-90.505936
  0
LINE
  8
0
 10
-100.685371
 20
-93.505936
 11
-88.485397
 21
-93.505936
  0
LINE
  8
0
 10
-100.685371
 20
-90.505936
 11
-88.485397
 21
-90.505936
  0
LINE
  8
0
 10
-97.535416
 20
-99.505936
 11
-91.635414
 21
-99.505936
  0
LINE
  8
0
 10
-97.535416
 20
-84.505936
 11
-91.635414
 21
-84.505936
  0
LINE
  8
0
 10
-100.685364
 20
-102.655945
 11
-97.535385
 21
-99.505959
  0
LINE
  8
0
 10
-91.635391
 20
-99.505928
 11
-88.485382
 21
-102.655930
  0
LINE
  8
0
 10
-91.635391
 20
-84.505959
 11
-88.485367
 21
-81.355934
  0
LINE
  8
0
 10
-100.685394
 20
-81.355927
 11
-97.535400
 21
-84.505920
  0
LINE
  8
0
 10
-97.535416
 20
-93.505936
 11
-97.535416
 21
-99.505936
  0
LINE
  8
0
 10
-91.635414
 20
-93.505936
 11
-91.635414
 21
-99.505936
  0
LINE
  8
0
 10
-117.435410
 20
-81.355934
 11
-117.435410
 21
-102.655937
  0
LINE
  8
0
 10
-121.235413
 20
-82.105934
 11
-121.235413
 21
-101.905937
  0
LINE
  8
0
 10
-71.335419
 20
-81.355934
 11
-71.335419
 21
-102.655937
  0
LINE
  8
0
 10
-67.935417
 20
-83.605934
 11
-67.935417
 21
-100.405937
  0
LINE
  8
0
 10
-70.135414
 20
-83.605934
 11
-70.135414
 21
-100.405937
  0
LINE
  8
0
 10
-71.335419
 20
-86.005936
 11
-70.135414
 21
-86.005936
  0
LINE
  8
0
 10
-71.335419
 20
-98.005936
 11
-70.135414
 21
-98.005936
  0
LINE
  8
0
 10
-70.135414
 20
-100.405937
 11
-67.935417
 21
-100.405937
  0
LINE
  8
0
 10
-70.135414
 20
-83.605934
 11
-67.935417
 21
-83.605934
  0
LINE
  8
0
 10
-119.035416
 20
-82.105934
 11
-119.035416
 21
-101.905937
  0
LINE
  8
0
 10
-119.035416
 20
-84.505936
 11
-117.435410
 21
-84.505936
  0
LINE
  8
0
 10
-119.035416
 20
-99.505936
 11
-117.435410
 21
-99.505936
  0
LINE
  8
0
 10
-117.435410
 20
-102.655937
 11
-100.685371
 21
-102.655937
  0
LINE
  8
0
 10
-117.435410
 20
-81.355934
 11
-100.685394
 21
-81.355934
  0
LINE
  8
0
 10
-88.485397
 20
-102.655937
 11
-71.335419
 21
-102.655937
  0
LINE
  8
0
 10
-88.485382
 20
-81.355934
 11
-71.335419
 21
-81.355934
  0
LINE
  8
0
 10
-88.485397
 20
-102.655937
 11
-88.485397
 21
-81.355934
  0
LINE
  8
0
 10
-100.685371
 20
-102.655937
 11
-100.685371
 21
-81.355934
  0
POINT
  8
0
 10
-158.649872
 20
-92.005936
  0
POINT
  8
0
 10
-147.999878
 20
-92.005936
  0
LINE
  8
0
  6
CENTER
 10
-178.767090
 20
-92.005936
 11
-139.049866
 21
-92.005936
  0
LINE
  8
0
  6
CENTER
 10
-158.649872
 20
-70.783386
 11
-158.649872
 21
-112.786346
  0
CIRCLE
  8
0
 10
-158.649872
 20
-92.005936
 40
9.900000
  0
CIRCLE
  8
0
 10
-158.649872
 20
-92.005936
 40
10.650000
  0
CIRCLE
  8
0
 10
-158.649872
 20
-92.005936
 40
6.100000
  0
POINT
  8
0
 10
-40.449860
 20
-92.005936
  0
POINT
  8
0
 10
-29.799860
 20
-92.005936
  0
LINE
  8
0
  6
CENTER
 10
-40.449860
 20
-77.415428
 11
-40.449860
 21
-108.364990
  0
LINE
  8
0
  6
CENTER
 10
-54.899254
 20
-92.005936
 11
-22.101194
 21
-92.005936
  0
CIRCLE
  8
0
 10
-40.449860
 20
-92.005936
 40
10.650000
  0
CIRCLE
  8
0
 10
-40.449860
 20
-92.005936
 40
8.400000
  0
CIRCLE
  8
0
 10
-40.449860
 20
-92.005936
 40
5.100000
  0
POINT
  8
0
 10
121.789055
 20
-91.000000
  0
POINT
  8
0
 10
72.389053
 20
-91.000000
  0
LINE
  8
0
 10
119.589058
 20
-81.099998
 11
121.789055
 21
-81.099998
  0
LINE
  8
0
 10
121.789055
 20
-81.099998
 11
121.789055
 21
-100.900002
  0
LINE
  8
0
 10
76.089050
 20
-103.500000
 11
89.589050
 21
-103.500000
  0
LINE
  8
0
 10
76.089050
 20
-78.500000
 11
89.589050
 21
-78.500000
  0
LINE
  8
0
 10
102.089050
 20
-81.000000
 11
102.089050
 21
-89.500000
  0
LINE
  8
0
 10
92.089050
 20
-81.000000
 11
92.089050
 21
-89.500000
  0
LINE
  8
0
 10
104.589050
 20
-78.500000
 11
104.589050
 21
-89.500000
  0
LINE
  8
0
 10
89.589050
 20
-78.500000
 11
89.589050
 21
-89.500000
  0
LINE
  8
0
 10
92.089050
 20
-81.000000
 11
102.089050
 21
-81.000000
  0
LINE
  8
0
 10
92.089050
 20
-101.000000
 11
102.089050
 21
-101.000000
  0
LINE
  8
0
 10
89.589050
 20
-89.500000
 11
104.589050
 21
-89.500000
  0
LINE
  8
0
 10
89.589050
 20
-92.500000
 11
104.589050
 21
-92.500000
  0
LINE
  8
0
 10
92.089058
 20
-101.000000
 11
89.589050
 21
-103.500000
  0
LINE
  8
0
 10
89.589050
 20
-78.500015
 11
92.089050
 21
-81.000008
  0
LINE
  8
0
 10
102.089050
 20
-81.000000
 11
104.589050
 21
-78.500000
  0
LINE
  8
0
 10
102.089050
 20
-101.000008
 11
104.589050
 21
-103.500000
  0
LINE
  8
0
 10
89.589050
 20
-92.500000
 11
89.589050
 21
-103.500000
  0
LINE
  8
0
 10
92.089050
 20
-92.500000
 11
92.089050
 21
-101.000000
  0
LINE
  8
0
 10
102.089050
 20
-92.500000
 11
102.089050
 21
-101.000000
  0
LINE
  8
0
 10
104.589050
 20
-92.500000
 11
104.589050
 21
-103.500000
  0
LINE
  8
0
 10
104.589050
 20
-78.500000
 11
117.989052
 21
-78.500000
  0
LINE
  8
0
 10
104.589050
 20
-103.500000
 11
117.989052
 21
-103.500000
  0
LINE
  8
0
 10
76.089050
 20
-78.500000
 11
76.089050
 21
-103.500000
  0
LINE
  8
0
 10
72.389053
 20
-79.500000
 11
72.389053
 21
-102.500000
  0
LINE
  8
0
 10
74.889053
 20
-79.500000
 11
74.889053
 21
-102.500000
  0
LINE
  8
0
 10
74.889053
 20
-81.800003
 11
76.089050
 21
-81.800003
  0
LINE
  8
0
 10
74.889053
 20
-100.199997
 11
76.089050
 21
-100.199997
  0
LINE
  8
0
 10
72.389053
 20
-102.500000
 11
74.889053
 21
-102.500000
  0
LINE
  8
0
 10
72.389053
 20
-79.500000
 11
74.889053
 21
-79.500000
  0
LINE
  8
0
  6
CENTER
 10
66.660568
 20
-91.000000
 11
129.586090
 21
-91.000000
  0
LINE
  8
0
 10
117.989052
 20
-78.500000
 11
117.989052
 21
-103.500000
  0
LINE
  8
0
 10
119.589058
 20
-100.900002
 11
121.789055
 21
-100.900002
  0
LINE
  8
0
 10
119.589058
 20
-81.099998
 11
119.589058
 21
-100.900002
  0
LINE
  8
0
 10
117.989052
 20
-98.500000
 11
119.589058
 21
-98.500000
  0
LINE
  8
0
 10
117.989052
 20
-83.500000
 11
119.589058
 21
-83.500000
  0
POINT
  8
0
 10
30.333332
 20
-91.000000
  0
POINT
  8
0
 10
42.833332
 20
-91.000000
  0
LINE
  8
0
  6
CENTER
 10
11.100395
 20
-91.000000
 11
49.566269
 21
-91.000000
  0
LINE
  8
0
  6
CENTER
 10
30.333332
 20
-69.335312
 11
30.333332
 21
-110.896141
  0
CIRCLE
  8
0
 10
30.333332
 20
-91.000000
 40
12.500000
  0
CIRCLE
  8
0
 10
30.333332
 20
-91.000000
 40
11.500000
  0
CIRCLE
  8
0
 10
30.333332
 20
-91.000000
 40
8.100000
  0
POINT
  8
0
 10
157.522644
 20
-91.000000
  0
POINT
  8
0
 10
170.022644
 20
-91.000000
  0
LINE
  8
0
  6
CENTER
 10
157.522644
 20
-70.661720
 11
157.522644
 21
-112.664688
  0
LINE
  8
0
  6
CENTER
 10
139.616119
 20
-91.000000
 11
175.871307
 21
-91.000000
  0
CIRCLE
  8
0
 10
157.522644
 20
-91.000000
 40
12.500000
  0
CIRCLE
  8
0
 10
157.522644
 20
-91.000000
 40
6.100000
  0
CIRCLE
  8
0
 10
157.522644
 20
-91.000000
 40
9.900000
  0
ENDSEC
  0
EOF
