  0
SECTION
  2
HEADER
  0
ENDSEC
  0
SECTION
  2
TABLES
  0
TABLE
  2
LTYPE
 70
     4
  0
LTYPE
  2
CONTINUOUS
 70
    64
  3
Solid line
 72
    65
 73
     0
 40
0.000000
  0
LTYPE
  2
DASHED
 70
    64
  3
__ __ __ __ __ __ __ __ __ __ __ __ __ __ __
 72
    65
 73
     2
 40
3.500000
 49
2.000000
 49
-1.500000
  0
LTYPE
  2
CENTER
 70
    64
  3
____ _ ____ _ ____ _ ____ _ ____ _ ____ _ ____
 72
    65
 73
     4
 40
17.500000
 49
13.000000
 49
-1.500000
 49
1.500000
 49
-1.500000
  0
LTYPE
  2
PHANTOM
 70
    64
  3
_____ _ _ _____ _ _ _____ _ _ _____ _ _ ____  
 72
    65
 73
     6
 40
15.500000
 49
8.000000
 49
-1.500000
 49
1.500000
 49
-1.500000
 49
1.500000
 49
-1.500000
  0
LTYPE
  2
DASHED1
 70
    64
  3
__ __ __ __ __ __ __ __ __ __ __ __ __ __ __
 72
    65
 73
     2
 40
1.500000
 49
1.000000
 49
-0.500000
  0
LTYPE
  2
DASHED2
 70
    64
  3
__ __ __ __ __ __ __ __ __ __ __ __ __ __ __
 72
    65
 73
     2
 40
3.500000
 49
2.500000
 49
-1.000000
  0
LTYPE
  2
DASHED3
 70
    64
  3
__ __ __ __ __ __ __ __ __ __ __ __ __ __ __
 72
    65
 73
     2
 40
6.000000
 49
4.000000
 49
-2.000000
  0
LTYPE
  2
DASHED4
 70
    64
  3
__ __ __ __ __ __ __ __ __ __ __ __ __ __ __
 72
    65
 73
     2
 40
12.000000
 49
10.000000
 49
-2.000000
  0
LTYPE
  2
DASHED5
 70
    64
  3
__ __ __ __ __ __ __ __ __ __ __ __ __ __ __
 72
    65
 73
     2
 40
17.000000
 49
15.000000
 49
-2.000000
  0
LTYPE
  2
DASHED6
 70
    64
  3
__ __ __ __ __ __ __ __ __ __ __ __ __ __ __
 72
    65
 73
     2
 40
29.000000
 49
27.000000
 49
-2.000000
  0
LTYPE
  2
PHANTOM1
 70
    64
  3
_____ _ _ _____ _ _ _____ _ _ _____ _ _ ____  
 72
    65
 73
     6
 40
31.000000
 49
25.000000
 49
-1.500000
 49
1.000000
 49
-1.000000
 49
1.000000
 49
-1.500000
  0
LTYPE
  2
PHANTOM2
 70
    64
  3
_____ _ _ _____ _ _ _____ _ _ _____ _ _ ____  
 72
    65
 73
     6
 40
36.000000
 49
27.000000
 49
-1.500000
 49
2.500000
 49
-1.000000
 49
2.500000
 49
-1.500000
  0
LTYPE
  2
PHANTOM3
 70
    64
  3
_____ _ _ _____ _ _ _____ _ _ _____ _ _ ____  
 72
    65
 73
     6
 40
78.000000
 49
64.000000
 49
-2.000000
 49
4.000000
 49
-2.000000
 49
4.000000
 49
-2.000000
  0
LTYPE
  2
CENTER1
 70
    64
  3
____ _ ____ _ ____ _ ____ _ ____ _ ____ _ ____
 72
    65
 73
     4
 40
19.000000
 49
14.000000
 49
-1.000000
 49
3.000000
 49
-1.000000
  0
LTYPE
  2
CENTER2
 70
    64
  3
____ _ ____ _ ____ _ ____ _ ____ _ ____ _ ____
 72
    65
 73
     4
 40
28.500000
 49
25.000000
 49
-1.000000
 49
1.500000
 49
-1.000000
  0
LTYPE
  2
CENTER3
 70
    64
  3
____ _ ____ _ ____ _ ____ _ ____ _ ____ _ ____
 72
    65
 73
     4
 40
31.500000
 49
27.000000
 49
-1.000000
 49
2.500000
 49
-1.000000
  0
LTYPE
  2
CENTER4
 70
    64
  3
____ _ ____ _ ____ _ ____ _ ____ _ ____ _ ____
 72
    65
 73
     4
 40
50.000000
 49
45.000000
 49
-1.000000
 49
3.000000
 49
-1.000000
  0
LTYPE
  2
CENTER5
 70
    64
  3
____ _ ____ _ ____ _ ____ _ ____ _ ____ _ ____
 72
    65
 73
     4
 40
100.000000
 49
92.000000
 49
-2.000000
 49
4.000000
 49
-2.000000
  0
LTYPE
  2
SBK1
 70
    64
  3
______ _ _ _ ______ _ _ _ ______ _ _ _ _____  
 72
    65
 73
     8
 40
60.500000
 49
45.000000
 49
-2.000000
 49
2.500000
 49
-2.000000
 49
2.500000
 49
-2.000000
 49
2.500000
 49
-2.000000
  0
LTYPE
  2
SBK2
 70
    64
  3
______ _ _ _ ______ _ _ _ ______ _ _ _ _____  
 72
    65
 73
     8
 40
84.000000
 49
64.000000
 49
-2.000000
 49
4.000000
 49
-2.000000
 49
4.000000
 49
-2.000000
 49
4.000000
 49
-2.000000
  0
LTYPE
  2
STCH
 70
    64
  3
__ __ __ __ __ __ __ __ __ __ __ __ __ __ __
 72
    65
 73
     2
 40
3.000000
 49
1.000000
 49
-2.000000
  0
LTYPE
  2
MTCH
 70
    64
  3
_____ _ _ _____ _ _ _____ _ _ _____ _ _ ____  
 72
    65
 73
     6
 40
80.000000
 49
66.000000
 49
-2.000000
 49
4.000000
 49
-2.000000
 49
4.000000
 49
-2.000000
  0
ENDTAB
  0
TABLE
  2
LAYER
 70
     1
  0
LAYER
  2
0
 70
     0
 62
     7
  6
CONTINUOUS
  0
ENDTAB
  0
TABLE
  2
STYLE
 70
     1
  0
STYLE
  2
STANDARD
 70
     0
 40
0.000000
 41
1.000000
 50
0.000000
 71
     0
 42
0.200000
  3
txt
  4
BIGFONT
  0
ENDTAB
  0
TABLE
  2
VIEW
 70
     0
  0
ENDTAB
  0
ENDSEC
  0
SECTION
  2
BLOCKS
  0
ENDSEC
  0
SECTION
  2
ENTITIES
  0
LINE
  8
0
 10
-181.250000
 20
195.500000
 11
-181.250000
 21
180.500000
  0
LINE
  8
0
 10
182.099976
 20
195.500000
 11
182.099976
 21
180.500000
  0
LINE
  8
0
 10
-281.250000
 20
180.500000
 11
-181.250000
 21
180.500000
  0
LINE
  8
0
 10
182.099976
 20
-175.000000
 11
182.099976
 21
-195.000000
  0
LINE
  8
0
 10
182.099976
 20
180.500000
 11
282.099976
 21
180.500000
  0
LINE
  8
0
 10
182.099976
 20
-175.000000
 11
282.099976
 21
-175.000000
  0
LINE
  8
0
 10
-281.250000
 20
-185.000000
 11
182.099976
 21
-185.000000
  0
LINE
  8
0
 10
-281.250000
 20
65.333328
 11
282.099976
 21
65.333328
  0
LINE
  8
0
 10
-281.250000
 20
-64.833344
 11
282.099976
 21
-64.833344
  0
LINE
  8
0
 10
-140.412506
 20
195.500000
 11
-140.412506
 21
-64.833344
  0
LINE
  8
0
 10
0.424988
 20
195.500000
 11
0.424988
 21
-64.833344
  0
LINE
  8
0
 10
141.262482
 20
195.500000
 11
141.262482
 21
-64.833344
  0
LINE
  8
0
 10
-281.250000
 20
75.333328
 11
282.099976
 21
75.333328
  0
LINE
  8
0
 10
-281.250000
 20
-54.833344
 11
282.099976
 21
-54.833344
  0
LINE
  8
0
 10
-93.466675
 20
-64.833344
 11
-93.466675
 21
-195.000000
  0
LINE
  8
0
 10
94.316650
 20
-64.833344
 11
94.316650
 21
-195.000000
  0
LINE
  8
0
 10
-297.000000
 20
210.000000
 11
297.000000
 21
210.000000
  0
LINE
  8
0
 10
-297.000000
 20
-210.000000
 11
297.000000
 21
-210.000000
  0
LINE
  8
0
 10
297.000000
 20
210.000000
 11
297.000000
 21
-210.000000
  0
LINE
  8
0
 10
-297.000000
 20
210.000000
 11
-297.000000
 21
-210.000000
  0
LINE
  8
0
 10
-281.250000
 20
195.500000
 11
282.099976
 21
195.500000
  0
LINE
  8
0
 10
-281.250000
 20
195.500000
 11
-281.250000
 21
-195.000000
  0
LINE
  8
0
 10
282.099976
 20
195.500000
 11
282.099976
 21
-195.000000
  0
LINE
  8
0
 10
-281.250000
 20
-195.000000
 11
282.099976
 21
-195.000000
  0
TEXT
  8
0
 10
-278.228302
 20
183.779999
 40
5.800000
  1
QUICK FITTING,UR
 50
0.000000
 41
1.052632
 51
0.000000
  7
STANDARD
  0
TEXT
  8
0
 10
188.021667
 20
183.779999
 40
5.800000
  1
DATE: MAY ,1992
 50
0.000000
 41
1.052632
 51
0.000000
  7
STANDARD
  0
TEXT
  8
0
 10
178.000870
 20
-190.300003
 40
7.000000
  1
ＫＯＧＡＮＥＩ，ＣＯＲＰ．
 50
0.000000
 41
0.902367
 51
15.000000
  7
STANDARD
  0
TEXT
  8
0
 10
-276.000000
 20
68.333328
 40
5.000000
  1
MODEL:UR4-3M
 50
0.000000
 41
1.052632
 51
0.000000
  7
STANDARD
  0
TEXT
  8
0
 10
-135.162506
 20
68.333328
 40
5.000000
  1
MODEL:UR6-3M
 50
0.000000
 41
1.052632
 51
0.000000
  7
STANDARD
  0
TEXT
  8
0
 10
5.674988
 20
68.333328
 40
5.000000
  1
MODEL:UR6-4M
 50
0.000000
 41
1.052632
 51
0.000000
  7
STANDARD
  0
TEXT
  8
0
 10
146.512482
 20
68.333328
 40
5.000000
  1
MODEL:UR6-4
 50
0.000000
 41
1.052632
 51
0.000000
  7
STANDARD
  0
TEXT
  8
0
 10
146.512482
 20
-61.833344
 40
5.000000
  1
MODEL:UR12-6
 50
0.000000
 41
1.052632
 51
0.000000
  7
STANDARD
  0
TEXT
  8
0
 10
5.674988
 20
-61.833344
 40
5.000000
  1
MODEL:UR10-6
 50
0.000000
 41
1.052632
 51
0.000000
  7
STANDARD
  0
TEXT
  8
0
 10
-135.162506
 20
-61.833344
 40
5.000000
  1
MODEL:UR8-6
 50
0.000000
 41
1.052632
 51
0.000000
  7
STANDARD
  0
TEXT
  8
0
 10
-276.000000
 20
-61.833344
 40
5.000000
  1
MODEL:UR8-4
 50
0.000000
 41
1.052632
 51
0.000000
  7
STANDARD
  0
TEXT
  8
0
 10
99.566650
 20
-191.999985
 40
5.000000
  1
MODEL:UR12-10
 50
0.000000
 41
1.052632
 51
0.000000
  7
STANDARD
  0
TEXT
  8
0
 10
-276.000000
 20
-192.000015
 40
5.000000
  1
MODEL:UR10-8
 50
0.000000
 41
1.052632
 51
0.000000
  7
STANDARD
  0
TEXT
  8
0
 10
-88.216675
 20
-192.000000
 40
5.000000
  1
MODEL:UR12-8
 50
0.000000
 41
1.052632
 51
0.000000
  7
STANDARD
  0
POINT
  8
0
 10
-163.031342
 20
127.044312
  0
POINT
  8
0
 10
-196.531342
 20
127.044312
  0
LINE
  8
0
 10
-196.531342
 20
123.544312
 11
-196.531342
 21
130.544312
  0
LINE
  8
0
 10
-183.231339
 20
122.794312
 11
-183.231339
 21
131.294312
  0
LINE
  8
0
 10
-195.331345
 20
123.544312
 11
-195.331345
 21
130.544312
  0
LINE
  8
0
 10
-194.831329
 20
122.794312
 11
-194.831329
 21
131.294312
  0
LINE
  8
0
 10
-194.831329
 20
125.194313
 11
-195.331345
 21
125.194313
  0
LINE
  8
0
 10
-194.831329
 20
128.894318
 11
-195.331345
 21
128.894318
  0
LINE
  8
0
 10
-163.031342
 20
125.044312
 11
-163.031342
 21
129.044312
  0
LINE
  8
0
 10
-163.031342
 20
125.044312
 11
-183.231339
 21
125.044312
  0
LINE
  8
0
 10
-163.031342
 20
129.044312
 11
-183.231339
 21
129.044312
  0
LINE
  8
0
  6
CENTER
 10
-153.031342
 20
127.044312
 11
-206.331345
 21
127.044312
  0
LINE
  8
0
 10
-183.231339
 20
122.794312
 11
-194.831329
 21
122.794312
  0
LINE
  8
0
 10
-183.231339
 20
131.294312
 11
-194.831329
 21
131.294312
  0
LINE
  8
0
 10
-195.331345
 20
123.544312
 11
-196.531342
 21
123.544312
  0
LINE
  8
0
 10
-195.331345
 20
130.544312
 11
-196.531342
 21
130.544312
  0
POINT
  8
0
 10
-246.531342
 20
127.044312
  0
POINT
  8
0
 10
-242.281586
 20
126.998360
  0
LINE
  8
0
  6
CENTER
 10
-246.333160
 20
145.372742
 11
-246.747864
 21
107.018486
  0
LINE
  8
0
  6
CENTER
 10
-259.496918
 20
127.184502
 11
-233.498688
 21
126.903397
  0
CIRCLE
  8
0
 10
-246.531342
 20
127.044312
 40
1.600000
  0
CIRCLE
  8
0
 10
-246.531342
 20
127.044312
 40
4.250000
  0
ARC
  8
0
 10
-246.540070
 20
126.122833
 40
2.578485
 50
257.801178
 51
281.113464
  0
ARC
  8
0
 10
-246.611725
 20
126.368118
 40
2.833072
 50
281.579285
 51
314.430145
  0
ARC
  8
0
 10
-247.421143
 20
127.052742
 40
3.889843
 50
315.884766
 51
43.029640
  0
ARC
  8
0
 10
-246.598892
 20
127.721909
 40
2.833063
 50
44.484367
 51
77.335564
  0
ARC
  8
0
 10
-246.522614
 20
127.965790
 40
2.578485
 50
77.801186
 51
101.113441
  0
ARC
  8
0
 10
-246.450958
 20
127.720505
 40
2.833080
 50
101.579247
 51
134.430252
  0
ARC
  8
0
 10
-245.641541
 20
127.035881
 40
3.889837
 50
135.884857
 51
223.029724
  0
ARC
  8
0
 10
-246.463791
 20
126.366714
 40
2.833068
 50
224.484482
 51
257.335571
  0
POINT
  8
0
 10
-20.481342
 20
127.044312
  0
POINT
  8
0
 10
-58.481339
 20
127.044312
  0
LINE
  8
0
  6
CENTER
 10
-10.481342
 20
127.044312
 11
-68.731339
 21
127.044312
  0
LINE
  8
0
 10
-58.481339
 20
122.144310
 11
-58.481339
 21
131.944305
  0
LINE
  8
0
 10
-42.531342
 20
121.594315
 11
-42.531342
 21
132.494308
  0
LINE
  8
0
 10
-57.281342
 20
122.144310
 11
-57.281342
 21
131.944305
  0
LINE
  8
0
 10
-56.331345
 20
121.594315
 11
-56.331345
 21
132.494308
  0
LINE
  8
0
 10
-56.331345
 20
129.644318
 11
-57.281342
 21
129.644318
  0
LINE
  8
0
 10
-56.331345
 20
124.444313
 11
-57.281342
 21
124.444313
  0
LINE
  8
0
 10
-20.481342
 20
124.044312
 11
-20.481342
 21
130.044312
  0
LINE
  8
0
 10
-20.481342
 20
130.044312
 11
-42.531342
 21
130.044312
  0
LINE
  8
0
 10
-20.481342
 20
124.044312
 11
-42.531342
 21
124.044312
  0
LINE
  8
0
 10
-42.531342
 20
121.594315
 11
-56.331345
 21
121.594315
  0
LINE
  8
0
 10
-42.531342
 20
132.494308
 11
-56.331345
 21
132.494308
  0
LINE
  8
0
 10
-57.281342
 20
122.144310
 11
-58.481339
 21
122.144310
  0
LINE
  8
0
 10
-57.281342
 20
131.944305
 11
-58.481339
 21
131.944305
  0
POINT
  8
0
 10
-99.226753
 20
127.036774
  0
POINT
  8
0
 10
-93.776764
 20
127.025780
  0
LINE
  8
0
  6
CENTER
 10
-99.191582
 20
144.477264
 11
-99.269501
 21
105.842339
  0
LINE
  8
0
  6
CENTER
 10
-113.114426
 20
127.064781
 11
-85.314491
 21
127.008713
  0
CIRCLE
  8
0
 10
-99.226753
 20
127.036774
 40
1.600000
  0
CIRCLE
  8
0
 10
-99.226753
 20
127.036774
 40
5.450000
  0
ARC
  8
0
 10
-99.219307
 20
128.819061
 40
3.117703
 50
77.214859
 51
102.306374
  0
ARC
  8
0
 10
-99.067215
 20
128.345352
 40
3.613260
 50
103.061691
 51
137.189392
  0
ARC
  8
0
 10
-97.373337
 20
127.029030
 40
5.753430
 50
139.036636
 51
220.484573
  0
ARC
  8
0
 10
-99.078156
 20
125.726906
 40
3.613257
 50
222.331802
 51
256.459564
  0
ARC
  8
0
 10
-99.234200
 20
125.254486
 40
3.117703
 50
257.214874
 51
282.306366
  0
ARC
  8
0
 10
-99.386292
 20
125.728195
 40
3.613260
 50
283.061707
 51
317.189392
  0
ARC
  8
0
 10
-101.080170
 20
127.044518
 40
5.753430
 50
319.036652
 51
40.484577
  0
ARC
  8
0
 10
-99.375351
 20
128.346649
 40
3.613252
 50
42.331715
 51
76.459526
  0
POINT
  8
0
 10
121.464989
 20
126.991089
  0
POINT
  8
0
 10
83.364990
 20
126.991089
  0
LINE
  8
0
 10
83.364990
 20
122.091087
 11
83.364990
 21
131.891083
  0
LINE
  8
0
 10
99.314987
 20
121.541092
 11
99.314987
 21
132.441086
  0
LINE
  8
0
 10
84.564987
 20
122.091087
 11
84.564987
 21
131.891083
  0
LINE
  8
0
 10
85.514984
 20
121.541092
 11
85.514984
 21
132.441086
  0
LINE
  8
0
 10
85.514984
 20
124.391090
 11
84.564987
 21
124.391090
  0
LINE
  8
0
 10
85.514984
 20
129.591095
 11
84.564987
 21
129.591095
  0
LINE
  8
0
 10
121.464989
 20
123.991089
 11
121.464989
 21
129.991089
  0
LINE
  8
0
 10
121.464989
 20
123.991089
 11
99.314987
 21
123.991089
  0
LINE
  8
0
 10
121.464989
 20
129.991089
 11
99.314987
 21
129.991089
  0
LINE
  8
0
  6
CENTER
 10
131.464996
 20
126.991089
 11
73.214989
 21
126.991089
  0
LINE
  8
0
 10
84.564987
 20
122.091087
 11
83.364990
 21
122.091087
  0
LINE
  8
0
 10
84.564987
 20
131.891083
 11
83.364990
 21
131.891083
  0
LINE
  8
0
 10
99.314987
 20
121.541092
 11
85.514984
 21
121.541092
  0
LINE
  8
0
 10
99.314987
 20
132.441086
 11
85.514984
 21
132.441086
  0
POINT
  8
0
 10
42.602341
 20
126.993607
  0
POINT
  8
0
 10
48.052338
 20
126.996910
  0
LINE
  8
0
  6
CENTER
 10
28.689749
 20
126.985184
 11
56.489616
 21
127.002014
  0
LINE
  8
0
  6
CENTER
 10
42.592529
 20
143.197906
 11
42.611393
 21
112.040642
  0
CIRCLE
  8
0
 10
42.602341
 20
126.993607
 40
2.100000
  0
CIRCLE
  8
0
 10
42.602341
 20
126.993607
 40
5.450000
  0
ARC
  8
0
 10
42.601261
 20
128.775879
 40
3.117734
 50
77.488945
 51
102.580376
  0
ARC
  8
0
 10
42.755623
 20
128.302917
 40
3.613271
 50
103.335838
 51
137.463394
  0
ARC
  8
0
 10
44.455742
 20
126.994728
 40
5.753406
 50
139.310547
 51
220.758759
  0
ARC
  8
0
 10
42.757206
 20
125.684486
 40
3.613273
 50
222.605957
 51
256.733521
  0
ARC
  8
0
 10
42.603420
 20
125.211334
 40
3.117727
 50
257.488922
 51
282.580383
  0
ARC
  8
0
 10
42.449059
 20
125.684303
 40
3.613279
 50
283.335815
 51
317.463409
  0
ARC
  8
0
 10
40.748940
 20
126.992485
 40
5.753401
 50
319.310608
 51
40.758820
  0
ARC
  8
0
 10
42.447475
 20
128.302734
 40
3.613273
 50
42.605957
 51
76.733536
  0
POINT
  8
0
 10
218.836777
 20
126.991089
  0
POINT
  8
0
 10
260.636780
 20
126.991089
  0
LINE
  8
0
  6
CENTER
 10
209.112732
 20
126.991089
 11
270.393188
 21
126.991089
  0
LINE
  8
0
 10
260.636780
 20
123.991081
 11
260.636780
 21
129.991089
  0
LINE
  8
0
 10
260.636780
 20
123.991081
 11
260.636780
 21
129.991089
  0
LINE
  8
0
 10
238.336792
 20
121.991089
 11
238.336792
 21
131.991089
  0
LINE
  8
0
 10
223.336777
 20
121.991089
 11
223.336777
 21
131.991089
  0
LINE
  8
0
 10
231.636780
 20
122.886078
 11
231.636780
 21
126.491089
  0
LINE
  8
0
 10
230.636780
 20
121.991089
 11
230.636780
 21
126.491089
  0
LINE
  8
0
 10
232.636780
 20
121.991089
 11
232.636780
 21
126.491089
  0
LINE
  8
0
 10
230.636780
 20
126.491089
 11
232.636780
 21
126.491089
  0
LINE
  8
0
 10
238.336777
 20
123.991089
 11
260.636780
 21
123.991089
  0
LINE
  8
0
 10
230.651535
 20
121.991074
 11
231.636795
 21
122.976334
  0
LINE
  8
0
 10
232.753006
 20
121.991074
 11
231.636765
 21
123.107307
  0
LINE
  8
0
 10
232.636780
 20
121.991089
 11
238.336777
 21
121.991089
  0
LINE
  8
0
 10
223.336777
 20
121.991089
 11
223.336777
 21
131.991089
  0
LINE
  8
0
 10
218.836777
 20
122.241089
 11
218.836777
 21
131.741089
  0
LINE
  8
0
 10
220.436768
 20
122.241089
 11
220.436768
 21
131.741089
  0
LINE
  8
0
 10
220.436768
 20
124.291092
 11
221.736771
 21
124.291092
  0
LINE
  8
0
 10
221.736771
 20
122.241089
 11
223.336777
 21
122.241089
  0
LINE
  8
0
 10
221.736786
 20
122.241089
 11
221.736786
 21
131.741089
  0
LINE
  8
0
 10
223.336777
 20
121.991089
 11
230.636780
 21
121.991089
  0
LINE
  8
0
 10
238.336777
 20
129.991089
 11
260.636780
 21
129.991089
  0
LINE
  8
0
 10
232.636780
 20
131.991089
 11
238.336777
 21
131.991089
  0
LINE
  8
0
 10
230.636780
 20
127.491089
 11
232.636780
 21
127.491089
  0
LINE
  8
0
 10
231.636780
 20
131.096100
 11
231.636780
 21
127.491089
  0
LINE
  8
0
 10
230.636780
 20
131.991089
 11
230.636780
 21
127.491089
  0
LINE
  8
0
 10
230.651535
 20
131.991104
 11
231.636795
 21
131.005844
  0
LINE
  8
0
 10
232.753021
 20
131.991089
 11
231.636765
 21
130.874863
  0
LINE
  8
0
 10
232.636780
 20
131.991089
 11
232.636780
 21
127.491089
  0
LINE
  8
0
 10
223.336777
 20
131.991089
 11
230.636780
 21
131.991089
  0
LINE
  8
0
 10
221.736786
 20
131.741089
 11
223.336777
 21
131.741089
  0
LINE
  8
0
 10
220.436768
 20
129.691086
 11
221.736786
 21
129.691086
  0
LINE
  8
0
 10
220.436768
 20
131.741089
 11
218.836777
 21
131.741089
  0
LINE
  8
0
 10
220.436768
 20
122.241089
 11
218.836777
 21
122.241089
  0
POINT
  8
0
 10
181.715134
 20
126.993607
  0
POINT
  8
0
 10
186.715134
 20
126.993607
  0
LINE
  8
0
  6
CENTER
 10
162.540344
 20
126.993607
 11
202.673584
 21
126.993607
  0
LINE
  8
0
  6
CENTER
 10
181.715134
 20
141.993607
 11
181.715134
 21
111.993607
  0
CIRCLE
  8
0
 10
181.715134
 20
126.993607
 40
2.100000
  0
CIRCLE
  8
0
 10
181.715134
 20
126.993607
 40
5.000000
  0
CIRCLE
  8
0
 10
181.715134
 20
126.993607
 40
4.750000
  0
POINT
  8
0
 10
-161.020386
 20
9.458389
  0
POINT
  8
0
 10
-205.620392
 20
9.458389
  0
LINE
  8
0
 10
-205.620392
 20
14.208389
 11
-204.020386
 21
14.208389
  0
LINE
  8
0
 10
-204.020386
 20
12.158390
 11
-202.720398
 21
12.158390
  0
LINE
  8
0
  6
CENTER
 10
-213.138351
 20
9.458389
 11
-151.578033
 21
9.458389
  0
LINE
  8
0
 10
-184.520401
 20
3.208382
 11
-184.520401
 21
15.708382
  0
LINE
  8
0
 10
-184.520401
 20
5.458389
 11
-161.020386
 21
5.458389
  0
LINE
  8
0
 10
-201.020401
 20
3.208385
 11
-201.020401
 21
15.708385
  0
LINE
  8
0
 10
-201.020401
 20
3.208389
 11
-193.520401
 21
3.208389
  0
LINE
  8
0
 10
-205.620392
 20
4.708385
 11
-205.620392
 21
14.208385
  0
LINE
  8
0
 10
-204.020386
 20
4.708385
 11
-204.020386
 21
14.208385
  0
LINE
  8
0
 10
-202.720398
 20
4.708385
 11
-202.720398
 21
14.208385
  0
LINE
  8
0
 10
-204.020386
 20
6.758389
 11
-202.720398
 21
6.758389
  0
LINE
  8
0
 10
-205.620392
 20
4.708389
 11
-204.020386
 21
4.708389
  0
LINE
  8
0
 10
-202.720398
 20
4.708389
 11
-201.020401
 21
4.708389
  0
LINE
  8
0
 10
-192.120392
 20
3.208382
 11
-192.120392
 21
8.958382
  0
LINE
  8
0
 10
-192.820389
 20
3.923141
 11
-192.820389
 21
8.958382
  0
LINE
  8
0
 10
-193.520401
 20
3.208382
 11
-193.520401
 21
8.958382
  0
LINE
  8
0
 10
-193.520401
 20
8.958389
 11
-192.120392
 21
8.958389
  0
LINE
  8
0
 10
-193.535156
 20
3.208382
 11
-192.820389
 21
3.923144
  0
LINE
  8
0
 10
-192.113281
 20
3.208392
 11
-192.820404
 21
3.915514
  0
LINE
  8
0
 10
-192.120392
 20
3.208389
 11
-184.520401
 21
3.208389
  0
LINE
  8
0
 10
-184.520401
 20
13.458389
 11
-161.020386
 21
13.458389
  0
LINE
  8
0
 10
-192.120392
 20
15.708389
 11
-184.520401
 21
15.708389
  0
LINE
  8
0
 10
-193.535156
 20
15.708393
 11
-192.820389
 21
14.993630
  0
LINE
  8
0
 10
-192.113281
 20
15.708387
 11
-192.820404
 21
15.001265
  0
LINE
  8
0
 10
-192.820389
 20
14.993622
 11
-192.820389
 21
9.958382
  0
LINE
  8
0
 10
-193.520401
 20
9.958389
 11
-192.120392
 21
9.958389
  0
LINE
  8
0
 10
-192.120392
 20
15.708382
 11
-192.120392
 21
9.958382
  0
LINE
  8
0
 10
-193.520401
 20
15.708382
 11
-193.520401
 21
9.958382
  0
LINE
  8
0
 10
-201.020401
 20
15.708389
 11
-193.520401
 21
15.708389
  0
LINE
  8
0
 10
-202.720398
 20
14.208389
 11
-201.020401
 21
14.208389
  0
LINE
  8
0
 10
-161.020386
 20
13.458389
 11
-161.020386
 21
5.458389
  0
POINT
  8
0
 10
-63.459091
 20
9.458389
  0
POINT
  8
0
 10
-18.359093
 20
9.458389
  0
LINE
  8
0
 10
-48.859089
 20
15.708389
 11
-41.959091
 21
15.708389
  0
LINE
  8
0
 10
-41.959091
 20
13.458389
 11
-18.359093
 21
13.458389
  0
LINE
  8
0
 10
-18.359093
 20
5.458382
 11
-18.359093
 21
13.458382
  0
LINE
  8
0
 10
-18.359093
 20
5.458382
 11
-18.359093
 21
13.458382
  0
LINE
  8
0
  6
CENTER
 10
-71.961662
 20
9.458389
 11
-4.890667
 21
9.458389
  0
LINE
  8
0
 10
-41.959091
 20
3.208382
 11
-41.959091
 21
15.708382
  0
LINE
  8
0
 10
-41.959091
 20
5.458389
 11
-18.359093
 21
5.458389
  0
LINE
  8
0
 10
-58.459091
 20
3.208385
 11
-58.459091
 21
15.708385
  0
LINE
  8
0
 10
-58.459091
 20
3.208389
 11
-50.259090
 21
3.208389
  0
LINE
  8
0
 10
-49.559090
 20
3.930658
 11
-49.559090
 21
8.958384
  0
LINE
  8
0
 10
-50.259090
 20
3.208384
 11
-50.259090
 21
8.958384
  0
LINE
  8
0
 10
-48.859089
 20
3.208384
 11
-48.859089
 21
8.958384
  0
LINE
  8
0
 10
-50.259090
 20
8.958389
 11
-48.859089
 21
8.958389
  0
LINE
  8
0
 10
-50.281372
 20
3.208393
 11
-49.559097
 21
3.930667
  0
LINE
  8
0
 10
-48.849880
 20
3.208377
 11
-49.559090
 21
3.917588
  0
LINE
  8
0
 10
-48.859089
 20
3.208389
 11
-41.959091
 21
3.208389
  0
LINE
  8
0
 10
-63.459091
 20
3.558384
 11
-63.459091
 21
15.358387
  0
LINE
  8
0
 10
-61.659088
 20
3.558384
 11
-61.659088
 21
15.358387
  0
LINE
  8
0
 10
-60.459091
 20
3.708385
 11
-60.459091
 21
15.208385
  0
LINE
  8
0
 10
-60.459091
 20
3.708389
 11
-58.459091
 21
3.708389
  0
LINE
  8
0
 10
-63.459091
 20
3.558388
 11
-61.659088
 21
3.558388
  0
LINE
  8
0
 10
-61.659088
 20
5.408390
 11
-60.459091
 21
5.408390
  0
LINE
  8
0
 10
-50.259090
 20
9.958389
 11
-48.859089
 21
9.958389
  0
LINE
  8
0
 10
-50.259090
 20
15.708384
 11
-50.259090
 21
9.958384
  0
LINE
  8
0
 10
-49.559090
 20
14.986109
 11
-49.559090
 21
9.958384
  0
LINE
  8
0
 10
-48.859089
 20
15.708384
 11
-48.859089
 21
9.958384
  0
LINE
  8
0
 10
-48.849884
 20
15.708384
 11
-49.559097
 21
14.999170
  0
LINE
  8
0
 10
-50.281361
 20
15.708385
 11
-49.559090
 21
14.986113
  0
LINE
  8
0
 10
-58.459091
 20
15.708389
 11
-50.259090
 21
15.708389
  0
LINE
  8
0
 10
-60.459091
 20
15.208389
 11
-58.459091
 21
15.208389
  0
LINE
  8
0
 10
-61.659088
 20
13.508389
 11
-60.459091
 21
13.508389
  0
LINE
  8
0
 10
-63.459091
 20
15.358391
 11
-61.659088
 21
15.358391
  0
POINT
  8
0
 10
77.863113
 20
9.458389
  0
POINT
  8
0
 10
124.763107
 20
9.458389
  0
LINE
  8
0
 10
77.863113
 20
16.358383
 11
79.663116
 21
16.358383
  0
LINE
  8
0
 10
124.763107
 20
4.458385
 11
124.763107
 21
14.458385
  0
LINE
  8
0
  6
CENTER
 10
72.090805
 20
9.458389
 11
132.076752
 21
9.458389
  0
LINE
  8
0
 10
99.863113
 20
2.208387
 11
99.863113
 21
16.708387
  0
LINE
  8
0
 10
99.863113
 20
4.458389
 11
124.763107
 21
4.458389
  0
LINE
  8
0
 10
82.863113
 20
2.208389
 11
91.963104
 21
2.208389
  0
LINE
  8
0
 10
92.663109
 20
2.950728
 11
92.663109
 21
8.958388
  0
LINE
  8
0
 10
91.963104
 20
2.208388
 11
91.963104
 21
8.958388
  0
LINE
  8
0
 10
93.363113
 20
2.208388
 11
93.363113
 21
8.958388
  0
LINE
  8
0
 10
91.963104
 20
8.958389
 11
93.363113
 21
8.958389
  0
LINE
  8
0
 10
91.920776
 20
2.208393
 11
92.663116
 21
2.950730
  0
LINE
  8
0
 10
93.361954
 20
2.208386
 11
92.663116
 21
2.907228
  0
LINE
  8
0
 10
93.363113
 20
2.208389
 11
99.863106
 21
2.208389
  0
LINE
  8
0
 10
82.863113
 20
2.208389
 11
82.863113
 21
16.708389
  0
LINE
  8
0
 10
77.863113
 20
2.558395
 11
77.863113
 21
16.358383
  0
LINE
  8
0
 10
79.663116
 20
2.558395
 11
79.663116
 21
16.358383
  0
LINE
  8
0
 10
79.663116
 20
5.408386
 11
80.863113
 21
5.408386
  0
LINE
  8
0
 10
77.863113
 20
2.558395
 11
79.663116
 21
2.558395
  0
LINE
  8
0
 10
80.863113
 20
3.708389
 11
82.863113
 21
3.708389
  0
LINE
  8
0
 10
80.863113
 20
3.708389
 11
80.863113
 21
15.208389
  0
LINE
  8
0
 10
99.863113
 20
14.458389
 11
124.763107
 21
14.458389
  0
LINE
  8
0
 10
93.363113
 20
16.708389
 11
99.863113
 21
16.708389
  0
LINE
  8
0
 10
93.361961
 20
16.708351
 11
92.663116
 21
16.009514
  0
LINE
  8
0
 10
91.920776
 20
16.708399
 11
92.663116
 21
15.966052
  0
LINE
  8
0
 10
92.663109
 20
15.966047
 11
92.663109
 21
9.958388
  0
LINE
  8
0
 10
91.963104
 20
9.958389
 11
93.363113
 21
9.958389
  0
LINE
  8
0
 10
91.963104
 20
16.708389
 11
91.963104
 21
9.958388
  0
LINE
  8
0
 10
93.363113
 20
16.708387
 11
93.363113
 21
9.958388
  0
LINE
  8
0
 10
82.863113
 20
16.708389
 11
91.963104
 21
16.708389
  0
LINE
  8
0
 10
80.863113
 20
15.208389
 11
82.863113
 21
15.208389
  0
LINE
  8
0
 10
79.663116
 20
13.508392
 11
80.863113
 21
13.508392
  0
POINT
  8
0
 10
213.934708
 20
9.458388
  0
POINT
  8
0
 10
267.634705
 20
9.458388
  0
LINE
  8
0
 10
267.634705
 20
3.458380
 11
267.634705
 21
15.458380
  0
LINE
  8
0
 10
213.934708
 20
15.358390
 11
215.734711
 21
15.358390
  0
LINE
  8
0
  6
CENTER
 10
207.714828
 20
9.458388
 11
273.768250
 21
9.458388
  0
LINE
  8
0
 10
239.434708
 20
0.708385
 11
239.434708
 21
18.208385
  0
LINE
  8
0
 10
239.434708
 20
3.458388
 11
267.634705
 21
3.458388
  0
LINE
  8
0
 10
218.934708
 20
0.708384
 11
218.934708
 21
18.208384
  0
LINE
  8
0
 10
230.434708
 20
1.710511
 11
230.434708
 21
8.458382
  0
LINE
  8
0
 10
231.434708
 20
0.708382
 11
231.434708
 21
8.458382
  0
LINE
  8
0
 10
229.434708
 20
0.708383
 11
229.434708
 21
8.458382
  0
LINE
  8
0
 10
218.934708
 20
0.708388
 11
229.434708
 21
0.708388
  0
LINE
  8
0
 10
229.432587
 20
0.708382
 11
230.434708
 21
1.710509
  0
LINE
  8
0
 10
231.440033
 20
0.708381
 11
230.434708
 21
1.713706
  0
LINE
  8
0
 10
231.434708
 20
0.708388
 11
239.434708
 21
0.708388
  0
LINE
  8
0
 10
229.434708
 20
8.458388
 11
231.434708
 21
8.458388
  0
LINE
  8
0
 10
213.934708
 20
3.558383
 11
213.934708
 21
15.358386
  0
LINE
  8
0
 10
215.734711
 20
5.408389
 11
216.934708
 21
5.408389
  0
LINE
  8
0
 10
213.934708
 20
3.558387
 11
215.734711
 21
3.558387
  0
LINE
  8
0
 10
215.734711
 20
3.558383
 11
215.734711
 21
15.358385
  0
LINE
  8
0
 10
216.934708
 20
3.708388
 11
218.934708
 21
3.708388
  0
LINE
  8
0
 10
216.934708
 20
3.708384
 11
216.934708
 21
15.208384
  0
LINE
  8
0
 10
239.434708
 20
15.458388
 11
267.634705
 21
15.458388
  0
LINE
  8
0
 10
231.434708
 20
18.208389
 11
239.434708
 21
18.208389
  0
LINE
  8
0
 10
231.440033
 20
18.208385
 11
230.434708
 21
17.203060
  0
LINE
  8
0
 10
229.432571
 20
18.208389
 11
230.434708
 21
17.206264
  0
LINE
  8
0
 10
229.434708
 20
18.208382
 11
229.434708
 21
10.458383
  0
LINE
  8
0
 10
229.434708
 20
10.458388
 11
231.434708
 21
10.458388
  0
LINE
  8
0
 10
231.434708
 20
18.208382
 11
231.434708
 21
10.458382
  0
LINE
  8
0
 10
230.434708
 20
17.206253
 11
230.434708
 21
10.458382
  0
LINE
  8
0
 10
218.934708
 20
18.208389
 11
229.434708
 21
18.208389
  0
LINE
  8
0
 10
216.934708
 20
15.208388
 11
218.934708
 21
15.208388
  0
LINE
  8
0
 10
215.734711
 20
13.508388
 11
216.934708
 21
13.508388
  0
POINT
  8
0
 10
-182.721588
 20
-120.433434
  0
POINT
  8
0
 10
-135.721588
 20
-120.433434
  0
LINE
  8
0
 10
-135.721588
 20
-125.433449
 11
-135.721588
 21
-115.433449
  0
LINE
  8
0
 10
-182.721588
 20
-113.533440
 11
-180.721588
 21
-113.533440
  0
LINE
  8
0
  6
CENTER
 10
-197.370743
 20
-120.433434
 11
-122.959427
 21
-120.433434
  0
LINE
  8
0
 10
-160.821594
 20
-127.683441
 11
-160.821594
 21
-113.183441
  0
LINE
  8
0
 10
-160.821594
 20
-125.433434
 11
-135.721588
 21
-125.433434
  0
LINE
  8
0
 10
-177.821594
 20
-127.683434
 11
-168.721588
 21
-127.683434
  0
LINE
  8
0
 10
-168.021576
 20
-126.983200
 11
-168.021576
 21
-120.933441
  0
LINE
  8
0
 10
-168.721588
 20
-127.683441
 11
-168.721588
 21
-120.933441
  0
LINE
  8
0
 10
-167.321594
 20
-127.683441
 11
-167.321594
 21
-120.933441
  0
LINE
  8
0
 10
-168.721588
 20
-120.933434
 11
-167.321594
 21
-120.933434
  0
LINE
  8
0
 10
-168.721817
 20
-127.683449
 11
-168.021576
 21
-126.983208
  0
LINE
  8
0
 10
-167.321579
 20
-127.681015
 11
-168.021591
 21
-126.981010
  0
LINE
  8
0
 10
-167.321594
 20
-127.683434
 11
-160.821594
 21
-127.683434
  0
LINE
  8
0
 10
-177.821594
 20
-127.683434
 11
-177.821594
 21
-113.183434
  0
LINE
  8
0
 10
-182.721588
 20
-127.333427
 11
-182.721588
 21
-113.533440
  0
LINE
  8
0
 10
-180.721588
 20
-127.333427
 11
-180.721588
 21
-113.533440
  0
LINE
  8
0
 10
-180.721588
 20
-125.333427
 11
-179.721588
 21
-125.333427
  0
LINE
  8
0
 10
-182.721588
 20
-127.333427
 11
-180.721588
 21
-127.333427
  0
LINE
  8
0
 10
-179.721588
 20
-127.433434
 11
-177.821594
 21
-127.433434
  0
LINE
  8
0
 10
-179.721588
 20
-127.433434
 11
-179.721588
 21
-113.433434
  0
LINE
  8
0
 10
-160.821594
 20
-115.433434
 11
-135.721588
 21
-115.433434
  0
LINE
  8
0
 10
-167.321579
 20
-113.183434
 11
-160.821579
 21
-113.183434
  0
LINE
  8
0
 10
-168.721817
 20
-113.183441
 11
-168.021576
 21
-113.883667
  0
LINE
  8
0
 10
-167.321579
 20
-113.185860
 11
-168.021591
 21
-113.885872
  0
LINE
  8
0
 10
-168.021576
 20
-113.883682
 11
-168.021576
 21
-119.933441
  0
LINE
  8
0
 10
-168.721588
 20
-113.183441
 11
-168.721588
 21
-119.933441
  0
LINE
  8
0
 10
-168.721588
 20
-119.933434
 11
-167.321594
 21
-119.933434
  0
LINE
  8
0
 10
-167.321594
 20
-113.183441
 11
-167.321594
 21
-119.933441
  0
LINE
  8
0
 10
-177.821579
 20
-113.183434
 11
-168.721573
 21
-113.183434
  0
LINE
  8
0
 10
-179.721588
 20
-113.433434
 11
-177.821579
 21
-113.433434
  0
LINE
  8
0
 10
-180.721588
 20
-115.533440
 11
-179.721588
 21
-115.533440
  0
POINT
  8
0
 10
1.827892
 20
-120.433441
  0
POINT
  8
0
 10
55.627892
 20
-120.433441
  0
LINE
  8
0
 10
1.827893
 20
-113.433441
 11
3.827893
 21
-113.433441
  0
LINE
  8
0
 10
55.627892
 20
-126.433449
 11
55.627892
 21
-114.433449
  0
LINE
  8
0
  6
CENTER
 10
-6.624828
 20
-120.433441
 11
62.879929
 21
-120.433441
  0
LINE
  8
0
 10
27.227894
 20
-129.183441
 11
27.227894
 21
-111.683449
  0
LINE
  8
0
 10
27.227894
 20
-126.433441
 11
55.627892
 21
-126.433441
  0
LINE
  8
0
 10
6.727894
 20
-129.183441
 11
6.727894
 21
-111.683449
  0
LINE
  8
0
 10
18.227894
 20
-128.070984
 11
18.227894
 21
-120.933449
  0
LINE
  8
0
 10
17.227894
 20
-129.183441
 11
17.227894
 21
-120.933449
  0
LINE
  8
0
 10
19.227894
 20
-129.183441
 11
19.227894
 21
-120.933449
  0
LINE
  8
0
 10
17.227894
 20
-120.933441
 11
19.227894
 21
-120.933441
  0
LINE
  8
0
 10
6.727892
 20
-129.183441
 11
17.227894
 21
-129.183441
  0
LINE
  8
0
 10
17.207367
 20
-129.183441
 11
18.227896
 21
-128.162918
  0
LINE
  8
0
 10
19.227896
 20
-129.070984
 11
18.227894
 21
-128.070984
  0
LINE
  8
0
 10
19.227892
 20
-129.183441
 11
27.227892
 21
-129.183441
  0
LINE
  8
0
 10
1.827892
 20
-127.433449
 11
1.827892
 21
-113.433449
  0
LINE
  8
0
 10
3.827892
 20
-127.433449
 11
3.827892
 21
-113.433449
  0
LINE
  8
0
 10
1.827891
 20
-127.433441
 11
3.827891
 21
-127.433441
  0
LINE
  8
0
 10
4.827892
 20
-127.433449
 11
4.827892
 21
-113.433449
  0
LINE
  8
0
 10
3.827892
 20
-125.333443
 11
4.827891
 21
-125.333443
  0
LINE
  8
0
 10
4.827891
 20
-127.433441
 11
6.727893
 21
-127.433441
  0
LINE
  8
0
 10
27.227894
 20
-114.433441
 11
55.627892
 21
-114.433441
  0
LINE
  8
0
 10
19.227896
 20
-111.683441
 11
27.227896
 21
-111.683441
  0
LINE
  8
0
 10
19.227900
 20
-111.795914
 11
18.227898
 21
-112.795914
  0
LINE
  8
0
 10
17.207386
 20
-111.683434
 11
18.227915
 21
-112.703957
  0
LINE
  8
0
 10
18.227894
 20
-112.795914
 11
18.227894
 21
-119.933449
  0
LINE
  8
0
 10
17.227894
 20
-119.933441
 11
19.227894
 21
-119.933441
  0
LINE
  8
0
 10
17.227894
 20
-111.683449
 11
17.227894
 21
-119.933449
  0
LINE
  8
0
 10
19.227894
 20
-111.683449
 11
19.227894
 21
-119.933449
  0
LINE
  8
0
 10
6.727895
 20
-111.683441
 11
17.227894
 21
-111.683441
  0
LINE
  8
0
 10
4.827893
 20
-113.433441
 11
6.727895
 21
-113.433441
  0
LINE
  8
0
 10
3.827893
 20
-115.533440
 11
4.827893
 21
-115.533440
  0
POINT
  8
0
 10
-40.249260
 20
-120.433441
  0
POINT
  8
0
 10
-31.499271
 20
-120.418755
  0
LINE
  8
0
  6
CENTER
 10
-65.116600
 20
-120.475182
 11
-15.116667
 21
-120.391258
  0
LINE
  8
0
  6
CENTER
 10
-40.274437
 20
-105.433464
 11
-40.224083
 21
-135.433426
  0
CIRCLE
  8
0
 10
-40.249260
 20
-120.433441
 40
4.100000
  0
CIRCLE
  8
0
 10
-40.249260
 20
-120.433441
 40
8.750000
  0
CIRCLE
  8
0
 10
-40.249260
 20
-120.433441
 40
7.000000
  0
POINT
  8
0
 10
186.364975
 20
-120.433441
  0
POINT
  8
0
 10
186.364975
 20
-120.433441
  0
POINT
  8
0
 10
240.664978
 20
-120.433441
  0
LINE
  8
0
 10
188.564972
 20
-114.433441
 11
189.764969
 21
-114.433441
  0
LINE
  8
0
 10
186.364975
 20
-111.933441
 11
188.564972
 21
-111.933441
  0
LINE
  8
0
 10
240.664978
 20
-126.433449
 11
240.664978
 21
-114.433449
  0
LINE
  8
0
  6
CENTER
 10
178.412262
 20
-120.433441
 11
254.606964
 21
-120.433441
  0
LINE
  8
0
 10
212.164978
 20
-129.183441
 11
212.164978
 21
-111.683441
  0
LINE
  8
0
 10
191.664978
 20
-129.183441
 11
191.664978
 21
-111.683441
  0
LINE
  8
0
 10
203.164978
 20
-128.173767
 11
203.164978
 21
-120.933441
  0
LINE
  8
0
 10
191.664978
 20
-129.183441
 11
202.164978
 21
-129.183441
  0
LINE
  8
0
 10
202.164978
 20
-129.183441
 11
202.164978
 21
-120.933441
  0
LINE
  8
0
 10
204.164978
 20
-129.183441
 11
204.164978
 21
-120.933441
  0
LINE
  8
0
 10
202.164978
 20
-120.933441
 11
204.164978
 21
-120.933441
  0
LINE
  8
0
 10
186.364975
 20
-128.933441
 11
186.364975
 21
-111.933441
  0
LINE
  8
0
 10
188.564972
 20
-128.933441
 11
188.564972
 21
-111.933441
  0
LINE
  8
0
 10
186.364975
 20
-128.933441
 11
188.564972
 21
-128.933441
  0
LINE
  8
0
 10
188.564972
 20
-126.433441
 11
189.764969
 21
-126.433441
  0
LINE
  8
0
 10
189.764969
 20
-128.933441
 11
189.764969
 21
-111.933441
  0
LINE
  8
0
 10
189.764969
 20
-128.933441
 11
191.664978
 21
-128.933441
  0
LINE
  8
0
 10
202.155304
 20
-129.183441
 11
203.164978
 21
-128.173752
  0
LINE
  8
0
 10
204.164352
 20
-129.183441
 11
203.164978
 21
-128.184067
  0
LINE
  8
0
 10
204.164978
 20
-129.183441
 11
212.164978
 21
-129.183441
  0
LINE
  8
0
 10
188.564972
 20
-126.433441
 11
189.764969
 21
-126.433441
  0
LINE
  8
0
 10
212.164978
 20
-126.433441
 11
240.664978
 21
-126.433441
  0
LINE
  8
0
 10
212.164978
 20
-126.433441
 11
240.664978
 21
-126.433441
  0
LINE
  8
0
 10
212.164978
 20
-114.433441
 11
240.664978
 21
-114.433441
  0
LINE
  8
0
 10
204.164978
 20
-111.683441
 11
212.164978
 21
-111.683441
  0
LINE
  8
0
 10
204.164352
 20
-111.683441
 11
203.164978
 21
-112.682838
  0
LINE
  8
0
 10
202.155304
 20
-111.683456
 11
203.164978
 21
-112.693138
  0
LINE
  8
0
 10
202.164978
 20
-111.683441
 11
202.164978
 21
-119.933441
  0
LINE
  8
0
 10
203.164978
 20
-112.693115
 11
203.164978
 21
-119.933441
  0
LINE
  8
0
 10
204.164978
 20
-111.683441
 11
204.164978
 21
-119.933441
  0
LINE
  8
0
 10
202.164978
 20
-119.933441
 11
204.164978
 21
-119.933441
  0
LINE
  8
0
 10
191.664978
 20
-111.683441
 11
202.164978
 21
-111.683441
  0
LINE
  8
0
 10
189.764969
 20
-111.933441
 11
191.664978
 21
-111.933441
  0
POINT
  8
0
 10
34.806290
 20
9.458389
  0
POINT
  8
0
 10
42.056290
 20
9.458389
  0
LINE
  8
0
  6
CENTER
 10
20.187428
 20
9.458389
 11
49.475262
 21
9.458389
  0
LINE
  8
0
  6
CENTER
 10
34.806290
 20
24.458389
 11
34.806290
 21
-5.541611
  0
CIRCLE
  8
0
 10
34.806290
 20
9.458389
 40
5.900000
  0
CIRCLE
  8
0
 10
34.806290
 20
9.458389
 40
3.100000
  0
CIRCLE
  8
0
 10
34.806290
 20
9.458389
 40
7.250000
  0
POINT
  8
0
 10
-240.125214
 20
9.458448
  0
POINT
  8
0
 10
-233.875214
 20
9.458448
  0
LINE
  8
0
  6
CENTER
 10
-261.139954
 20
9.458448
 11
-214.806641
 21
9.458448
  0
LINE
  8
0
  6
CENTER
 10
-240.125214
 20
24.458448
 11
-240.125214
 21
-5.541552
  0
CIRCLE
  8
0
 10
-240.125214
 20
9.458448
 40
6.250000
  0
CIRCLE
  8
0
 10
-240.125214
 20
9.458448
 40
2.100000
  0
CIRCLE
  8
0
 10
-240.125214
 20
9.458448
 40
4.750000
  0
POINT
  8
0
 10
-102.014977
 20
9.458430
  0
POINT
  8
0
 10
-95.764977
 20
9.458430
  0
LINE
  8
0
  6
CENTER
 10
-120.190514
 20
9.458430
 11
-75.494675
 21
9.458430
  0
LINE
  8
0
  6
CENTER
 10
-102.014977
 20
24.458431
 11
-102.014977
 21
-5.541570
  0
CIRCLE
  8
0
 10
-102.014977
 20
9.458430
 40
5.900000
  0
CIRCLE
  8
0
 10
-102.014977
 20
9.458430
 40
3.100000
  0
CIRCLE
  8
0
 10
-102.014977
 20
9.458430
 40
6.250000
  0
POINT
  8
0
 10
177.554932
 20
9.458430
  0
POINT
  8
0
 10
186.304932
 20
9.458430
  0
LINE
  8
0
  6
CENTER
 10
160.449905
 20
9.458430
 11
194.099762
 21
9.458430
  0
LINE
  8
0
  6
CENTER
 10
177.554932
 20
24.458431
 11
177.554932
 21
-5.541570
  0
CIRCLE
  8
0
 10
177.554932
 20
9.458430
 40
5.900000
  0
CIRCLE
  8
0
 10
177.554932
 20
9.458430
 40
3.100000
  0
CIRCLE
  8
0
 10
177.554932
 20
9.458430
 40
8.750000
  0
POINT
  8
0
 10
-234.502289
 20
-120.433426
  0
POINT
  8
0
 10
-234.502289
 20
-120.433426
  0
POINT
  8
0
 10
-227.252289
 20
-120.433426
  0
LINE
  8
0
  6
CENTER
 10
-259.268829
 20
-120.433426
 11
-209.268829
 21
-120.433426
  0
LINE
  8
0
  6
CENTER
 10
-234.502289
 20
-105.433426
 11
-234.502289
 21
-135.433426
  0
CIRCLE
  8
0
 10
-234.502289
 20
-120.433426
 40
7.250000
  0
CIRCLE
  8
0
 10
-234.502289
 20
-120.433426
 40
4.100000
  0
CIRCLE
  8
0
 10
-234.502289
 20
-120.433426
 40
6.900000
  0
POINT
  8
0
 10
139.925812
 20
-120.433441
  0
POINT
  8
0
 10
148.675812
 20
-120.433441
  0
LINE
  8
0
  6
CENTER
 10
114.967133
 20
-120.433441
 11
164.967133
 21
-120.433441
  0
LINE
  8
0
  6
CENTER
 10
139.925812
 20
-105.433441
 11
139.925812
 21
-135.433441
  0
CIRCLE
  8
0
 10
139.925812
 20
-120.433441
 40
5.100000
  0
CIRCLE
  8
0
 10
139.925812
 20
-120.433441
 40
8.750000
  0
CIRCLE
  8
0
 10
139.925812
 20
-120.433441
 40
8.500000
  0
ENDSEC
  0
EOF
