  0
SECTION
  2
HEADER
  0
ENDSEC
  0
SECTION
  2
TABLES
  0
TABLE
  2
LTYPE
 70
     4
  0
LTYPE
  2
CONTINUOUS
 70
    64
  3
Solid line
 72
    65
 73
     0
 40
0.000000
  0
LTYPE
  2
DASHED
 70
    64
  3
__ __ __ __ __ __ __ __ __ __ __ __ __ __ __
 72
    65
 73
     2
 40
3.500000
 49
2.000000
 49
-1.500000
  0
LTYPE
  2
CENTER
 70
    64
  3
____ _ ____ _ ____ _ ____ _ ____ _ ____ _ ____
 72
    65
 73
     4
 40
17.500000
 49
13.000000
 49
-1.500000
 49
1.500000
 49
-1.500000
  0
LTYPE
  2
PHANTOM
 70
    64
  3
_____ _ _ _____ _ _ _____ _ _ _____ _ _ ____  
 72
    65
 73
     6
 40
15.500000
 49
8.000000
 49
-1.500000
 49
1.500000
 49
-1.500000
 49
1.500000
 49
-1.500000
  0
LTYPE
  2
DASHED1
 70
    64
  3
__ __ __ __ __ __ __ __ __ __ __ __ __ __ __
 72
    65
 73
     2
 40
1.500000
 49
1.000000
 49
-0.500000
  0
LTYPE
  2
DASHED2
 70
    64
  3
__ __ __ __ __ __ __ __ __ __ __ __ __ __ __
 72
    65
 73
     2
 40
3.500000
 49
2.500000
 49
-1.000000
  0
LTYPE
  2
DASHED3
 70
    64
  3
__ __ __ __ __ __ __ __ __ __ __ __ __ __ __
 72
    65
 73
     2
 40
6.000000
 49
4.000000
 49
-2.000000
  0
LTYPE
  2
DASHED4
 70
    64
  3
__ __ __ __ __ __ __ __ __ __ __ __ __ __ __
 72
    65
 73
     2
 40
12.000000
 49
10.000000
 49
-2.000000
  0
LTYPE
  2
DASHED5
 70
    64
  3
__ __ __ __ __ __ __ __ __ __ __ __ __ __ __
 72
    65
 73
     2
 40
17.000000
 49
15.000000
 49
-2.000000
  0
LTYPE
  2
DASHED6
 70
    64
  3
__ __ __ __ __ __ __ __ __ __ __ __ __ __ __
 72
    65
 73
     2
 40
29.000000
 49
27.000000
 49
-2.000000
  0
LTYPE
  2
PHANTOM1
 70
    64
  3
_____ _ _ _____ _ _ _____ _ _ _____ _ _ ____  
 72
    65
 73
     6
 40
31.000000
 49
25.000000
 49
-1.500000
 49
1.000000
 49
-1.000000
 49
1.000000
 49
-1.500000
  0
LTYPE
  2
PHANTOM2
 70
    64
  3
_____ _ _ _____ _ _ _____ _ _ _____ _ _ ____  
 72
    65
 73
     6
 40
36.000000
 49
27.000000
 49
-1.500000
 49
2.500000
 49
-1.000000
 49
2.500000
 49
-1.500000
  0
LTYPE
  2
PHANTOM3
 70
    64
  3
_____ _ _ _____ _ _ _____ _ _ _____ _ _ ____  
 72
    65
 73
     6
 40
78.000000
 49
64.000000
 49
-2.000000
 49
4.000000
 49
-2.000000
 49
4.000000
 49
-2.000000
  0
LTYPE
  2
CENTER1
 70
    64
  3
____ _ ____ _ ____ _ ____ _ ____ _ ____ _ ____
 72
    65
 73
     4
 40
19.000000
 49
14.000000
 49
-1.000000
 49
3.000000
 49
-1.000000
  0
LTYPE
  2
CENTER2
 70
    64
  3
____ _ ____ _ ____ _ ____ _ ____ _ ____ _ ____
 72
    65
 73
     4
 40
28.500000
 49
25.000000
 49
-1.000000
 49
1.500000
 49
-1.000000
  0
LTYPE
  2
CENTER3
 70
    64
  3
____ _ ____ _ ____ _ ____ _ ____ _ ____ _ ____
 72
    65
 73
     4
 40
31.500000
 49
27.000000
 49
-1.000000
 49
2.500000
 49
-1.000000
  0
LTYPE
  2
CENTER4
 70
    64
  3
____ _ ____ _ ____ _ ____ _ ____ _ ____ _ ____
 72
    65
 73
     4
 40
50.000000
 49
45.000000
 49
-1.000000
 49
3.000000
 49
-1.000000
  0
LTYPE
  2
CENTER5
 70
    64
  3
____ _ ____ _ ____ _ ____ _ ____ _ ____ _ ____
 72
    65
 73
     4
 40
100.000000
 49
92.000000
 49
-2.000000
 49
4.000000
 49
-2.000000
  0
LTYPE
  2
SBK1
 70
    64
  3
______ _ _ _ ______ _ _ _ ______ _ _ _ _____  
 72
    65
 73
     8
 40
60.500000
 49
45.000000
 49
-2.000000
 49
2.500000
 49
-2.000000
 49
2.500000
 49
-2.000000
 49
2.500000
 49
-2.000000
  0
LTYPE
  2
SBK2
 70
    64
  3
______ _ _ _ ______ _ _ _ ______ _ _ _ _____  
 72
    65
 73
     8
 40
84.000000
 49
64.000000
 49
-2.000000
 49
4.000000
 49
-2.000000
 49
4.000000
 49
-2.000000
 49
4.000000
 49
-2.000000
  0
LTYPE
  2
STCH
 70
    64
  3
__ __ __ __ __ __ __ __ __ __ __ __ __ __ __
 72
    65
 73
     2
 40
3.000000
 49
1.000000
 49
-2.000000
  0
LTYPE
  2
MTCH
 70
    64
  3
_____ _ _ _____ _ _ _____ _ _ _____ _ _ ____  
 72
    65
 73
     6
 40
80.000000
 49
66.000000
 49
-2.000000
 49
4.000000
 49
-2.000000
 49
4.000000
 49
-2.000000
  0
ENDTAB
  0
TABLE
  2
LAYER
 70
     1
  0
LAYER
  2
0
 70
     0
 62
     7
  6
CONTINUOUS
  0
ENDTAB
  0
TABLE
  2
STYLE
 70
     1
  0
STYLE
  2
STANDARD
 70
     0
 40
0.000000
 41
1.000000
 50
0.000000
 71
     0
 42
0.200000
  3
txt
  4
BIGFONT
  0
ENDTAB
  0
TABLE
  2
VIEW
 70
     0
  0
ENDTAB
  0
ENDSEC
  0
SECTION
  2
BLOCKS
  0
ENDSEC
  0
SECTION
  2
ENTITIES
  0
LINE
  8
0
 10
-181.250000
 20
195.500000
 11
-181.250000
 21
180.500000
  0
LINE
  8
0
 10
182.099976
 20
195.500000
 11
182.099976
 21
180.500000
  0
LINE
  8
0
 10
-281.250000
 20
180.500000
 11
-181.250000
 21
180.500000
  0
LINE
  8
0
 10
182.099976
 20
-175.000000
 11
182.099976
 21
-195.000000
  0
LINE
  8
0
 10
182.099976
 20
180.500000
 11
282.099976
 21
180.500000
  0
LINE
  8
0
 10
182.099976
 20
-175.000000
 11
282.099976
 21
-175.000000
  0
LINE
  8
0
 10
-281.250000
 20
-185.000000
 11
182.099976
 21
-185.000000
  0
LINE
  8
0
 10
-281.250000
 20
65.333328
 11
282.099976
 21
65.333328
  0
LINE
  8
0
 10
-281.250000
 20
-64.833344
 11
282.099976
 21
-64.833344
  0
LINE
  8
0
 10
-281.250000
 20
-54.833344
 11
282.099976
 21
-54.833344
  0
LINE
  8
0
 10
-281.250000
 20
75.333328
 11
282.099976
 21
75.333328
  0
LINE
  8
0
 10
-93.466675
 20
-64.833344
 11
-93.466675
 21
195.500000
  0
LINE
  8
0
 10
94.316650
 20
-64.833344
 11
94.316650
 21
195.500000
  0
LINE
  8
0
 10
0.424988
 20
-195.000000
 11
0.424988
 21
-64.833344
  0
LINE
  8
0
 10
-297.000000
 20
210.000000
 11
297.000000
 21
210.000000
  0
LINE
  8
0
 10
-297.000000
 20
-210.000000
 11
297.000000
 21
-210.000000
  0
LINE
  8
0
 10
297.000000
 20
210.000000
 11
297.000000
 21
-210.000000
  0
LINE
  8
0
 10
-297.000000
 20
210.000000
 11
-297.000000
 21
-210.000000
  0
LINE
  8
0
 10
-281.250000
 20
195.500000
 11
282.099976
 21
195.500000
  0
LINE
  8
0
 10
-281.250000
 20
195.500000
 11
-281.250000
 21
-195.000000
  0
LINE
  8
0
 10
282.099976
 20
195.500000
 11
282.099976
 21
-195.000000
  0
LINE
  8
0
 10
-281.250000
 20
-195.000000
 11
282.099976
 21
-195.000000
  0
TEXT
  8
0
 10
-278.228302
 20
183.779999
 40
5.800000
  1
QUICK FITTING,UK
 50
0.000000
 41
1.052632
 51
0.000000
  7
STANDARD
  0
TEXT
  8
0
 10
188.021667
 20
183.779999
 40
5.800000
  1
DATE: MAY ,1992
 50
0.000000
 41
1.052632
 51
0.000000
  7
STANDARD
  0
TEXT
  8
0
 10
178.000870
 20
-190.300003
 40
7.000000
  1
ＫＯＧＡＮＥＩ，ＣＯＲＰ．
 50
0.000000
 41
0.902367
 51
15.000000
  7
STANDARD
  0
TEXT
  8
0
 10
5.674988
 20
-192.000000
 40
5.000000
  1
MODEL:UK12
 50
0.000000
 41
1.052632
 51
0.000000
  7
STANDARD
  0
TEXT
  8
0
 10
99.566650
 20
68.333328
 40
5.000000
  1
MODEL:UK6M
 50
0.000000
 41
1.052632
 51
0.000000
  7
STANDARD
  0
TEXT
  8
0
 10
-276.000000
 20
68.333328
 40
5.000000
  1
MODEL:UK3M
 50
0.000000
 41
1.052632
 51
0.000000
  7
STANDARD
  0
TEXT
  8
0
 10
-276.000000
 20
-61.833344
 40
5.000000
  1
MODEL:UK4
 50
0.000000
 41
1.052632
 51
0.000000
  7
STANDARD
  0
TEXT
  8
0
 10
-88.216675
 20
68.333328
 40
5.000000
  1
MODEL:UK4M
 50
0.000000
 41
1.052632
 51
0.000000
  7
STANDARD
  0
TEXT
  8
0
 10
-88.216675
 20
-61.833344
 40
5.000000
  1
MODEL:UK6
 50
0.000000
 41
1.052632
 51
0.000000
  7
STANDARD
  0
TEXT
  8
0
 10
99.566650
 20
-61.833344
 40
5.000000
  1
MODEL:UK8
 50
0.000000
 41
1.052632
 51
0.000000
  7
STANDARD
  0
TEXT
  8
0
 10
-276.000000
 20
-192.000015
 40
5.000000
  1
MODEL:UK10
 50
0.000000
 41
1.052632
 51
0.000000
  7
STANDARD
  0
POINT
  8
0
 10
-232.077148
 20
132.729965
  0
POINT
  8
0
 10
-212.877136
 20
132.729965
  0
LINE
  8
0
 10
-227.077148
 20
132.729965
 11
-225.077148
 21
132.729965
  0
LINE
  8
0
 10
-217.577286
 20
132.729965
 11
-215.577286
 21
132.729965
  0
LINE
  8
0
 10
-214.477142
 20
135.329956
 11
-214.477142
 21
130.129974
  0
LINE
  8
0
 10
-230.477142
 20
135.329956
 11
-230.477142
 21
130.129974
  0
LINE
  8
0
 10
-227.577148
 20
136.229965
 11
-227.577148
 21
129.229965
  0
LINE
  8
0
 10
-229.323547
 20
129.229965
 11
-227.577148
 21
129.229965
  0
LINE
  8
0
 10
-229.323547
 20
136.229965
 11
-227.577148
 21
136.229965
  0
LINE
  8
0
 10
-227.577164
 20
136.229996
 11
-227.077164
 21
136.729980
  0
LINE
  8
0
 10
-227.577148
 20
129.229965
 11
-227.077148
 21
128.729965
  0
LINE
  8
0
 10
-229.877136
 20
135.676376
 11
-229.877136
 21
129.783554
  0
LINE
  8
0
 10
-230.477142
 20
135.329971
 11
-229.877136
 21
135.676376
  0
LINE
  8
0
 10
-230.477142
 20
130.129959
 11
-229.877136
 21
129.783554
  0
LINE
  8
0
 10
-229.877136
 20
135.676376
 11
-229.323547
 21
136.229965
  0
LINE
  8
0
 10
-229.877136
 20
129.783554
 11
-229.323547
 21
129.229965
  0
LINE
  8
0
 10
-229.323547
 20
136.229965
 11
-229.323547
 21
129.229965
  0
LINE
  8
0
 10
-227.077148
 20
137.729965
 11
-227.077148
 21
127.729965
  0
LINE
  8
0
 10
-215.077148
 20
135.676376
 11
-215.077148
 21
129.783539
  0
LINE
  8
0
 10
-215.077133
 20
135.676376
 11
-214.477142
 21
135.329956
  0
LINE
  8
0
 10
-215.077148
 20
129.783554
 11
-214.477142
 21
130.129974
  0
LINE
  8
0
 10
-215.577301
 20
136.729965
 11
-215.077164
 21
135.676376
  0
LINE
  8
0
 10
-215.577286
 20
128.729980
 11
-215.077148
 21
129.783554
  0
LINE
  8
0
 10
-215.577148
 20
137.729965
 11
-215.577148
 21
127.729965
  0
LINE
  8
0
 10
-227.452148
 20
136.354965
 11
-227.077148
 21
136.354965
  0
LINE
  8
0
 10
-227.452148
 20
129.104965
 11
-227.077148
 21
129.104965
  0
LINE
  8
0
 10
-217.577148
 20
137.729965
 11
-217.577148
 21
127.729965
  0
LINE
  8
0
 10
-225.077148
 20
137.729965
 11
-225.077148
 21
127.729965
  0
LINE
  8
0
 10
-225.077148
 20
129.104965
 11
-217.577286
 21
129.104965
  0
LINE
  8
0
 10
-225.077148
 20
128.729965
 11
-217.577286
 21
128.729965
  0
LINE
  8
0
 10
-225.077148
 20
136.729965
 11
-217.577301
 21
136.729965
  0
LINE
  8
0
 10
-225.077148
 20
136.354965
 11
-217.577301
 21
136.354965
  0
LINE
  8
0
 10
-215.577301
 20
136.354965
 11
-215.399292
 21
136.354965
  0
LINE
  8
0
 10
-215.577286
 20
129.104965
 11
-215.399277
 21
129.104965
  0
LINE
  8
0
 10
-232.077148
 20
136.229965
 11
-232.077148
 21
129.229965
  0
LINE
  8
0
 10
-230.877151
 20
136.229965
 11
-230.877151
 21
129.229965
  0
LINE
  8
0
 10
-212.877136
 20
136.229965
 11
-212.877136
 21
129.229965
  0
LINE
  8
0
 10
-214.077133
 20
136.229965
 11
-214.077133
 21
129.229965
  0
LINE
  8
0
 10
-230.877151
 20
134.579956
 11
-230.477142
 21
134.579956
  0
LINE
  8
0
 10
-230.877151
 20
130.879974
 11
-230.477142
 21
130.879974
  0
LINE
  8
0
 10
-232.077148
 20
129.229965
 11
-230.877151
 21
129.229965
  0
LINE
  8
0
 10
-232.077148
 20
136.229965
 11
-230.877151
 21
136.229965
  0
LINE
  8
0
 10
-214.077133
 20
136.229965
 11
-212.877136
 21
136.229965
  0
LINE
  8
0
 10
-214.477142
 20
134.579956
 11
-214.077133
 21
134.579956
  0
LINE
  8
0
 10
-214.477142
 20
130.879974
 11
-214.077133
 21
130.879974
  0
LINE
  8
0
 10
-214.077133
 20
129.229965
 11
-212.877136
 21
129.229965
  0
LINE
  8
0
 10
-227.077148
 20
137.729965
 11
-225.077148
 21
137.729965
  0
LINE
  8
0
 10
-227.077148
 20
127.729965
 11
-225.077148
 21
127.729965
  0
LINE
  8
0
 10
-217.577301
 20
137.729965
 11
-215.577301
 21
137.729965
  0
LINE
  8
0
 10
-217.577286
 20
127.729965
 11
-215.577286
 21
127.729965
  0
LINE
  8
0
  6
CENTER
 10
-236.095428
 20
132.729965
 11
-208.908646
 21
132.729965
  0
POINT
  8
0
  6
CENTER
 10
-148.332275
 20
132.729965
  0
POINT
  8
0
  6
CENTER
 10
-154.105774
 20
132.729965
  0
LINE
  8
0
 10
-151.219025
 20
127.729965
 11
-148.332275
 21
132.729965
  0
LINE
  8
0
  6
CENTER
 10
-154.105774
 20
147.590485
 11
-154.105774
 21
117.590485
  0
LINE
  8
0
  6
CENTER
 10
-165.105774
 20
132.729965
 11
-142.305786
 21
132.729965
  0
LINE
  8
0
 10
-159.879272
 20
132.729965
 11
-156.992523
 21
137.729965
  0
LINE
  8
0
 10
-159.879272
 20
132.729965
 11
-156.992523
 21
127.729965
  0
LINE
  8
0
 10
-151.219025
 20
137.729965
 11
-148.332275
 21
132.729965
  0
LINE
  8
0
 10
-156.992523
 20
137.729965
 11
-151.219025
 21
137.729965
  0
LINE
  8
0
 10
-156.992523
 20
127.729965
 11
-151.219025
 21
127.729965
  0
CIRCLE
  8
0
 10
-154.105774
 20
132.729965
 40
5.000000
  0
CIRCLE
  8
0
 10
-154.105774
 20
132.729965
 40
1.575000
  0
ARC
  8
0
 10
-154.107040
 20
131.808441
 40
2.578479
 50
258.264557
 51
281.576904
  0
ARC
  8
0
 10
-154.180679
 20
132.053146
 40
2.833071
 50
282.042725
 51
314.893524
  0
ARC
  8
0
 10
-154.995621
 20
132.731201
 40
3.889851
 50
316.348297
 51
43.493210
  0
ARC
  8
0
 10
-154.178818
 20
133.406998
 40
2.833079
 50
44.947849
 51
77.798813
  0
ARC
  8
0
 10
-154.104507
 20
133.651489
 40
2.578479
 50
78.264557
 51
101.576912
  0
ARC
  8
0
 10
-154.030869
 20
133.406784
 40
2.833071
 50
102.042725
 51
134.893509
  0
ARC
  8
0
 10
-153.215927
 20
132.728729
 40
3.889851
 50
136.348297
 51
223.493210
  0
ARC
  8
0
 10
-154.032730
 20
132.052933
 40
2.833079
 50
224.947845
 51
257.798828
  0
POINT
  8
0
 10
-44.293823
 20
132.729965
  0
POINT
  8
0
 10
-21.493824
 20
132.729965
  0
LINE
  8
0
 10
-38.293808
 20
132.729965
 11
-35.293808
 21
132.729965
  0
LINE
  8
0
 10
-27.993816
 20
132.729965
 11
-24.993816
 21
132.729965
  0
LINE
  8
0
  6
CENTER
 10
-49.893826
 20
132.729965
 11
-38.293808
 21
132.729965
  0
LINE
  8
0
 10
-23.493824
 20
136.479965
 11
-23.493824
 21
128.979965
  0
LINE
  8
0
 10
-42.293823
 20
136.479965
 11
-42.293823
 21
128.979965
  0
LINE
  8
0
 10
-38.611355
 20
137.179962
 11
-38.611355
 21
128.279968
  0
LINE
  8
0
 10
-41.467033
 20
137.179962
 11
-38.611355
 21
137.179962
  0
LINE
  8
0
 10
-41.467026
 20
128.279968
 11
-38.611355
 21
128.279968
  0
LINE
  8
0
 10
-24.676273
 20
137.179962
 11
-24.676273
 21
128.279968
  0
LINE
  8
0
 10
-38.611359
 20
137.179962
 11
-38.293816
 21
137.729965
  0
LINE
  8
0
 10
-24.993814
 20
127.729965
 11
-24.676270
 21
128.279968
  0
LINE
  8
0
 10
-38.611355
 20
128.279968
 11
-38.293812
 21
127.729965
  0
LINE
  8
0
 10
-24.993809
 20
137.729965
 11
-24.676266
 21
137.179962
  0
LINE
  8
0
 10
-38.293823
 20
138.729965
 11
-38.293823
 21
126.729965
  0
LINE
  8
0
 10
-24.993824
 20
138.729965
 11
-24.993824
 21
126.729965
  0
LINE
  8
0
 10
-24.676273
 20
137.179962
 11
-24.320618
 21
137.179962
  0
LINE
  8
0
 10
-24.676273
 20
128.279968
 11
-24.320620
 21
128.279968
  0
LINE
  8
0
 10
-41.793823
 20
136.613937
 11
-41.793823
 21
128.845993
  0
LINE
  8
0
 10
-23.993824
 20
136.613922
 11
-23.993824
 21
128.845993
  0
LINE
  8
0
 10
-42.293823
 20
136.479965
 11
-41.793823
 21
136.613937
  0
LINE
  8
0
 10
-42.293823
 20
128.979965
 11
-41.793827
 21
128.845993
  0
LINE
  8
0
 10
-23.993826
 20
136.613922
 11
-23.493826
 21
136.479950
  0
LINE
  8
0
 10
-23.993824
 20
128.845993
 11
-23.493824
 21
128.979965
  0
LINE
  8
0
 10
-41.793827
 20
136.613953
 11
-41.467037
 21
137.179962
  0
LINE
  8
0
 10
-24.320621
 20
128.279968
 11
-23.993826
 21
128.845993
  0
LINE
  8
0
 10
-24.320616
 20
137.179962
 11
-23.993818
 21
136.613937
  0
LINE
  8
0
 10
-41.793823
 20
128.845993
 11
-41.467026
 21
128.279968
  0
LINE
  8
0
 10
-41.466984
 20
137.179962
 11
-41.466984
 21
128.279968
  0
LINE
  8
0
 10
-24.320627
 20
137.179962
 11
-24.320627
 21
128.279968
  0
LINE
  8
0
 10
-38.611355
 20
137.229965
 11
-38.293808
 21
137.229965
  0
LINE
  8
0
 10
-38.611355
 20
128.229965
 11
-38.293808
 21
128.229965
  0
LINE
  8
0
 10
-27.993824
 20
138.729965
 11
-27.993824
 21
126.729965
  0
LINE
  8
0
 10
-35.293823
 20
138.729965
 11
-35.293823
 21
126.729965
  0
LINE
  8
0
 10
-35.293808
 20
137.729965
 11
-27.993816
 21
137.729965
  0
LINE
  8
0
 10
-35.293808
 20
137.229965
 11
-27.993816
 21
137.229965
  0
LINE
  8
0
 10
-35.293808
 20
128.229965
 11
-27.993816
 21
128.229965
  0
LINE
  8
0
 10
-35.293808
 20
127.729965
 11
-27.993816
 21
127.729965
  0
LINE
  8
0
 10
-24.993816
 20
128.229965
 11
-24.705139
 21
128.229965
  0
LINE
  8
0
 10
-24.993816
 20
137.229965
 11
-24.676273
 21
137.229965
  0
LINE
  8
0
 10
-44.293823
 20
137.629974
 11
-44.293823
 21
127.829964
  0
LINE
  8
0
 10
-21.493824
 20
137.629974
 11
-21.493824
 21
127.829964
  0
LINE
  8
0
 10
-22.693823
 20
137.629974
 11
-22.693823
 21
127.829964
  0
LINE
  8
0
 10
-43.093822
 20
137.629974
 11
-43.093822
 21
127.829964
  0
LINE
  8
0
 10
-43.093822
 20
130.129974
 11
-42.293823
 21
130.129974
  0
LINE
  8
0
 10
-43.093822
 20
135.329956
 11
-42.293823
 21
135.329956
  0
LINE
  8
0
 10
-44.293823
 20
127.829964
 11
-43.093822
 21
127.829964
  0
LINE
  8
0
 10
-44.293823
 20
137.629974
 11
-43.093822
 21
137.629974
  0
LINE
  8
0
 10
-22.693823
 20
137.629974
 11
-21.493824
 21
137.629974
  0
LINE
  8
0
 10
-22.693823
 20
127.829964
 11
-21.493824
 21
127.829964
  0
LINE
  8
0
 10
-23.493824
 20
135.329956
 11
-22.693823
 21
135.329956
  0
LINE
  8
0
 10
-23.493824
 20
130.129974
 11
-22.693823
 21
130.129974
  0
LINE
  8
0
 10
-38.293808
 20
126.729965
 11
-35.293808
 21
126.729965
  0
LINE
  8
0
 10
-38.293808
 20
138.729965
 11
-35.293808
 21
138.729965
  0
LINE
  8
0
 10
-27.993816
 20
138.729965
 11
-24.993816
 21
138.729965
  0
LINE
  8
0
 10
-27.993816
 20
126.729965
 11
-24.993816
 21
126.729965
  0
LINE
  8
0
  6
CENTER
 10
-35.293808
 20
132.729965
 11
-27.993816
 21
132.729965
  0
LINE
  8
0
  6
CENTER
 10
-24.993816
 20
132.729965
 11
-12.893822
 21
132.729965
  0
POINT
  8
0
  6
CENTER
 10
33.677551
 20
132.729965
  0
POINT
  8
0
  6
CENTER
 10
40.605759
 20
132.729965
  0
LINE
  8
0
  6
CENTER
 10
33.677551
 20
147.729965
 11
33.677551
 21
117.729965
  0
LINE
  8
0
  6
CENTER
 10
16.677551
 20
132.729965
 11
49.677551
 21
132.729965
  0
LINE
  8
0
 10
26.749346
 20
132.729965
 11
30.213449
 21
138.729965
  0
LINE
  8
0
 10
37.141651
 20
126.729965
 11
40.605755
 21
132.729965
  0
LINE
  8
0
 10
26.749350
 20
132.729965
 11
30.213451
 21
126.729965
  0
LINE
  8
0
 10
37.141663
 20
138.729965
 11
40.605762
 21
132.729965
  0
LINE
  8
0
 10
30.213451
 20
138.729965
 11
37.141655
 21
138.729965
  0
LINE
  8
0
 10
30.213449
 20
126.729965
 11
37.141651
 21
126.729965
  0
CIRCLE
  8
0
 10
33.677551
 20
132.729965
 40
6.000000
  0
CIRCLE
  8
0
 10
33.677551
 20
132.729965
 40
2.100000
  0
ARC
  8
0
 10
33.681816
 20
130.947678
 40
3.117714
 50
257.591309
 51
282.682800
  0
ARC
  8
0
 10
33.526615
 20
131.420364
 40
3.613262
 50
283.438141
 51
317.565918
  0
ARC
  8
0
 10
31.824141
 20
132.725525
 40
5.753416
 50
319.413055
 51
40.861168
  0
ARC
  8
0
 10
33.520348
 20
134.038818
 40
3.613271
 50
42.708309
 51
76.836006
  0
ARC
  8
0
 10
33.673286
 20
134.512253
 40
3.117722
 50
77.591347
 51
102.682823
  0
ARC
  8
0
 10
33.828487
 20
134.039566
 40
3.613255
 50
103.438187
 51
137.565903
  0
ARC
  8
0
 10
35.530964
 20
132.734406
 40
5.753417
 50
139.413071
 51
220.861176
  0
ARC
  8
0
 10
33.834755
 20
131.421112
 40
3.613270
 50
222.708328
 51
256.835968
  0
POINT
  8
0
 10
143.489502
 20
132.729965
  0
POINT
  8
0
 10
168.189499
 20
132.729965
  0
LINE
  8
0
 10
166.989502
 20
138.629974
 11
168.189499
 21
138.629974
  0
LINE
  8
0
 10
166.989502
 20
126.829964
 11
168.189499
 21
126.829964
  0
LINE
  8
0
 10
165.889496
 20
137.479965
 11
165.889496
 21
127.979965
  0
LINE
  8
0
 10
145.789505
 20
137.479965
 11
145.789505
 21
127.979965
  0
LINE
  8
0
 10
149.843094
 20
138.129974
 11
149.843094
 21
127.329964
  0
LINE
  8
0
 10
164.535950
 20
138.129974
 11
164.535950
 21
127.329964
  0
LINE
  8
0
 10
146.587433
 20
138.129974
 11
149.843094
 21
138.129974
  0
LINE
  8
0
 10
146.587433
 20
127.329964
 11
149.843094
 21
127.329964
  0
LINE
  8
0
 10
149.843094
 20
138.129959
 11
150.189499
 21
138.729965
  0
LINE
  8
0
 10
164.189545
 20
126.729965
 11
164.535950
 21
127.329971
  0
LINE
  8
0
 10
164.189560
 20
138.729965
 11
164.535965
 21
138.129974
  0
LINE
  8
0
 10
149.843109
 20
127.329971
 11
150.189514
 21
126.729973
  0
LINE
  8
0
 10
150.189499
 20
139.729965
 11
150.189499
 21
125.729965
  0
LINE
  8
0
 10
164.189499
 20
139.729965
 11
164.189499
 21
125.729965
  0
LINE
  8
0
 10
164.535950
 20
138.129974
 11
165.091568
 21
138.129974
  0
LINE
  8
0
 10
164.535950
 20
127.329964
 11
165.091568
 21
127.329964
  0
LINE
  8
0
 10
146.289505
 20
137.613937
 11
146.289505
 21
127.845993
  0
LINE
  8
0
 10
165.389496
 20
137.613937
 11
165.389496
 21
127.845993
  0
LINE
  8
0
 10
145.789505
 20
137.479965
 11
146.289505
 21
137.613937
  0
LINE
  8
0
 10
165.389496
 20
127.845985
 11
165.889496
 21
127.979965
  0
LINE
  8
0
 10
165.389496
 20
137.613937
 11
165.889496
 21
137.479965
  0
LINE
  8
0
 10
145.789505
 20
127.979965
 11
146.289505
 21
127.845985
  0
LINE
  8
0
 10
146.289505
 20
137.613937
 11
146.587448
 21
138.129974
  0
LINE
  8
0
 10
165.091583
 20
127.329964
 11
165.389511
 21
127.845993
  0
LINE
  8
0
 10
165.091568
 20
138.129974
 11
165.389496
 21
137.613937
  0
LINE
  8
0
 10
146.289520
 20
127.846001
 11
146.587448
 21
127.329971
  0
LINE
  8
0
 10
146.587433
 20
138.129974
 11
146.587433
 21
127.329964
  0
LINE
  8
0
 10
165.091614
 20
138.129974
 11
165.091614
 21
127.329964
  0
LINE
  8
0
 10
149.900833
 20
138.229965
 11
150.189499
 21
138.229965
  0
LINE
  8
0
 10
149.900833
 20
127.229965
 11
150.189499
 21
127.229965
  0
LINE
  8
0
 10
160.189499
 20
139.729965
 11
160.189499
 21
125.729965
  0
LINE
  8
0
 10
154.189499
 20
139.729965
 11
154.189499
 21
125.729965
  0
LINE
  8
0
 10
150.189499
 20
139.729965
 11
154.189499
 21
139.729965
  0
LINE
  8
0
 10
150.189499
 20
125.729965
 11
154.189499
 21
125.729965
  0
LINE
  8
0
 10
154.189499
 20
127.229965
 11
160.189545
 21
127.229965
  0
LINE
  8
0
 10
154.189499
 20
126.729965
 11
160.189545
 21
126.729965
  0
LINE
  8
0
 10
160.189545
 20
125.729965
 11
164.189545
 21
125.729965
  0
LINE
  8
0
 10
160.189560
 20
139.729965
 11
164.189560
 21
139.729965
  0
LINE
  8
0
 10
154.189499
 20
138.729965
 11
160.189545
 21
138.729965
  0
LINE
  8
0
 10
154.189499
 20
138.229965
 11
160.189545
 21
138.229965
  0
LINE
  8
0
 10
164.189545
 20
138.229965
 11
164.478226
 21
138.229965
  0
LINE
  8
0
 10
164.189545
 20
127.229965
 11
164.478210
 21
127.229965
  0
LINE
  8
0
  6
CENTER
 10
136.278976
 20
132.729965
 11
178.189499
 21
132.729965
  0
LINE
  8
0
 10
150.189499
 20
132.729965
 11
154.189499
 21
132.729965
  0
LINE
  8
0
 10
160.189545
 20
132.729965
 11
164.189545
 21
132.729965
  0
LINE
  8
0
 10
143.489502
 20
138.629974
 11
143.489502
 21
126.829964
  0
LINE
  8
0
 10
168.189499
 20
138.629974
 11
168.189499
 21
126.829964
  0
LINE
  8
0
 10
166.989502
 20
138.629974
 11
166.989502
 21
126.829964
  0
LINE
  8
0
 10
144.689499
 20
138.629974
 11
144.689499
 21
126.829964
  0
LINE
  8
0
 10
144.689499
 20
136.229965
 11
145.789505
 21
136.229965
  0
LINE
  8
0
 10
144.689499
 20
129.229965
 11
145.789505
 21
129.229965
  0
LINE
  8
0
 10
165.889496
 20
136.229965
 11
166.989502
 21
136.229965
  0
LINE
  8
0
 10
165.889496
 20
129.229965
 11
166.989502
 21
129.229965
  0
LINE
  8
0
 10
143.489502
 20
126.829964
 11
144.689499
 21
126.829964
  0
LINE
  8
0
 10
143.489502
 20
138.629974
 11
144.689499
 21
138.629974
  0
POINT
  8
0
 10
221.460876
 20
132.729965
  0
POINT
  8
0
 10
229.543777
 20
132.729965
  0
LINE
  8
0
  6
CENTER
 10
203.060867
 20
132.729965
 11
240.860870
 21
132.729965
  0
LINE
  8
0
  6
CENTER
 10
221.460876
 20
147.529968
 11
221.460876
 21
117.529961
  0
LINE
  8
0
 10
217.419434
 20
125.729965
 11
225.502335
 21
125.729965
  0
LINE
  8
0
 10
217.419434
 20
139.729965
 11
225.502335
 21
139.729965
  0
LINE
  8
0
 10
213.377975
 20
132.729950
 11
217.419434
 21
139.729965
  0
LINE
  8
0
 10
225.502350
 20
125.729965
 11
229.543793
 21
132.729950
  0
LINE
  8
0
 10
225.502335
 20
139.729965
 11
229.543793
 21
132.729965
  0
LINE
  8
0
 10
213.377975
 20
132.729965
 11
217.419434
 21
125.729965
  0
CIRCLE
  8
0
 10
221.460876
 20
132.729965
 40
7.000000
  0
CIRCLE
  8
0
 10
221.460876
 20
132.729965
 40
3.100000
  0
ARC
  8
0
 10
221.465530
 20
130.913345
 40
4.083388
 50
258.119476
 51
282.173859
  0
ARC
  8
0
 10
221.313797
 20
131.395142
 40
4.586578
 50
282.757507
 51
316.162048
  0
ARC
  8
0
 10
219.650436
 20
132.725327
 40
6.710438
 50
317.806885
 51
42.486679
  0
ARC
  8
0
 10
221.306961
 20
134.064026
 40
4.586579
 50
44.131416
 51
77.535843
  0
ARC
  8
0
 10
221.456223
 20
134.546585
 40
4.083381
 50
78.119469
 51
102.173843
  0
ARC
  8
0
 10
221.607956
 20
134.064789
 40
4.586585
 50
102.757492
 51
136.162048
  0
ARC
  8
0
 10
223.271317
 20
132.734604
 40
6.710438
 50
137.806885
 51
222.486679
  0
ARC
  8
0
 10
221.614792
 20
131.395905
 40
4.586579
 50
224.131424
 51
257.535858
  0
POINT
  8
0
 10
-164.024612
 20
2.563293
  0
POINT
  8
0
 10
-194.124619
 20
2.563293
  0
LINE
  8
0
 10
-194.124619
 20
7.563293
 11
-194.124619
 21
-2.436707
  0
LINE
  8
0
 10
-164.024612
 20
7.563293
 11
-164.024612
 21
-2.436707
  0
LINE
  8
0
 10
-194.124619
 20
7.563293
 11
-192.524612
 21
7.563293
  0
LINE
  8
0
 10
-192.524612
 20
7.563293
 11
-192.524612
 21
-2.436707
  0
LINE
  8
0
 10
-165.624619
 20
7.563293
 11
-165.624619
 21
-2.436707
  0
LINE
  8
0
 10
-191.324615
 20
6.263290
 11
-191.324615
 21
-1.136703
  0
LINE
  8
0
 10
-166.824615
 20
6.263290
 11
-166.824615
 21
-1.136703
  0
LINE
  8
0
 10
-192.524612
 20
7.563293
 11
-192.524612
 21
-2.436707
  0
LINE
  8
0
 10
-189.824615
 20
7.262665
 11
-189.824615
 21
2.963493
  0
LINE
  8
0
 10
-168.324615
 20
6.708817
 11
-168.324615
 21
-1.582214
  0
LINE
  8
0
 10
-191.324615
 20
6.263290
 11
-189.824615
 21
6.263290
  0
LINE
  8
0
 10
-192.524612
 20
5.263290
 11
-191.324615
 21
5.263290
  0
LINE
  8
0
 10
-166.824615
 20
5.263290
 11
-165.624619
 21
5.263290
  0
LINE
  8
0
 10
-168.324615
 20
6.263290
 11
-166.824615
 21
6.263290
  0
LINE
  8
0
 10
-184.667953
 20
7.563293
 11
-177.724625
 21
7.563293
  0
LINE
  8
0
 10
-189.824615
 20
7.262665
 11
-189.824615
 21
-2.136086
  0
LINE
  8
0
 10
-189.318466
 20
7.563293
 11
-188.724625
 21
7.563293
  0
LINE
  8
0
 10
-184.724625
 20
7.563293
 11
-177.724625
 21
7.563293
  0
LINE
  8
0
 10
-189.331451
 20
7.563309
 11
-188.731461
 21
8.563311
  0
LINE
  8
0
 10
-189.303925
 20
7.563296
 11
-189.824615
 21
7.262667
  0
LINE
  8
0
 10
-189.324615
 20
7.545380
 11
-189.324615
 21
2.563293
  0
LINE
  8
0
 10
-188.724625
 20
9.463295
 11
-188.724625
 21
-4.312523
  0
LINE
  8
0
 10
-184.724625
 20
9.466743
 11
-184.724625
 21
-4.340159
  0
LINE
  8
0
 10
-173.724625
 20
9.463295
 11
-173.724625
 21
-4.335037
  0
LINE
  8
0
 10
-177.724625
 20
9.460785
 11
-177.724625
 21
-4.334190
  0
LINE
  8
0
 10
-188.046707
 20
10.613297
 11
-185.386581
 21
10.613297
  0
LINE
  8
0
 10
-188.046707
 20
10.613297
 11
-185.386581
 21
10.613297
  0
LINE
  8
0
 10
-188.724625
 20
9.439110
 11
-188.046707
 21
10.613297
  0
LINE
  8
0
 10
-185.386581
 20
10.613292
 11
-184.722626
 21
9.463286
  0
LINE
  8
0
 10
-177.724640
 20
9.460764
 11
-177.059219
 21
10.613297
  0
LINE
  8
0
 10
-174.389526
 20
10.613296
 11
-173.724625
 21
9.461638
  0
LINE
  8
0
 10
-177.059204
 20
10.613297
 11
-174.389526
 21
10.613297
  0
LINE
  8
0
 10
-184.724625
 20
8.563293
 11
-177.724625
 21
8.563293
  0
LINE
  8
0
 10
-165.624619
 20
7.563293
 11
-164.024612
 21
7.563293
  0
LINE
  8
0
 10
-189.324615
 20
7.563293
 11
-188.724625
 21
7.563293
  0
LINE
  8
0
 10
-184.724625
 20
7.563293
 11
-178.648087
 21
7.563293
  0
LINE
  8
0
 10
-165.624619
 20
7.563293
 11
-164.024612
 21
7.563293
  0
LINE
  8
0
 10
-184.724625
 20
7.563293
 11
-177.724625
 21
7.563293
  0
LINE
  8
0
 10
-188.366592
 20
6.063293
 11
-185.039658
 21
6.063293
  0
LINE
  8
0
 10
-174.082657
 20
6.063293
 11
-177.409592
 21
6.063293
  0
LINE
  8
0
 10
-173.146988
 20
7.963297
 11
-173.146988
 21
-2.836706
  0
LINE
  8
0
 10
-173.146988
 20
7.963310
 11
-169.048889
 21
7.963310
  0
LINE
  8
0
 10
-173.724625
 20
8.563293
 11
-173.124619
 21
7.963295
  0
LINE
  8
0
 10
-169.048904
 20
7.963294
 11
-168.324631
 21
6.708816
  0
LINE
  8
0
 10
-169.044617
 20
7.955902
 11
-169.044617
 21
-2.836708
  0
LINE
  8
0
 10
-188.366592
 20
-0.936707
 11
-185.039658
 21
-0.936707
  0
LINE
  8
0
 10
-188.724625
 20
-4.312520
 11
-188.046707
 21
-5.486707
  0
LINE
  8
0
 10
-188.046707
 20
-5.486710
 11
-185.386581
 21
-5.486710
  0
LINE
  8
0
 10
-185.386581
 20
-5.486712
 11
-184.722626
 21
-4.336710
  0
LINE
  8
0
 10
-189.331451
 20
-2.436714
 11
-188.731461
 21
-3.436705
  0
LINE
  8
0
 10
-189.318466
 20
-2.436707
 11
-188.724625
 21
-2.436707
  0
LINE
  8
0
 10
-189.324615
 20
-2.418793
 11
-189.324615
 21
2.563293
  0
LINE
  8
0
 10
-189.303925
 20
-2.436706
 11
-189.824631
 21
-2.136078
  0
LINE
  8
0
 10
-189.824615
 20
-2.136078
 11
-189.824615
 21
2.163094
  0
LINE
  8
0
 10
-191.324615
 20
-1.136703
 11
-189.824615
 21
-1.136703
  0
LINE
  8
0
 10
-192.524612
 20
-0.136703
 11
-191.324615
 21
-0.136703
  0
LINE
  8
0
 10
-194.124619
 20
-2.436707
 11
-192.524612
 21
-2.436707
  0
LINE
  8
0
 10
-184.724625
 20
-3.436707
 11
-177.724625
 21
-3.436707
  0
LINE
  8
0
 10
-184.724625
 20
-2.436707
 11
-177.724625
 21
-2.436707
  0
LINE
  8
0
 10
-177.724640
 20
-4.334174
 11
-177.059219
 21
-5.486711
  0
LINE
  8
0
 10
-177.059204
 20
-5.486710
 11
-174.389526
 21
-5.486710
  0
LINE
  8
0
 10
-174.389572
 20
-5.486706
 11
-173.724655
 21
-4.335049
  0
LINE
  8
0
 10
-174.082657
 20
-0.936707
 11
-177.409592
 21
-0.936707
  0
LINE
  8
0
 10
-173.724609
 20
-3.436717
 11
-173.124603
 21
-2.836719
  0
LINE
  8
0
 10
-173.146988
 20
-2.836697
 11
-169.048889
 21
-2.836697
  0
LINE
  8
0
 10
-169.048889
 20
-2.836721
 11
-168.324615
 21
-1.582222
  0
LINE
  8
0
 10
-168.324615
 20
-1.136703
 11
-166.824615
 21
-1.136703
  0
LINE
  8
0
 10
-166.824615
 20
-0.136703
 11
-165.624619
 21
-0.136703
  0
LINE
  8
0
 10
-165.624619
 20
-2.436707
 11
-164.024612
 21
-2.436707
  0
LINE
  8
0
 10
-164.024612
 20
7.563293
 11
-164.024612
 21
-2.436707
  0
LINE
  8
0
 10
-184.724625
 20
7.563293
 11
-177.724625
 21
7.563293
  0
LINE
  8
0
 10
-169.724609
 20
7.963295
 11
-169.044617
 21
7.963295
  0
LINE
  8
0
 10
-169.724609
 20
-2.836708
 11
-169.044617
 21
-2.836708
  0
LINE
  8
0
 10
-173.752457
 20
-2.436771
 11
-173.146988
 21
-2.436771
  0
LINE
  8
0
 10
-173.724625
 20
7.563209
 11
-173.146988
 21
7.563209
  0
LINE
  8
0
  6
CENTER
 10
-204.053802
 20
2.563296
 11
-153.852600
 21
2.563296
  0
ARC
  8
0
 10
-192.231262
 20
2.744286
 40
18.517948
 50
348.534393
 51
359.678589
  0
ARC
  8
0
 10
-159.662720
 20
2.597191
 40
18.058273
 50
179.999985
 51
191.285248
  0
ARC
  8
0
 10
-170.217987
 20
2.382301
 40
18.517931
 50
168.534393
 51
178.994431
  0
ARC
  8
0
 10
-202.786514
 20
2.529396
 40
18.058273
 50
0.000000
 51
11.285273
  0
ARC
  8
0
 10
-183.304520
 20
7.963951
 40
5.407122
 50
150.661224
 51
200.579620
  0
ARC
  8
0
 10
-190.774963
 20
7.935364
 40
6.033112
 50
0.000000
 51
26.351198
  0
ARC
  8
0
 10
-190.774963
 20
7.935364
 40
6.033107
 50
341.922729
 51
0.000000
  0
ARC
  8
0
 10
-159.662720
 20
2.529396
 40
18.058266
 50
168.714691
 51
179.999969
  0
ARC
  8
0
 10
-171.674286
 20
7.935364
 40
6.033096
 50
179.999969
 51
198.077255
  0
ARC
  8
0
 10
-179.144730
 20
7.963951
 40
5.407132
 50
339.420349
 51
29.338676
  0
ARC
  8
0
 10
-192.231262
 20
2.382301
 40
18.517946
 50
0.321348
 51
11.465561
  0
ARC
  8
0
 10
-171.674286
 20
7.935364
 40
6.033108
 50
153.648712
 51
179.999969
  0
ARC
  8
0
 10
-170.217987
 20
2.744286
 40
18.517927
 50
181.005524
 51
191.465546
  0
ARC
  8
0
 10
-190.774963
 20
-2.808777
 40
6.033112
 50
359.999939
 51
18.077190
  0
ARC
  8
0
 10
-183.304520
 20
-2.837364
 40
5.407119
 50
159.420258
 51
209.338638
  0
ARC
  8
0
 10
-190.774963
 20
-2.808777
 40
6.033109
 50
333.648682
 51
359.999939
  0
ARC
  8
0
 10
-202.786514
 20
2.597191
 40
18.058268
 50
348.714661
 51
359.999939
  0
ARC
  8
0
 10
-171.674286
 20
-2.808777
 40
6.033108
 50
161.922684
 51
179.999969
  0
ARC
  8
0
 10
-171.674286
 20
-2.808777
 40
6.033096
 50
179.999985
 51
206.351242
  0
ARC
  8
0
 10
-179.144730
 20
-2.837364
 40
5.407135
 50
330.661285
 51
20.579554
  0
POINT
  8
0
 10
-238.207703
 20
2.563293
  0
POINT
  8
0
 10
-231.184113
 20
2.556940
  0
LINE
  8
0
  6
CENTER
 10
-253.051819
 20
2.576721
 11
-223.880981
 21
2.550334
  0
LINE
  8
0
  6
CENTER
 10
-238.188904
 20
23.347944
 11
-238.230637
 21
-22.790119
  0
LINE
  8
0
 10
-245.227646
 20
6.594646
 11
-245.234924
 21
-1.455369
  0
LINE
  8
0
 10
-245.234924
 20
-1.455365
 11
-238.215012
 21
-5.516783
  0
LINE
  8
0
 10
-231.187759
 20
-1.468063
 11
-238.215012
 21
-5.516775
  0
LINE
  8
0
 10
-231.180481
 20
6.581940
 11
-231.187759
 21
-1.468075
  0
LINE
  8
0
 10
-245.227646
 20
6.594685
 11
-238.200394
 21
10.643396
  0
LINE
  8
0
 10
-231.180481
 20
6.581946
 11
-238.200409
 21
10.643373
  0
CIRCLE
  8
0
 10
-238.207687
 20
2.587875
 40
6.000000
  0
CIRCLE
  8
0
 10
-238.207687
 20
2.587875
 40
5.500000
  0
CIRCLE
  8
0
 10
-238.207703
 20
2.563293
 40
4.950000
  0
CIRCLE
  8
0
 10
-238.207703
 20
2.563293
 40
2.100000
  0
POINT
  8
0
 10
-122.026703
 20
2.563293
  0
POINT
  8
0
 10
-122.026703
 20
2.563293
  0
POINT
  8
0
 10
-115.033676
 20
2.524521
  0
LINE
  8
0
  6
CENTER
 10
-121.900375
 20
25.347603
 11
-122.165421
 21
-22.456409
  0
LINE
  8
0
 10
-129.061783
 20
6.718153
 11
-129.106995
 21
-1.435759
  0
LINE
  8
0
 10
-129.106995
 20
-1.435758
 11
-122.104019
 21
-5.530859
  0
LINE
  8
0
 10
-129.061783
 20
6.718136
 11
-122.013832
 21
10.735336
  0
LINE
  8
0
 10
-115.056068
 20
-1.513675
 11
-122.104012
 21
-5.530872
  0
LINE
  8
0
 10
-115.010864
 20
6.640237
 11
-122.013847
 21
10.735340
  0
LINE
  8
0
 10
-115.010857
 20
6.640234
 11
-115.056068
 21
-1.513663
  0
LINE
  8
0
  6
CENTER
 10
-142.902557
 20
2.679037
 11
-104.537758
 21
2.466328
  0
CIRCLE
  8
0
 10
-122.026703
 20
2.563293
 40
4.950000
  0
CIRCLE
  8
0
 10
-122.026703
 20
2.563293
 40
5.500000
  0
CIRCLE
  8
0
 10
-122.026703
 20
2.563293
 40
2.100000
  0
CIRCLE
  8
0
 10
-122.026703
 20
2.563293
 40
6.000000
  0
POINT
  8
0
 10
-6.341293
 20
2.563293
  0
POINT
  8
0
 10
28.658707
 20
2.563293
  0
LINE
  8
0
 10
28.658707
 20
8.463295
 11
28.658707
 21
-3.336708
  0
LINE
  8
0
 10
-6.341293
 20
8.463295
 11
-6.341293
 21
-3.336708
  0
LINE
  8
0
 10
28.658707
 20
8.463295
 11
28.658707
 21
-3.336708
  0
LINE
  8
0
 10
13.658707
 20
10.999176
 11
13.658707
 21
-5.872581
  0
LINE
  8
0
 10
-4.541294
 20
8.463295
 11
-4.541294
 21
-3.336708
  0
LINE
  8
0
 10
-3.341293
 20
7.313293
 11
-3.341293
 21
-2.186707
  0
LINE
  8
0
 10
-1.541293
 20
7.763290
 11
-1.541293
 21
-2.624298
  0
LINE
  8
0
 10
-6.341293
 20
8.463295
 11
-4.541294
 21
8.463295
  0
LINE
  8
0
 10
-4.541294
 20
6.613297
 11
-3.341293
 21
6.613297
  0
LINE
  8
0
 10
3.658707
 20
9.563293
 11
13.658707
 21
9.563293
  0
LINE
  8
0
 10
-3.341293
 20
7.313293
 11
-1.541293
 21
7.313293
  0
LINE
  8
0
 10
-0.841293
 20
9.063293
 11
-0.841293
 21
-3.936707
  0
LINE
  8
0
 10
-0.841296
 20
8.559172
 11
-1.519804
 21
7.763289
  0
LINE
  8
0
 10
-0.341293
 20
9.563293
 11
-0.841293
 21
9.063293
  0
LINE
  8
0
 10
-0.341293
 20
10.812550
 11
-0.341293
 21
-5.685966
  0
LINE
  8
0
 10
3.658707
 20
10.963295
 11
3.658707
 21
-5.872589
  0
LINE
  8
0
 10
0.067526
 20
12.338295
 11
3.299891
 21
12.338295
  0
LINE
  8
0
 10
0.193099
 20
6.563293
 11
3.124312
 21
6.563293
  0
LINE
  8
0
 10
-0.341290
 20
10.812562
 11
0.067528
 21
12.338292
  0
LINE
  8
0
 10
3.299888
 20
12.338298
 11
3.658705
 21
10.999177
  0
LINE
  8
0
 10
13.658703
 20
10.999161
 11
13.658703
 21
-5.872566
  0
LINE
  8
0
 10
26.858707
 20
8.463295
 11
26.858707
 21
-3.336708
  0
LINE
  8
0
 10
25.658707
 20
7.313293
 11
25.658707
 21
-2.186707
  0
LINE
  8
0
 10
23.858707
 20
7.763290
 11
23.858707
 21
-2.633347
  0
LINE
  8
0
 10
22.458710
 20
8.813293
 11
22.458710
 21
-3.686707
  0
LINE
  8
0
 10
20.158707
 20
9.063293
 11
20.158707
 21
-3.936699
  0
LINE
  8
0
 10
19.658701
 20
9.563292
 11
20.158701
 21
9.063292
  0
LINE
  8
0
 10
20.158707
 20
8.813293
 11
22.458710
 21
8.813293
  0
LINE
  8
0
 10
22.458710
 20
8.568220
 11
23.858707
 21
7.759932
  0
LINE
  8
0
 10
25.658710
 20
7.313293
 11
23.858711
 21
7.313293
  0
LINE
  8
0
 10
26.858711
 20
6.613297
 11
25.658710
 21
6.613297
  0
LINE
  8
0
 10
28.658710
 20
8.463295
 11
26.858711
 21
8.463295
  0
LINE
  8
0
 10
13.658707
 20
10.963295
 11
13.658707
 21
-5.872589
  0
LINE
  8
0
 10
17.124313
 20
6.563293
 11
14.193102
 21
6.563293
  0
LINE
  8
0
 10
14.017517
 20
12.338290
 11
13.658703
 21
10.999177
  0
LINE
  8
0
 10
17.249889
 20
12.338295
 11
14.017525
 21
12.338295
  0
LINE
  8
0
 10
17.658712
 20
10.812565
 11
17.249895
 21
12.338295
  0
LINE
  8
0
 10
17.658707
 20
10.812573
 11
17.658707
 21
-5.685966
  0
LINE
  8
0
 10
17.658707
 20
9.563293
 11
19.658707
 21
9.563293
  0
LINE
  8
0
 10
19.658707
 20
9.466866
 11
19.658707
 21
-4.436707
  0
LINE
  8
0
 10
3.658707
 20
10.963295
 11
3.658707
 21
-5.872589
  0
LINE
  8
0
 10
0.193099
 20
-1.436707
 11
3.124312
 21
-1.436707
  0
LINE
  8
0
 10
-0.341290
 20
-5.685970
 11
0.067528
 21
-7.211700
  0
LINE
  8
0
 10
0.067526
 20
-7.211708
 11
3.299891
 21
-7.211708
  0
LINE
  8
0
 10
3.299892
 20
-7.211706
 11
3.658708
 21
-5.872593
  0
LINE
  8
0
 10
14.017530
 20
-7.211701
 11
13.658716
 21
-5.872588
  0
LINE
  8
0
 10
17.249889
 20
-7.211708
 11
14.017525
 21
-7.211708
  0
LINE
  8
0
 10
17.658707
 20
-5.685976
 11
17.249887
 21
-7.211706
  0
LINE
  8
0
 10
17.658707
 20
-4.436707
 11
19.658707
 21
-4.436707
  0
LINE
  8
0
 10
3.658707
 20
-4.436707
 11
13.658707
 21
-4.436707
  0
LINE
  8
0
 10
19.658703
 20
-4.436699
 11
20.158703
 21
-3.936698
  0
LINE
  8
0
 10
20.158707
 20
-3.686707
 11
22.458710
 21
-3.686707
  0
LINE
  8
0
 10
22.458710
 20
-3.441634
 11
23.858707
 21
-2.633346
  0
LINE
  8
0
 10
25.658710
 20
-2.186707
 11
23.858711
 21
-2.186707
  0
LINE
  8
0
 10
26.858711
 20
-1.486710
 11
25.658710
 21
-1.486710
  0
LINE
  8
0
 10
28.658710
 20
-3.336708
 11
26.858711
 21
-3.336708
  0
LINE
  8
0
 10
-0.841292
 20
-3.432586
 11
-1.519799
 21
-2.636703
  0
LINE
  8
0
 10
-0.341304
 20
-4.436711
 11
-0.841305
 21
-3.936711
  0
LINE
  8
0
 10
-3.341293
 20
-2.186707
 11
-1.541293
 21
-2.186707
  0
LINE
  8
0
 10
-4.541294
 20
-1.486710
 11
-3.341293
 21
-1.486710
  0
LINE
  8
0
 10
-6.341293
 20
-3.336708
 11
-4.541294
 21
-3.336708
  0
LINE
  8
0
 10
-0.841293
 20
-3.836708
 11
-0.341293
 21
-3.836708
  0
LINE
  8
0
 10
-0.841293
 20
8.963295
 11
-0.341293
 21
8.963295
  0
LINE
  8
0
 10
17.667355
 20
-3.836708
 11
20.100491
 21
-3.836708
  0
LINE
  8
0
 10
17.658707
 20
8.963295
 11
20.199802
 21
8.963295
  0
LINE
  8
0
 10
17.124313
 20
-1.436707
 11
14.193102
 21
-1.436707
  0
LINE
  8
0
  6
CENTER
 10
-7.427661
 20
2.563293
 11
32.661747
 21
2.563293
  0
LINE
  8
0
 10
3.658707
 20
-3.836708
 11
13.658707
 21
-3.836708
  0
LINE
  8
0
 10
3.658707
 20
8.963295
 11
13.658707
 21
8.963295
  0
ARC
  8
0
 10
31.034523
 20
2.856308
 40
17.379972
 50
180.965927
 51
194.300537
  0
ARC
  8
0
 10
0.282893
 20
2.856308
 40
17.379972
 50
345.699371
 51
359.033997
  0
ARC
  8
0
 10
-13.717110
 20
2.270279
 40
17.379972
 50
0.965952
 51
14.300608
  0
ARC
  8
0
 10
31.034523
 20
2.270279
 40
17.379971
 50
165.699402
 51
179.034012
  0
ARC
  8
0
 10
0.282893
 20
2.270279
 40
17.379972
 50
0.965952
 51
14.300610
  0
ARC
  8
0
 10
-13.717110
 20
2.856308
 40
17.379972
 50
345.699402
 51
359.033997
  0
ARC
  8
0
 10
-4.071151
 20
-4.325997
 40
7.753882
 50
4.511505
 51
21.877602
  0
ARC
  8
0
 10
7.388560
 20
-4.326002
 40
7.753882
 50
158.122360
 51
175.488159
  0
ARC
  8
0
 10
9.928854
 20
-4.326004
 40
7.753882
 50
4.511954
 51
21.877602
  0
ARC
  8
0
 10
21.388563
 20
-4.326004
 40
7.753883
 50
158.122314
 51
175.488419
  0
ARC
  8
0
 10
14.896175
 20
2.563293
 40
15.237469
 50
164.780930
 51
195.219040
  0
ARC
  8
0
 10
7.726970
 20
9.450794
 40
8.068263
 50
179.999985
 51
200.970276
  0
ARC
  8
0
 10
-4.409558
 20
9.450794
 40
8.068263
 50
339.029724
 51
0.000000
  0
ARC
  8
0
 10
21.726929
 20
9.450794
 40
8.068222
 50
179.999985
 51
200.970383
  0
ARC
  8
0
 10
9.590458
 20
9.450794
 40
8.068251
 50
339.029694
 51
0.000000
  0
ARC
  8
0
 10
7.726970
 20
9.450794
 40
8.068263
 50
179.999985
 51
200.970276
  0
POINT
  8
0
 10
-50.424377
 20
2.563293
  0
POINT
  8
0
 10
-41.924377
 20
2.563293
  0
LINE
  8
0
  6
CENTER
 10
-63.787212
 20
2.563293
 11
-38.979797
 21
2.563293
  0
LINE
  8
0
  6
CENTER
 10
-50.424377
 20
21.118111
 11
-50.424377
 21
-16.917736
  0
LINE
  8
0
 10
-50.424377
 20
-7.251661
 11
-41.924377
 21
-2.344184
  0
LINE
  8
0
 10
-58.924377
 20
7.470771
 11
-50.424377
 21
12.378248
  0
LINE
  8
0
 10
-41.924377
 20
7.470771
 11
-50.424377
 21
12.378248
  0
LINE
  8
0
 10
-50.424377
 20
-7.251661
 11
-58.924377
 21
-2.344184
  0
LINE
  8
0
 10
-41.924377
 20
7.470771
 11
-41.924377
 21
-2.344184
  0
LINE
  8
0
 10
-58.924377
 20
7.470771
 11
-58.924377
 21
-2.344184
  0
CIRCLE
  8
0
 10
-50.424377
 20
2.563293
 40
3.100000
  0
CIRCLE
  8
0
 10
-50.424377
 20
2.563293
 40
5.900000
  0
CIRCLE
  8
0
 10
-50.424377
 20
2.563293
 40
6.400000
  0
CIRCLE
  8
0
 10
-50.424377
 20
2.563293
 40
7.000000
  0
POINT
  8
0
 10
65.756622
 20
2.563293
  0
POINT
  8
0
 10
74.256622
 20
2.563293
  0
LINE
  8
0
  6
CENTER
 10
65.756622
 20
23.024918
 11
65.756622
 21
-15.211643
  0
LINE
  8
0
  6
CENTER
 10
49.658806
 20
2.563293
 11
82.623878
 21
2.563294
  0
LINE
  8
0
 10
74.256622
 20
-2.344183
 11
65.756622
 21
-7.251661
  0
LINE
  8
0
 10
65.756622
 20
12.378248
 11
57.256622
 21
7.470770
  0
LINE
  8
0
 10
65.756622
 20
12.378247
 11
74.256622
 21
7.470772
  0
LINE
  8
0
 10
57.256622
 20
-2.344185
 11
65.756622
 21
-7.251660
  0
LINE
  8
0
 10
74.256622
 20
7.470772
 11
74.256622
 21
-2.344183
  0
LINE
  8
0
 10
57.256622
 20
7.470770
 11
57.256622
 21
-2.344185
  0
CIRCLE
  8
0
 10
65.756622
 20
2.563293
 40
5.900000
  0
CIRCLE
  8
0
 10
65.756622
 20
2.563293
 40
6.400000
  0
CIRCLE
  8
0
 10
65.756622
 20
2.563293
 40
7.000000
  0
CIRCLE
  8
0
 10
65.756622
 20
2.563293
 40
3.100000
  0
POINT
  8
0
 10
181.442032
 20
2.563293
  0
POINT
  8
0
 10
218.842041
 20
2.563293
  0
LINE
  8
0
 10
188.422440
 20
-8.386703
 11
191.061630
 21
-8.386703
  0
LINE
  8
0
 10
181.442032
 20
9.468491
 11
181.442032
 21
-4.336708
  0
LINE
  8
0
 10
218.842041
 20
9.463295
 11
218.842041
 21
-4.336708
  0
LINE
  8
0
 10
191.742035
 20
10.563293
 11
200.742035
 21
10.563293
  0
LINE
  8
0
 10
183.442032
 20
9.463295
 11
183.442032
 21
-4.336708
  0
LINE
  8
0
 10
216.842041
 20
9.463295
 11
216.842041
 21
-4.336708
  0
LINE
  8
0
 10
213.742035
 20
8.913292
 11
213.742035
 21
-3.776245
  0
LINE
  8
0
 10
186.542023
 20
8.713295
 11
186.542023
 21
-3.574272
  0
LINE
  8
0
 10
184.442032
 20
8.263290
 11
184.442032
 21
-3.136703
  0
LINE
  8
0
 10
215.842041
 20
8.263290
 11
215.842041
 21
-3.136703
  0
LINE
  8
0
 10
181.442032
 20
9.463295
 11
183.442032
 21
9.463295
  0
LINE
  8
0
 10
183.442032
 20
7.463295
 11
184.442032
 21
7.463295
  0
LINE
  8
0
 10
215.842041
 20
7.463295
 11
216.842041
 21
7.463295
  0
LINE
  8
0
 10
216.842041
 20
9.463295
 11
218.842041
 21
9.463295
  0
LINE
  8
0
 10
184.442032
 20
8.263290
 11
186.542023
 21
8.263290
  0
LINE
  8
0
 10
213.742035
 20
8.263290
 11
215.842041
 21
8.263290
  0
LINE
  8
0
 10
187.242035
 20
10.063293
 11
187.242035
 21
-4.936707
  0
LINE
  8
0
 10
212.342041
 20
9.863297
 11
212.342041
 21
-4.736710
  0
LINE
  8
0
 10
207.042038
 20
10.063301
 11
207.042038
 21
-4.736710
  0
LINE
  8
0
 10
187.742035
 20
10.563292
 11
187.242035
 21
10.063291
  0
LINE
  8
0
 10
187.242035
 20
9.509146
 11
186.542038
 21
8.700857
  0
LINE
  8
0
 10
187.742035
 20
11.808549
 11
187.742035
 21
-6.013550
  0
LINE
  8
0
 10
191.742035
 20
11.894905
 11
191.742035
 21
-7.208203
  0
LINE
  8
0
 10
188.422440
 20
8.063293
 11
191.061630
 21
8.063293
  0
LINE
  8
0
 10
191.742035
 20
11.808549
 11
191.742035
 21
-6.681962
  0
LINE
  8
0
 10
191.742035
 20
11.808549
 11
191.742035
 21
-6.013550
  0
LINE
  8
0
 10
207.042038
 20
9.863297
 11
212.342041
 21
9.863297
  0
LINE
  8
0
 10
212.342041
 20
9.711116
 11
213.742020
 21
8.902832
  0
LINE
  8
0
 10
207.042038
 20
9.863297
 11
207.042038
 21
-4.936666
  0
LINE
  8
0
 10
206.542007
 20
10.563261
 11
207.042007
 21
10.063269
  0
LINE
  8
0
 10
200.742035
 20
11.894905
 11
200.742035
 21
-5.436707
  0
LINE
  8
0
 10
204.021591
 20
8.063293
 11
201.456665
 21
8.063293
  0
LINE
  8
0
 10
204.742035
 20
10.563293
 11
206.542038
 21
10.563293
  0
LINE
  8
0
 10
204.706406
 20
9.963295
 11
207.029755
 21
9.963295
  0
LINE
  8
0
 10
187.242035
 20
9.963295
 11
187.742035
 21
9.963295
  0
LINE
  8
0
 10
181.442032
 20
-4.336708
 11
183.442032
 21
-4.336708
  0
LINE
  8
0
 10
183.442032
 20
-2.336708
 11
184.442032
 21
-2.336708
  0
LINE
  8
0
 10
184.442032
 20
-3.136703
 11
186.542023
 21
-3.136703
  0
LINE
  8
0
 10
187.242035
 20
-4.382550
 11
186.542053
 21
-3.574263
  0
LINE
  8
0
 10
187.742020
 20
-5.436704
 11
187.242020
 21
-4.936703
  0
LINE
  8
0
 10
187.742035
 20
-7.208201
 11
187.742035
 21
12.334788
  0
LINE
  8
0
 10
191.742035
 20
-6.681962
 11
191.742035
 21
12.334791
  0
LINE
  8
0
 10
191.742035
 20
-5.436707
 11
200.742035
 21
-5.436707
  0
LINE
  8
0
 10
187.242035
 20
-4.836708
 11
187.742035
 21
-4.836708
  0
LINE
  8
0
 10
200.742035
 20
-7.208201
 11
200.742035
 21
12.334788
  0
LINE
  8
0
 10
204.742035
 20
-7.208214
 11
204.742035
 21
12.334796
  0
LINE
  8
0
 10
204.021591
 20
-2.936707
 11
201.456665
 21
-2.936707
  0
LINE
  8
0
 10
188.422440
 20
-2.936707
 11
191.061630
 21
-2.936707
  0
LINE
  8
0
 10
204.742035
 20
-5.436707
 11
206.542038
 21
-5.436707
  0
LINE
  8
0
 10
206.542007
 20
-5.436676
 11
207.042023
 21
-4.936659
  0
LINE
  8
0
 10
204.706406
 20
-4.836708
 11
207.029755
 21
-4.836708
  0
LINE
  8
0
 10
207.042038
 20
-4.736710
 11
212.342041
 21
-4.736710
  0
LINE
  8
0
 10
212.342041
 20
-4.584538
 11
213.742035
 21
-3.776256
  0
LINE
  8
0
 10
213.742035
 20
-3.136703
 11
215.842041
 21
-3.136703
  0
LINE
  8
0
 10
215.842041
 20
-2.336708
 11
216.842041
 21
-2.336708
  0
LINE
  8
0
 10
216.842041
 20
-4.336708
 11
218.842041
 21
-4.336708
  0
LINE
  8
0
 10
206.442032
 20
10.563293
 11
206.442032
 21
-5.436707
  0
LINE
  8
0
 10
191.742035
 20
-4.836708
 11
200.742035
 21
-4.836708
  0
LINE
  8
0
 10
191.742035
 20
9.963295
 11
200.742035
 21
9.963295
  0
LINE
  8
0
  6
CENTER
 10
179.452087
 20
2.563293
 11
224.302567
 21
2.563293
  0
LINE
  8
0
 10
188.422440
 20
-8.386703
 11
187.742035
 21
-7.208200
  0
LINE
  8
0
 10
191.061630
 20
-8.386705
 11
191.742035
 21
-7.208204
  0
LINE
  8
0
 10
204.061630
 20
13.513295
 11
204.742035
 21
12.334800
  0
LINE
  8
0
 10
201.422440
 20
13.513290
 11
204.061615
 21
13.513290
  0
LINE
  8
0
 10
201.422440
 20
13.513292
 11
200.742035
 21
12.334789
  0
LINE
  8
0
 10
191.061630
 20
13.513293
 11
191.742035
 21
12.334794
  0
LINE
  8
0
 10
188.422440
 20
13.513290
 11
191.061630
 21
13.513290
  0
LINE
  8
0
 10
188.422440
 20
13.513290
 11
187.742035
 21
12.334787
  0
LINE
  8
0
 10
201.422440
 20
-8.386703
 11
204.061615
 21
-8.386703
  0
LINE
  8
0
 10
201.422440
 20
-8.386703
 11
200.742035
 21
-7.208200
  0
LINE
  8
0
 10
204.061630
 20
-8.386705
 11
204.742035
 21
-7.208214
  0
ARC
  8
0
 10
220.598694
 20
2.866531
 40
19.834906
 50
164.811203
 51
180.875931
  0
ARC
  8
0
 10
184.885376
 20
2.866531
 40
19.834898
 50
359.124023
 51
15.188758
  0
ARC
  8
0
 10
184.885376
 20
2.260056
 40
19.834908
 50
344.811188
 51
0.875917
  0
ARC
  8
0
 10
220.598694
 20
2.260056
 40
19.834913
 50
179.123993
 51
195.188705
  0
ARC
  8
0
 10
210.311554
 20
2.563293
 40
22.569521
 50
165.895508
 51
194.104477
  0
ARC
  8
0
 10
169.172531
 20
2.563293
 40
22.569508
 50
345.895477
 51
14.104527
  0
ARC
  8
0
 10
193.538971
 20
-5.661705
 40
5.796938
 50
151.960831
 51
208.039154
  0
ARC
  8
0
 10
185.945084
 20
-5.661705
 40
5.796953
 50
331.960876
 51
28.039072
  0
ARC
  8
0
 10
206.538971
 20
10.788292
 40
5.796941
 50
151.960785
 51
208.039108
  0
ARC
  8
0
 10
198.945084
 20
10.788292
 40
5.796953
 50
331.960876
 51
28.039066
  0
ARC
  8
0
 10
193.538971
 20
10.788292
 40
5.796941
 50
151.960785
 51
208.039108
  0
ARC
  8
0
 10
185.945084
 20
10.788292
 40
5.796953
 50
331.960876
 51
28.039066
  0
ARC
  8
0
 10
206.538971
 20
-5.661705
 40
5.796938
 50
151.960831
 51
208.039154
  0
ARC
  8
0
 10
198.945084
 20
-5.661705
 40
5.796953
 50
331.960876
 51
28.039072
  0
POINT
  8
0
 10
137.358948
 20
2.563293
  0
POINT
  8
0
 10
146.858948
 20
2.563293
  0
LINE
  8
0
  6
CENTER
 10
116.746857
 20
2.563293
 11
151.088272
 21
2.563293
  0
LINE
  8
0
  6
CENTER
 10
137.358948
 20
22.777885
 11
137.358948
 21
-18.555447
  0
LINE
  8
0
 10
127.858948
 20
-2.921535
 11
137.358948
 21
-8.406361
  0
LINE
  8
0
 10
137.358948
 20
13.532948
 11
146.858948
 21
8.048122
  0
LINE
  8
0
 10
127.858948
 20
8.048122
 11
127.858948
 21
-2.921536
  0
LINE
  8
0
 10
146.858948
 20
8.048122
 11
146.858948
 21
-2.921536
  0
LINE
  8
0
 10
137.358948
 20
13.532946
 11
127.858948
 21
8.048121
  0
LINE
  8
0
 10
146.858948
 20
-2.921535
 11
137.358948
 21
-8.406359
  0
CIRCLE
  8
0
 10
137.358948
 20
2.563293
 40
7.400000
  0
CIRCLE
  8
0
 10
137.358948
 20
2.563293
 40
4.100000
  0
CIRCLE
  8
0
 10
137.358948
 20
2.563293
 40
8.000000
  0
CIRCLE
  8
0
 10
137.358948
 20
2.563293
 40
6.900000
  0
POINT
  8
0
 10
253.539948
 20
2.563293
  0
POINT
  8
0
 10
263.039948
 20
2.563513
  0
LINE
  8
0
  6
CENTER
 10
253.539459
 20
23.777885
 11
253.540436
 21
-18.555447
  0
LINE
  8
0
  6
CENTER
 10
235.023117
 20
2.562865
 11
269.079285
 21
2.563653
  0
LINE
  8
0
 10
244.039825
 20
8.047903
 11
244.040070
 21
-2.921755
  0
LINE
  8
0
 10
263.039825
 20
8.048342
 11
263.040070
 21
-2.921317
  0
LINE
  8
0
 10
253.539688
 20
13.532948
 11
263.039825
 21
8.048342
  0
LINE
  8
0
 10
244.040070
 20
-2.921755
 11
253.540207
 21
-8.406361
  0
LINE
  8
0
 10
263.040070
 20
-2.921315
 11
253.540207
 21
-8.406359
  0
LINE
  8
0
 10
253.539688
 20
13.532946
 11
244.039825
 21
8.047902
  0
CIRCLE
  8
0
 10
253.539948
 20
2.563293
 40
8.000000
  0
CIRCLE
  8
0
 10
253.539948
 20
2.563293
 40
7.400000
  0
CIRCLE
  8
0
 10
253.539948
 20
2.563293
 40
4.100000
  0
CIRCLE
  8
0
 10
253.539948
 20
2.563293
 40
6.900000
  0
POINT
  8
0
 10
-163.575668
 20
-125.875366
  0
POINT
  8
0
 10
-120.775665
 20
-125.875366
  0
LINE
  8
0
 10
-158.775665
 20
-118.046906
 11
-158.775665
 21
-133.655823
  0
LINE
  8
0
 10
-125.575661
 20
-118.046906
 11
-125.575661
 21
-133.710785
  0
LINE
  8
0
 10
-163.575668
 20
-117.475365
 11
-163.575668
 21
-134.275360
  0
LINE
  8
0
 10
-120.775665
 20
-117.475365
 11
-120.775665
 21
-134.275360
  0
LINE
  8
0
 10
-160.075653
 20
-118.875366
 11
-160.075653
 21
-132.875366
  0
LINE
  8
0
 10
-124.275665
 20
-118.875366
 11
-124.275665
 21
-132.875366
  0
LINE
  8
0
 10
-161.375671
 20
-117.475365
 11
-161.375671
 21
-134.275360
  0
LINE
  8
0
 10
-122.975662
 20
-117.475365
 11
-122.975662
 21
-134.275360
  0
LINE
  8
0
 10
-161.375671
 20
-119.875366
 11
-160.075653
 21
-119.875366
  0
LINE
  8
0
 10
-160.075653
 20
-118.875366
 11
-158.775665
 21
-118.875366
  0
LINE
  8
0
 10
-163.575668
 20
-117.475365
 11
-161.375671
 21
-117.475365
  0
LINE
  8
0
 10
-124.205582
 20
-119.875366
 11
-122.975662
 21
-119.875366
  0
LINE
  8
0
 10
-125.575661
 20
-118.875366
 11
-124.263901
 21
-118.875366
  0
LINE
  8
0
 10
-122.975662
 20
-117.475365
 11
-120.775665
 21
-117.475365
  0
LINE
  8
0
 10
-151.875671
 20
-115.875366
 11
-141.875671
 21
-115.875366
  0
LINE
  8
0
 10
-157.375671
 20
-116.375366
 11
-157.375671
 21
-135.375366
  0
LINE
  8
0
 10
-126.975662
 20
-116.625366
 11
-126.975662
 21
-135.125366
  0
LINE
  8
0
 10
-133.375671
 20
-116.375366
 11
-133.375671
 21
-135.375366
  0
LINE
  8
0
 10
-156.875671
 20
-115.875374
 11
-157.375671
 21
-116.375374
  0
LINE
  8
0
 10
-133.875671
 20
-115.875366
 11
-133.375671
 21
-116.375366
  0
LINE
  8
0
 10
-133.375671
 20
-116.625366
 11
-126.975662
 21
-116.625366
  0
LINE
  8
0
 10
-157.375656
 20
-117.286613
 11
-158.741821
 21
-118.075363
  0
LINE
  8
0
 10
-126.975662
 20
-117.231659
 11
-125.575653
 21
-118.039955
  0
LINE
  8
0
 10
-156.875671
 20
-113.852272
 11
-156.875671
 21
-137.898453
  0
LINE
  8
0
 10
-133.875671
 20
-115.875366
 11
-133.875671
 21
-135.875366
  0
LINE
  8
0
 10
-151.875671
 20
-113.860931
 11
-151.875671
 21
-137.889801
  0
LINE
  8
0
 10
-155.822632
 20
-119.375366
 11
-152.928711
 21
-119.375366
  0
LINE
  8
0
 10
-141.875671
 20
-113.852272
 11
-141.875671
 21
-137.700775
  0
LINE
  8
0
 10
-136.875671
 20
-113.860931
 11
-136.875671
 21
-137.889801
  0
LINE
  8
0
 10
-137.928711
 20
-119.375366
 11
-140.752014
 21
-119.375366
  0
LINE
  8
0
 10
-136.875671
 20
-115.875366
 11
-133.875671
 21
-115.875366
  0
LINE
  8
0
 10
-163.575668
 20
-134.275360
 11
-161.375671
 21
-134.275360
  0
LINE
  8
0
 10
-161.375671
 20
-131.875366
 11
-160.075653
 21
-131.875366
  0
LINE
  8
0
 10
-160.075653
 20
-132.875366
 11
-158.775665
 21
-132.875366
  0
LINE
  8
0
 10
-157.375671
 20
-134.464111
 11
-158.741821
 21
-133.675354
  0
LINE
  8
0
 10
-156.875656
 20
-135.875366
 11
-157.375656
 21
-135.375366
  0
LINE
  8
0
 10
-155.822632
 20
-132.375366
 11
-152.999329
 21
-132.375366
  0
LINE
  8
0
 10
-151.875671
 20
-135.875366
 11
-141.875671
 21
-135.875366
  0
LINE
  8
0
 10
-137.928711
 20
-132.375366
 11
-140.822632
 21
-132.375366
  0
LINE
  8
0
 10
-141.875671
 20
-137.898468
 11
-141.875671
 21
-115.875366
  0
LINE
  8
0
 10
-136.875671
 20
-135.875366
 11
-133.875671
 21
-135.875366
  0
LINE
  8
0
 10
-133.875671
 20
-135.875366
 11
-133.375671
 21
-135.375366
  0
LINE
  8
0
 10
-133.375671
 20
-135.125366
 11
-126.975662
 21
-135.125366
  0
LINE
  8
0
 10
-126.975647
 20
-134.519073
 11
-125.575645
 21
-133.710770
  0
LINE
  8
0
 10
-125.575661
 20
-132.875366
 11
-124.263901
 21
-132.875366
  0
LINE
  8
0
 10
-124.205582
 20
-131.875366
 11
-122.975662
 21
-131.875366
  0
LINE
  8
0
 10
-122.975662
 20
-134.275360
 11
-120.775665
 21
-134.275360
  0
LINE
  8
0
 10
-157.375671
 20
-116.475365
 11
-156.875671
 21
-116.475365
  0
LINE
  8
0
 10
-157.321884
 20
-135.275360
 11
-156.875671
 21
-135.275360
  0
LINE
  8
0
 10
-136.875671
 20
-116.475365
 11
-133.375671
 21
-116.475365
  0
LINE
  8
0
 10
-136.875671
 20
-135.275360
 11
-133.375671
 21
-135.275360
  0
LINE
  8
0
 10
-151.947006
 20
-135.275360
 11
-141.875671
 21
-135.275360
  0
LINE
  8
0
 10
-151.875671
 20
-116.475365
 11
-141.875671
 21
-116.475365
  0
LINE
  8
0
  6
CENTER
 10
-172.633484
 20
-125.875366
 11
-114.707558
 21
-125.875366
  0
LINE
  8
0
 10
-155.822632
 20
-112.037003
 11
-152.928711
 21
-112.037003
  0
LINE
  8
0
 10
-155.827621
 20
-112.037003
 11
-156.875671
 21
-113.852272
  0
LINE
  8
0
 10
-152.928711
 20
-112.037010
 11
-151.875671
 21
-113.860931
  0
LINE
  8
0
 10
-140.822632
 20
-139.713730
 11
-137.928711
 21
-139.713730
  0
LINE
  8
0
 10
-140.827606
 20
-139.713730
 11
-141.875656
 21
-137.898453
  0
LINE
  8
0
 10
-137.928711
 20
-139.713715
 11
-136.875671
 21
-137.889801
  0
LINE
  8
0
 10
-155.822632
 20
-139.713730
 11
-152.928711
 21
-139.713730
  0
LINE
  8
0
 10
-155.827621
 20
-139.713730
 11
-156.875671
 21
-137.898468
  0
LINE
  8
0
 10
-152.928711
 20
-139.713715
 11
-151.875671
 21
-137.889801
  0
LINE
  8
0
 10
-140.827621
 20
-112.037003
 11
-141.875656
 21
-113.852272
  0
LINE
  8
0
 10
-140.822632
 20
-112.037003
 11
-137.928711
 21
-112.037003
  0
LINE
  8
0
 10
-137.928726
 20
-112.037018
 11
-136.875687
 21
-113.860939
  0
ARC
  8
0
 10
-121.288208
 20
-125.875366
 40
20.587463
 50
161.595367
 51
198.404617
  0
ARC
  8
0
 10
-157.463120
 20
-125.875366
 40
20.587450
 50
341.595337
 51
18.404667
  0
ARC
  8
0
 10
-134.956772
 20
-115.706184
 40
6.918900
 50
150.000000
 51
212.026581
  0
ARC
  8
0
 10
-143.794571
 20
-115.706184
 40
6.918902
 50
327.973419
 51
27.972786
  0
ARC
  8
0
 10
-149.956772
 20
-115.706184
 40
6.918900
 50
150.000000
 51
212.026581
  0
ARC
  8
0
 10
-158.794571
 20
-115.706184
 40
6.918902
 50
327.973419
 51
27.973236
  0
ARC
  8
0
 10
-134.956772
 20
-136.044540
 40
6.918898
 50
147.973465
 51
209.999939
  0
ARC
  8
0
 10
-143.794571
 20
-136.044540
 40
6.918915
 50
332.026642
 51
32.026531
  0
ARC
  8
0
 10
-149.956772
 20
-136.044540
 40
6.918898
 50
147.973465
 51
209.999939
  0
ARC
  8
0
 10
-158.794571
 20
-136.044540
 40
6.918902
 50
332.026581
 51
32.026531
  0
ARC
  8
0
 10
-136.288208
 20
-125.875366
 40
20.587463
 50
161.595367
 51
198.404617
  0
ARC
  8
0
 10
-172.463135
 20
-125.875366
 40
20.587465
 50
341.595337
 51
18.404654
  0
POINT
  8
0
 10
-210.151321
 20
-125.875366
  0
POINT
  8
0
 10
-198.151489
 20
-125.938545
  0
LINE
  8
0
  6
CENTER
 10
-229.751404
 20
-125.772171
 11
-192.729614
 21
-125.967087
  0
LINE
  8
0
  6
CENTER
 10
-210.043396
 20
-105.374748
 11
-210.259918
 21
-146.501770
  0
LINE
  8
0
 10
-198.187958
 20
-132.866653
 11
-210.224274
 21
-139.731583
  0
LINE
  8
0
 10
-210.078369
 20
-112.019157
 11
-222.114685
 21
-118.884079
  0
LINE
  8
0
 10
-210.078369
 20
-112.019157
 11
-198.115005
 21
-119.010437
  0
LINE
  8
0
 10
-222.187637
 20
-132.740295
 11
-210.224274
 21
-139.731583
  0
LINE
  8
0
 10
-222.114685
 20
-118.884079
 11
-222.187637
 21
-132.740295
  0
LINE
  8
0
 10
-198.115005
 20
-119.010437
 11
-198.187958
 21
-132.866653
  0
CIRCLE
  8
0
 10
-210.151321
 20
-125.875366
 40
10.000000
  0
CIRCLE
  8
0
 10
-210.151321
 20
-125.875366
 40
9.400000
  0
CIRCLE
  8
0
 10
-210.151321
 20
-125.875366
 40
8.400000
  0
CIRCLE
  8
0
 10
-210.151321
 20
-125.875366
 40
5.100000
  0
POINT
  8
0
 10
-74.813057
 20
-125.875366
  0
POINT
  8
0
 10
-62.813057
 20
-125.875366
  0
LINE
  8
0
  6
CENTER
 10
-96.311569
 20
-125.875366
 11
-54.560833
 21
-125.875366
  0
LINE
  8
0
  6
CENTER
 10
-74.813057
 20
-104.065277
 11
-74.813057
 21
-146.439163
  0
LINE
  8
0
 10
-74.813057
 20
-112.018959
 11
-86.813057
 21
-118.947159
  0
LINE
  8
0
 10
-62.813057
 20
-132.803574
 11
-74.763069
 21
-139.702911
  0
LINE
  8
0
 10
-86.813057
 20
-132.803574
 11
-74.863045
 21
-139.702911
  0
LINE
  8
0
 10
-74.813057
 20
-112.018967
 11
-62.813057
 21
-118.947159
  0
LINE
  8
0
 10
-62.813057
 20
-118.947159
 11
-62.813057
 21
-132.803574
  0
LINE
  8
0
 10
-86.813057
 20
-118.947159
 11
-86.813057
 21
-132.803574
  0
CIRCLE
  8
0
 10
-74.813057
 20
-125.875366
 40
5.100000
  0
CIRCLE
  8
0
 10
-74.813057
 20
-125.875366
 40
10.000000
  0
CIRCLE
  8
0
 10
-74.813057
 20
-125.875366
 40
9.400000
  0
CIRCLE
  8
0
 10
-74.813057
 20
-125.875366
 40
8.400000
  0
POINT
  8
0
 10
118.099319
 20
-125.875366
  0
POINT
  8
0
 10
165.099304
 20
-125.875366
  0
LINE
  8
0
 10
123.199318
 20
-116.699944
 11
123.199318
 21
-135.050797
  0
LINE
  8
0
 10
159.999313
 20
-116.575363
 11
159.999313
 21
-135.199219
  0
LINE
  8
0
 10
118.099319
 20
-115.975372
 11
118.099319
 21
-135.775360
  0
LINE
  8
0
 10
165.099304
 20
-115.975372
 11
165.099304
 21
-135.775360
  0
LINE
  8
0
 10
120.299316
 20
-115.975372
 11
120.299316
 21
-135.684540
  0
LINE
  8
0
 10
162.899323
 20
-115.975372
 11
162.899323
 21
-135.775360
  0
LINE
  8
0
 10
122.099319
 20
-117.175369
 11
122.099319
 21
-134.575363
  0
LINE
  8
0
 10
161.099304
 20
-117.175369
 11
161.099304
 21
-134.575363
  0
LINE
  8
0
 10
118.099319
 20
-115.975372
 11
120.299316
 21
-115.975372
  0
LINE
  8
0
 10
120.299316
 20
-118.875366
 11
122.099319
 21
-118.875366
  0
LINE
  8
0
 10
122.099319
 20
-117.175369
 11
123.199318
 21
-117.175369
  0
LINE
  8
0
 10
161.099304
 20
-118.875366
 11
162.899323
 21
-118.875366
  0
LINE
  8
0
 10
159.999313
 20
-117.175369
 11
161.099304
 21
-117.175369
  0
LINE
  8
0
 10
162.899323
 20
-115.975372
 11
165.099304
 21
-115.975372
  0
LINE
  8
0
 10
131.099319
 20
-114.875366
 11
143.099319
 21
-114.875366
  0
LINE
  8
0
 10
124.599319
 20
-115.375366
 11
124.599319
 21
-136.375366
  0
LINE
  8
0
 10
158.599304
 20
-115.675369
 11
158.599304
 21
-136.075363
  0
LINE
  8
0
 10
155.599319
 20
-115.675369
 11
158.599304
 21
-115.675369
  0
LINE
  8
0
 10
124.599319
 20
-115.891647
 11
123.199318
 21
-116.699936
  0
LINE
  8
0
 10
158.599304
 20
-115.743217
 11
159.999298
 21
-116.551506
  0
LINE
  8
0
 10
125.099319
 20
-114.875366
 11
124.599319
 21
-115.375366
  0
LINE
  8
0
 10
155.099319
 20
-114.875359
 11
155.599319
 21
-115.375359
  0
LINE
  8
0
 10
125.099319
 20
-111.827980
 11
125.099319
 21
-139.922760
  0
LINE
  8
0
 10
149.099319
 20
-114.927017
 11
149.099319
 21
-136.875366
  0
LINE
  8
0
 10
131.099319
 20
-112.872925
 11
131.099319
 21
-138.909790
  0
LINE
  8
0
 10
143.995728
 20
-118.575363
 11
148.202911
 21
-118.575363
  0
LINE
  8
0
 10
131.099319
 20
-111.827972
 11
131.099319
 21
-139.922760
  0
LINE
  8
0
 10
120.299316
 20
-118.875366
 11
122.099319
 21
-118.875366
  0
LINE
  8
0
 10
161.099304
 20
-118.875366
 11
162.899323
 21
-118.875366
  0
LINE
  8
0
 10
143.099319
 20
-111.827980
 11
143.099319
 21
-139.922760
  0
LINE
  8
0
 10
149.099319
 20
-111.827972
 11
149.099319
 21
-139.922760
  0
LINE
  8
0
 10
149.099319
 20
-114.875366
 11
155.099319
 21
-114.875366
  0
LINE
  8
0
 10
124.599319
 20
-115.475365
 11
125.099319
 21
-115.475365
  0
LINE
  8
0
 10
149.099319
 20
-115.475365
 11
155.599319
 21
-115.475365
  0
LINE
  8
0
 10
131.099319
 20
-115.475365
 11
143.099319
 21
-115.475365
  0
LINE
  8
0
 10
143.995728
 20
-133.175369
 11
148.202911
 21
-133.175369
  0
LINE
  8
0
 10
124.599319
 20
-136.275360
 11
125.099319
 21
-136.275360
  0
LINE
  8
0
 10
125.099319
 20
-136.875366
 11
124.599327
 21
-136.375366
  0
LINE
  8
0
 10
131.099319
 20
-136.875366
 11
143.099319
 21
-136.875366
  0
LINE
  8
0
 10
131.099319
 20
-136.275360
 11
143.099319
 21
-136.275360
  0
LINE
  8
0
 10
149.059082
 20
-136.875366
 11
155.099319
 21
-136.875366
  0
LINE
  8
0
 10
149.059082
 20
-136.275360
 11
155.566055
 21
-136.275360
  0
LINE
  8
0
 10
155.599319
 20
-136.375366
 11
155.599319
 21
-115.375366
  0
LINE
  8
0
 10
155.599319
 20
-136.075363
 11
158.599304
 21
-136.075363
  0
LINE
  8
0
 10
155.099304
 20
-136.875366
 11
155.599304
 21
-136.375366
  0
LINE
  8
0
 10
158.599335
 20
-136.007538
 11
159.999329
 21
-135.199249
  0
LINE
  8
0
 10
159.999313
 20
-134.575363
 11
161.099304
 21
-134.575363
  0
LINE
  8
0
 10
161.099304
 20
-132.875366
 11
162.899323
 21
-132.875366
  0
LINE
  8
0
 10
162.899323
 20
-135.775360
 11
165.099304
 21
-135.775360
  0
LINE
  8
0
 10
120.299316
 20
-132.875366
 11
122.099319
 21
-132.875366
  0
LINE
  8
0
 10
118.099319
 20
-135.775360
 11
120.228851
 21
-135.775360
  0
LINE
  8
0
 10
122.099319
 20
-134.575363
 11
123.199318
 21
-134.575363
  0
LINE
  8
0
 10
124.599319
 20
-135.859085
 11
123.199318
 21
-135.050797
  0
LINE
  8
0
  6
CENTER
 10
112.447273
 20
-125.875366
 11
172.125610
 21
-125.875366
  0
LINE
  8
0
 10
143.995728
 20
-110.275368
 11
148.202911
 21
-110.275368
  0
LINE
  8
0
 10
143.995712
 20
-110.275368
 11
143.099304
 21
-111.827972
  0
LINE
  8
0
 10
148.202942
 20
-110.275345
 11
149.099335
 21
-111.827957
  0
LINE
  8
0
 10
148.202896
 20
-141.475357
 11
149.099304
 21
-139.922745
  0
LINE
  8
0
 10
143.995728
 20
-141.475372
 11
148.202911
 21
-141.475372
  0
LINE
  8
0
 10
143.995712
 20
-141.475372
 11
143.099319
 21
-139.922760
  0
LINE
  8
0
 10
125.995720
 20
-118.575363
 11
130.202911
 21
-118.575363
  0
LINE
  8
0
 10
125.995720
 20
-110.275368
 11
130.202911
 21
-110.275368
  0
LINE
  8
0
 10
125.995720
 20
-110.275368
 11
125.099319
 21
-111.827980
  0
LINE
  8
0
 10
130.202927
 20
-110.275360
 11
131.099319
 21
-111.827972
  0
LINE
  8
0
 10
130.202911
 20
-141.475357
 11
131.099319
 21
-139.922760
  0
LINE
  8
0
 10
125.995720
 20
-141.475372
 11
130.202911
 21
-141.475372
  0
LINE
  8
0
 10
125.995720
 20
-141.475372
 11
125.099319
 21
-139.922760
  0
LINE
  8
0
 10
125.995720
 20
-133.175369
 11
130.202911
 21
-133.175369
  0
LINE
  8
0
 10
155.099319
 20
-114.875366
 11
155.099319
 21
-136.875366
  0
ARC
  8
0
 10
153.153992
 20
-114.425369
 40
10.054680
 50
155.622726
 51
204.377243
  0
ARC
  8
0
 10
139.044647
 20
-114.425369
 40
10.054664
 50
335.622711
 51
24.377239
  0
ARC
  8
0
 10
173.271942
 20
-125.875366
 40
30.172628
 50
165.998886
 51
194.001114
  0
ARC
  8
0
 10
118.926689
 20
-125.875366
 40
30.172625
 50
345.998871
 51
14.001081
  0
ARC
  8
0
 10
153.153992
 20
-137.325363
 40
10.054669
 50
155.622650
 51
204.377243
  0
ARC
  8
0
 10
139.044647
 20
-137.325363
 40
10.054669
 50
335.622650
 51
24.377239
  0
ARC
  8
0
 10
135.153992
 20
-114.425369
 40
10.054673
 50
155.622696
 51
204.377258
  0
ARC
  8
0
 10
121.044640
 20
-114.425369
 40
10.054670
 50
335.622742
 51
24.377222
  0
ARC
  8
0
 10
155.271942
 20
-125.875366
 40
30.172628
 50
165.998886
 51
194.001114
  0
ARC
  8
0
 10
100.926689
 20
-125.875366
 40
30.172638
 50
345.998871
 51
14.001081
  0
ARC
  8
0
 10
135.153992
 20
-137.325363
 40
10.054676
 50
155.622665
 51
204.377243
  0
ARC
  8
0
 10
121.044640
 20
-137.325363
 40
10.054676
 50
335.622650
 51
24.377222
  0
POINT
  8
0
 10
71.523666
 20
-125.875366
  0
POINT
  8
0
 10
85.023628
 20
-125.907494
  0
LINE
  8
0
  6
CENTER
 10
51.355614
 20
-125.827362
 11
88.510918
 21
-125.915794
  0
LINE
  8
0
  6
CENTER
 10
71.574020
 20
-104.720383
 11
71.465752
 21
-150.209854
  0
LINE
  8
0
 10
85.005074
 20
-133.701706
 11
71.486565
 21
-141.463776
  0
LINE
  8
0
 10
71.560768
 20
-110.286957
 11
58.042255
 21
-118.049026
  0
LINE
  8
0
 10
58.005154
 20
-133.637436
 11
71.486565
 21
-141.463776
  0
LINE
  8
0
 10
71.560768
 20
-110.286957
 11
85.042175
 21
-118.113289
  0
LINE
  8
0
 10
58.042255
 20
-118.049026
 11
58.005154
 21
-133.637451
  0
LINE
  8
0
 10
85.042175
 20
-118.113289
 11
85.005074
 21
-133.701706
  0
CIRCLE
  8
0
 10
71.523666
 20
-125.875366
 40
9.900000
  0
CIRCLE
  8
0
 10
71.523666
 20
-125.875366
 40
6.100000
  0
CIRCLE
  8
0
 10
71.523666
 20
-125.875366
 40
10.400000
  0
CIRCLE
  8
0
 10
71.523666
 20
-125.875366
 40
11.000000
  0
POINT
  8
0
 10
206.861938
 20
-125.875366
  0
POINT
  8
0
 10
220.361908
 20
-125.907494
  0
LINE
  8
0
  6
CENTER
 10
206.915253
 20
-103.474091
 11
206.806992
 21
-148.963577
  0
LINE
  8
0
  6
CENTER
 10
188.563309
 20
-125.831810
 11
227.821350
 21
-125.925255
  0
LINE
  8
0
 10
206.899033
 20
-110.286957
 11
193.380524
 21
-118.049026
  0
LINE
  8
0
 10
220.343353
 20
-133.701706
 11
206.824844
 21
-141.463776
  0
LINE
  8
0
 10
193.343430
 20
-133.637436
 11
206.824844
 21
-141.463776
  0
LINE
  8
0
 10
206.899033
 20
-110.286957
 11
220.380447
 21
-118.113289
  0
LINE
  8
0
 10
193.380524
 20
-118.049026
 11
193.343430
 21
-133.637451
  0
LINE
  8
0
 10
220.380447
 20
-118.113289
 11
220.343353
 21
-133.701706
  0
CIRCLE
  8
0
 10
206.861938
 20
-125.875366
 40
11.000000
  0
CIRCLE
  8
0
 10
206.861938
 20
-125.875366
 40
6.100000
  0
CIRCLE
  8
0
 10
206.861938
 20
-125.875366
 40
9.900000
  0
CIRCLE
  8
0
 10
206.861938
 20
-125.875366
 40
10.400000
  0
ENDSEC
  0
EOF
