  0
SECTION
  2
HEADER
  0
ENDSEC
  0
SECTION
  2
TABLES
  0
TABLE
  2
LTYPE
 70
     4
  0
LTYPE
  2
CONTINUOUS
 70
    64
  3
Solid line
 72
    65
 73
     0
 40
0.000000
  0
LTYPE
  2
DASHED
 70
    64
  3
__ __ __ __ __ __ __ __ __ __ __ __ __ __ __
 72
    65
 73
     2
 40
3.500000
 49
2.000000
 49
-1.500000
  0
LTYPE
  2
CENTER
 70
    64
  3
____ _ ____ _ ____ _ ____ _ ____ _ ____ _ ____
 72
    65
 73
     4
 40
17.500000
 49
13.000000
 49
-1.500000
 49
1.500000
 49
-1.500000
  0
LTYPE
  2
PHANTOM
 70
    64
  3
_____ _ _ _____ _ _ _____ _ _ _____ _ _ ____  
 72
    65
 73
     6
 40
15.500000
 49
8.000000
 49
-1.500000
 49
1.500000
 49
-1.500000
 49
1.500000
 49
-1.500000
  0
LTYPE
  2
DASHED1
 70
    64
  3
__ __ __ __ __ __ __ __ __ __ __ __ __ __ __
 72
    65
 73
     2
 40
1.500000
 49
1.000000
 49
-0.500000
  0
LTYPE
  2
DASHED2
 70
    64
  3
__ __ __ __ __ __ __ __ __ __ __ __ __ __ __
 72
    65
 73
     2
 40
3.500000
 49
2.500000
 49
-1.000000
  0
LTYPE
  2
DASHED3
 70
    64
  3
__ __ __ __ __ __ __ __ __ __ __ __ __ __ __
 72
    65
 73
     2
 40
6.000000
 49
4.000000
 49
-2.000000
  0
LTYPE
  2
DASHED4
 70
    64
  3
__ __ __ __ __ __ __ __ __ __ __ __ __ __ __
 72
    65
 73
     2
 40
12.000000
 49
10.000000
 49
-2.000000
  0
LTYPE
  2
DASHED5
 70
    64
  3
__ __ __ __ __ __ __ __ __ __ __ __ __ __ __
 72
    65
 73
     2
 40
17.000000
 49
15.000000
 49
-2.000000
  0
LTYPE
  2
DASHED6
 70
    64
  3
__ __ __ __ __ __ __ __ __ __ __ __ __ __ __
 72
    65
 73
     2
 40
29.000000
 49
27.000000
 49
-2.000000
  0
LTYPE
  2
PHANTOM1
 70
    64
  3
_____ _ _ _____ _ _ _____ _ _ _____ _ _ ____  
 72
    65
 73
     6
 40
31.000000
 49
25.000000
 49
-1.500000
 49
1.000000
 49
-1.000000
 49
1.000000
 49
-1.500000
  0
LTYPE
  2
PHANTOM2
 70
    64
  3
_____ _ _ _____ _ _ _____ _ _ _____ _ _ ____  
 72
    65
 73
     6
 40
36.000000
 49
27.000000
 49
-1.500000
 49
2.500000
 49
-1.000000
 49
2.500000
 49
-1.500000
  0
LTYPE
  2
PHANTOM3
 70
    64
  3
_____ _ _ _____ _ _ _____ _ _ _____ _ _ ____  
 72
    65
 73
     6
 40
78.000000
 49
64.000000
 49
-2.000000
 49
4.000000
 49
-2.000000
 49
4.000000
 49
-2.000000
  0
LTYPE
  2
CENTER1
 70
    64
  3
____ _ ____ _ ____ _ ____ _ ____ _ ____ _ ____
 72
    65
 73
     4
 40
19.000000
 49
14.000000
 49
-1.000000
 49
3.000000
 49
-1.000000
  0
LTYPE
  2
CENTER2
 70
    64
  3
____ _ ____ _ ____ _ ____ _ ____ _ ____ _ ____
 72
    65
 73
     4
 40
28.500000
 49
25.000000
 49
-1.000000
 49
1.500000
 49
-1.000000
  0
LTYPE
  2
CENTER3
 70
    64
  3
____ _ ____ _ ____ _ ____ _ ____ _ ____ _ ____
 72
    65
 73
     4
 40
31.500000
 49
27.000000
 49
-1.000000
 49
2.500000
 49
-1.000000
  0
LTYPE
  2
CENTER4
 70
    64
  3
____ _ ____ _ ____ _ ____ _ ____ _ ____ _ ____
 72
    65
 73
     4
 40
50.000000
 49
45.000000
 49
-1.000000
 49
3.000000
 49
-1.000000
  0
LTYPE
  2
CENTER5
 70
    64
  3
____ _ ____ _ ____ _ ____ _ ____ _ ____ _ ____
 72
    65
 73
     4
 40
100.000000
 49
92.000000
 49
-2.000000
 49
4.000000
 49
-2.000000
  0
LTYPE
  2
SBK1
 70
    64
  3
______ _ _ _ ______ _ _ _ ______ _ _ _ _____  
 72
    65
 73
     8
 40
60.500000
 49
45.000000
 49
-2.000000
 49
2.500000
 49
-2.000000
 49
2.500000
 49
-2.000000
 49
2.500000
 49
-2.000000
  0
LTYPE
  2
SBK2
 70
    64
  3
______ _ _ _ ______ _ _ _ ______ _ _ _ _____  
 72
    65
 73
     8
 40
84.000000
 49
64.000000
 49
-2.000000
 49
4.000000
 49
-2.000000
 49
4.000000
 49
-2.000000
 49
4.000000
 49
-2.000000
  0
LTYPE
  2
STCH
 70
    64
  3
__ __ __ __ __ __ __ __ __ __ __ __ __ __ __
 72
    65
 73
     2
 40
3.000000
 49
1.000000
 49
-2.000000
  0
LTYPE
  2
MTCH
 70
    64
  3
_____ _ _ _____ _ _ _____ _ _ _____ _ _ ____  
 72
    65
 73
     6
 40
80.000000
 49
66.000000
 49
-2.000000
 49
4.000000
 49
-2.000000
 49
4.000000
 49
-2.000000
  0
ENDTAB
  0
TABLE
  2
LAYER
 70
     1
  0
LAYER
  2
0
 70
     0
 62
     7
  6
CONTINUOUS
  0
ENDTAB
  0
TABLE
  2
STYLE
 70
     1
  0
STYLE
  2
STANDARD
 70
     0
 40
0.000000
 41
1.000000
 50
0.000000
 71
     0
 42
0.200000
  3
txt
  4
BIGFONT
  0
ENDTAB
  0
TABLE
  2
VIEW
 70
     0
  0
ENDTAB
  0
ENDSEC
  0
SECTION
  2
BLOCKS
  0
ENDSEC
  0
SECTION
  2
ENTITIES
  0
LINE
  8
0
 10
-168.580017
 20
195.500000
 11
-168.580017
 21
-195.000000
  0
LINE
  8
0
 10
-281.250000
 20
65.333321
 11
282.099976
 21
65.333321
  0
LINE
  8
0
 10
-281.250000
 20
-64.833351
 11
282.099976
 21
-64.833351
  0
LINE
  8
0
 10
-55.910019
 20
195.500000
 11
-55.910019
 21
-195.000000
  0
LINE
  8
0
 10
56.759979
 20
195.500000
 11
56.759979
 21
-195.000000
  0
LINE
  8
0
 10
169.429977
 20
195.500000
 11
169.429977
 21
-195.000000
  0
LINE
  8
0
 10
-281.250000
 20
180.500000
 11
-181.250000
 21
180.500000
  0
LINE
  8
0
 10
-181.250000
 20
195.500000
 11
-181.250000
 21
180.500000
  0
LINE
  8
0
 10
182.099976
 20
195.500000
 11
182.099976
 21
180.500000
  0
LINE
  8
0
 10
182.099976
 20
180.500000
 11
282.099976
 21
180.500000
  0
LINE
  8
0
 10
169.429977
 20
-175.000000
 11
282.099976
 21
-175.000000
  0
LINE
  8
0
 10
182.099976
 20
-175.000000
 11
182.099976
 21
-195.000000
  0
LINE
  8
0
 10
-281.250000
 20
-185.000000
 11
169.429977
 21
-185.000000
  0
LINE
  8
0
 10
169.429977
 20
-165.000000
 11
282.099976
 21
-165.000000
  0
LINE
  8
0
 10
-281.250000
 20
-54.833351
 11
282.099976
 21
-54.833351
  0
LINE
  8
0
 10
-281.250000
 20
75.333321
 11
282.099976
 21
75.333321
  0
LINE
  8
0
 10
-297.000000
 20
210.000000
 11
297.000000
 21
210.000000
  0
LINE
  8
0
 10
-297.000000
 20
-210.000000
 11
297.000000
 21
-210.000000
  0
LINE
  8
0
 10
297.000000
 20
210.000000
 11
297.000000
 21
-210.000000
  0
LINE
  8
0
 10
-297.000000
 20
210.000000
 11
-297.000000
 21
-210.000000
  0
LINE
  8
0
 10
-281.250000
 20
195.500000
 11
282.099976
 21
195.500000
  0
LINE
  8
0
 10
-281.250000
 20
195.500000
 11
-281.250000
 21
-195.000000
  0
LINE
  8
0
 10
282.099976
 20
195.500000
 11
282.099976
 21
-195.000000
  0
LINE
  8
0
 10
-281.250000
 20
-195.000000
 11
282.099976
 21
-195.000000
  0
TEXT
  8
0
 10
-281.128326
 20
183.779999
 40
5.800000
  1
QUICK FITTING,TSM
 50
0.000000
 41
1.052632
 51
0.000000
  7
STANDARD
  0
TEXT
  8
0
 10
188.021667
 20
183.779999
 40
5.800000
  1
DATE: MAY ,1992
 50
0.000000
 41
1.052632
 51
0.000000
  7
STANDARD
  0
TEXT
  8
0
 10
178.000870
 20
-190.300003
 40
7.000000
  1
ＫＯＧＡＮＥＩ，ＣＯＲＰ．
 50
0.000000
 41
0.902367
 51
15.000000
  7
STANDARD
  0
TEXT
  8
0
 10
174.679993
 20
68.333336
 40
5.000000
  1
MODEL:TSM4-01
 50
0.000000
 41
1.052632
 51
0.000000
  7
STANDARD
  0
TEXT
  8
0
 10
-271.000061
 20
-192.000031
 40
5.000000
  1
MODEL:TSM8-03
 50
0.000000
 41
1.052632
 51
0.000000
  7
STANDARD
  0
TEXT
  8
0
 10
-158.330017
 20
68.333336
 40
5.000000
  1
MODEL:TSM3-M5M
 50
0.000000
 41
1.052632
 51
0.000000
  7
STANDARD
  0
TEXT
  8
0
 10
-45.660034
 20
68.333336
 40
5.000000
  1
MODEL:TSM4-M3M
 50
0.000000
 41
1.052632
 51
0.000000
  7
STANDARD
  0
TEXT
  8
0
 10
67.009949
 20
68.333336
 40
5.000000
  1
MODEL:TSM4-M5M
 50
0.000000
 41
1.052632
 51
0.000000
  7
STANDARD
  0
TEXT
  8
0
 10
-271.000061
 20
-61.833351
 40
5.000000
  1
MODEL:TSM4-02
 50
0.000000
 41
1.052632
 51
0.000000
  7
STANDARD
  0
TEXT
  8
0
 10
-158.330078
 20
-61.833351
 40
5.000000
  1
MODEL:TSM6-01
 50
0.000000
 41
1.052632
 51
0.000000
  7
STANDARD
  0
TEXT
  8
0
 10
-45.660095
 20
-61.833351
 40
5.000000
  1
MODEL:TSM6-02
 50
0.000000
 41
1.052632
 51
0.000000
  7
STANDARD
  0
TEXT
  8
0
 10
67.009888
 20
-61.833351
 40
5.000000
  1
MODEL:TSM8-01
 50
0.000000
 41
1.052632
 51
0.000000
  7
STANDARD
  0
TEXT
  8
0
 10
179.679871
 20
-61.833351
 40
5.000000
  1
MODEL:TSM8-02
 50
0.000000
 41
1.052632
 51
0.000000
  7
STANDARD
  0
TEXT
  8
0
 10
179.679871
 20
-172.000000
 40
5.000000
  1
MODEL:TSM12-03
 50
0.000000
 41
1.052632
 51
0.000000
  7
STANDARD
  0
TEXT
  8
0
 10
67.009888
 20
-192.000031
 40
5.000000
  1
MODEL:TSM12-02
 50
0.000000
 41
1.052632
 51
0.000000
  7
STANDARD
  0
TEXT
  8
0
 10
-45.660095
 20
-192.000031
 40
5.000000
  1
MODEL:TSM10-03
 50
0.000000
 41
1.052632
 51
0.000000
  7
STANDARD
  0
TEXT
  8
0
 10
-158.330078
 20
-192.000031
 40
5.000000
  1
MODEL:TSM10-02
 50
0.000000
 41
1.052632
 51
0.000000
  7
STANDARD
  0
TEXT
  8
0
 10
-276.000000
 20
68.333336
 40
5.000000
  1
MODEL:TSM3-M3M
 50
0.000000
 41
1.052632
 51
0.000000
  7
STANDARD
  0
POINT
  8
0
 10
-224.915009
 20
92.874985
  0
POINT
  8
0
 10
-221.715012
 20
92.874985
  0
LINE
  8
0
  6
CENTER
 10
-224.915009
 20
111.850037
 11
-224.915009
 21
86.497253
  0
LINE
  8
0
 10
-228.077515
 20
92.874985
 11
-221.752502
 21
92.874985
  0
LINE
  8
0
 10
-227.665009
 20
104.217056
 11
-222.165009
 21
104.217056
  0
LINE
  8
0
 10
-228.115005
 20
97.874985
 11
-221.715012
 21
97.874985
  0
LINE
  8
0
 10
-227.665009
 20
104.217056
 11
-227.665009
 21
97.874985
  0
LINE
  8
0
 10
-222.165009
 20
104.217056
 11
-222.165009
 21
97.874985
  0
LINE
  8
0
 10
-228.415009
 20
104.617058
 11
-221.415009
 21
104.617058
  0
LINE
  8
0
 10
-226.765015
 20
104.617058
 11
-226.765015
 21
104.217056
  0
LINE
  8
0
 10
-223.065002
 20
104.617058
 11
-223.065002
 21
104.217056
  0
LINE
  8
0
 10
-226.665009
 20
97.874985
 11
-226.665009
 21
92.874985
  0
LINE
  8
0
 10
-223.165009
 20
97.874985
 11
-223.165009
 21
92.874985
  0
LINE
  8
0
 10
-227.665009
 20
104.217056
 11
-227.665009
 21
97.874985
  0
LINE
  8
0
 10
-222.165009
 20
104.217056
 11
-222.165009
 21
97.874985
  0
LINE
  8
0
 10
-228.115005
 20
92.874985
 11
-221.715012
 21
92.874985
  0
LINE
  8
0
  6
DASHED
 10
-226.415009
 20
96.524986
 11
-226.415009
 21
92.874985
  0
LINE
  8
0
  6
DASHED
 10
-223.415009
 20
96.524986
 11
-223.415009
 21
92.874985
  0
LINE
  8
0
  6
DASHED
 10
-225.915009
 20
96.524986
 11
-225.915009
 21
92.874985
  0
LINE
  8
0
  6
DASHED
 10
-223.915009
 20
96.524986
 11
-223.915009
 21
92.874985
  0
LINE
  8
0
  6
DASHED
 10
-226.415009
 20
96.524986
 11
-223.415009
 21
96.524986
  0
LINE
  8
0
 10
-228.415009
 20
105.774986
 11
-221.415009
 21
105.774986
  0
LINE
  8
0
 10
-221.415009
 20
105.774986
 11
-221.415009
 21
104.617058
  0
LINE
  8
0
 10
-228.415009
 20
105.774986
 11
-228.415009
 21
104.617058
  0
LINE
  8
0
 10
-228.115005
 20
97.874985
 11
-228.115005
 21
92.874985
  0
LINE
  8
0
 10
-221.715012
 20
97.874985
 11
-221.715012
 21
92.874985
  0
POINT
  8
0
 10
-107.645020
 20
97.874985
  0
POINT
  8
0
 10
-112.245018
 20
97.874985
  0
LINE
  8
0
  6
CENTER
 10
-112.245018
 20
123.397751
 11
-112.245018
 21
88.431564
  0
LINE
  8
0
 10
-116.845016
 20
97.874985
 11
-107.645020
 21
97.874985
  0
LINE
  8
0
 10
-116.245018
 20
111.074982
 11
-108.245018
 21
111.074982
  0
LINE
  8
0
 10
-116.845016
 20
102.874985
 11
-116.845016
 21
97.874985
  0
LINE
  8
0
 10
-107.645020
 20
102.874985
 11
-107.645020
 21
97.874985
  0
LINE
  8
0
 10
-116.845016
 20
102.874985
 11
-107.645020
 21
102.874985
  0
LINE
  8
0
 10
-115.745018
 20
112.674988
 11
-108.745018
 21
112.674988
  0
LINE
  8
0
  6
DASHED
 10
-114.745018
 20
101.874985
 11
-114.745018
 21
97.874985
  0
LINE
  8
0
  6
DASHED
 10
-109.745018
 20
101.874985
 11
-109.745018
 21
97.874985
  0
LINE
  8
0
  6
DASHED
 10
-114.245018
 20
101.874985
 11
-114.245018
 21
97.874985
  0
LINE
  8
0
  6
DASHED
 10
-110.245018
 20
101.874985
 11
-110.245018
 21
97.874985
  0
LINE
  8
0
  6
DASHED
 10
-114.745018
 20
101.874985
 11
-109.745018
 21
101.874985
  0
LINE
  8
0
 10
-115.745018
 20
111.474983
 11
-108.745018
 21
111.474983
  0
LINE
  8
0
 10
-114.095016
 20
111.474983
 11
-114.095016
 21
111.074982
  0
LINE
  8
0
 10
-110.395020
 20
111.474983
 11
-110.395020
 21
111.074982
  0
LINE
  8
0
 10
-116.245018
 20
111.074982
 11
-116.245018
 21
102.874985
  0
LINE
  8
0
 10
-108.245018
 20
111.074982
 11
-108.245018
 21
102.874985
  0
LINE
  8
0
 10
-109.345016
 20
102.874985
 11
-109.345016
 21
97.874985
  0
LINE
  8
0
 10
-115.145020
 20
102.874985
 11
-115.145020
 21
97.874985
  0
LINE
  8
0
 10
-108.745018
 20
112.674988
 11
-108.745018
 21
111.474983
  0
LINE
  8
0
 10
-115.745018
 20
112.674988
 11
-115.745018
 21
111.474983
  0
POINT
  8
0
 10
0.424973
 20
158.875336
  0
POINT
  8
0
 10
5.324974
 20
158.875961
  0
LINE
  8
0
  6
CENTER
 10
-12.719253
 20
158.873642
 11
12.803516
 21
158.876923
  0
LINE
  8
0
  6
CENTER
 10
0.424009
 20
166.376434
 11
0.426010
 21
150.799255
  0
LINE
  8
0
 10
-1.884942
 20
162.875046
 11
2.733860
 21
162.875626
  0
LINE
  8
0
 10
-1.883914
 20
154.875046
 11
2.734887
 21
154.875626
  0
LINE
  8
0
 10
2.733860
 20
162.875626
 11
3.182046
 21
162.099579
  0
LINE
  8
0
 10
2.734887
 20
154.875626
 11
3.182940
 21
155.651917
  0
LINE
  8
0
 10
-2.332995
 20
162.098755
 11
-1.884942
 21
162.875046
  0
LINE
  8
0
 10
-2.332101
 20
155.651093
 11
-1.883914
 21
154.875046
  0
CIRCLE
  8
0
 10
0.424973
 20
158.875336
 40
2.100000
  0
ARC
  8
0
 10
2.207256
 20
158.879822
 40
3.117721
 50
347.598663
 51
12.690328
  0
ARC
  8
0
 10
1.734586
 20
158.724564
 40
3.613267
 50
13.445600
 51
47.573242
  0
ARC
  8
0
 10
0.429644
 20
157.021927
 40
5.753418
 50
49.420368
 51
130.868454
  0
ARC
  8
0
 10
-0.883864
 20
158.717972
 40
3.613263
 50
132.715668
 51
166.843307
  0
ARC
  8
0
 10
-1.357311
 20
158.870850
 40
3.117721
 50
167.598663
 51
192.690323
  0
ARC
  8
0
 10
-0.884641
 20
159.026108
 40
3.613267
 50
193.445602
 51
227.573242
  0
ARC
  8
0
 10
0.420301
 20
160.728745
 40
5.753418
 50
229.420364
 51
310.868469
  0
ARC
  8
0
 10
1.733809
 20
159.032700
 40
3.613263
 50
312.715668
 51
346.843292
  0
POINT
  8
0
 10
5.024971
 20
97.874985
  0
POINT
  8
0
 10
0.424973
 20
97.874985
  0
LINE
  8
0
  6
CENTER
 10
0.424973
 20
120.590248
 11
0.424973
 21
88.686790
  0
LINE
  8
0
 10
-4.175026
 20
97.874985
 11
5.024971
 21
97.874985
  0
LINE
  8
0
 10
-4.175026
 20
102.874985
 11
5.024971
 21
102.874985
  0
LINE
  8
0
 10
-4.175026
 20
102.874985
 11
-4.175026
 21
97.874985
  0
LINE
  8
0
 10
5.024971
 20
102.874985
 11
5.024971
 21
97.874985
  0
LINE
  8
0
 10
-2.175026
 20
111.074982
 11
-2.175026
 21
110.274986
  0
LINE
  8
0
 10
3.024971
 20
111.074982
 11
3.024971
 21
110.274986
  0
LINE
  8
0
 10
-3.575027
 20
110.274986
 11
4.424973
 21
110.274986
  0
LINE
  8
0
 10
-4.475028
 20
112.274986
 11
5.324973
 21
112.274986
  0
LINE
  8
0
 10
-4.475028
 20
111.074982
 11
5.324973
 21
111.074982
  0
LINE
  8
0
 10
-3.575027
 20
110.274986
 11
-3.575027
 21
102.874985
  0
LINE
  8
0
 10
4.424973
 20
110.274986
 11
4.424973
 21
102.874985
  0
LINE
  8
0
  6
DASHED
 10
-1.075027
 20
100.874985
 11
-1.075027
 21
97.874985
  0
LINE
  8
0
  6
DASHED
 10
1.924973
 20
100.874985
 11
1.924973
 21
97.874985
  0
LINE
  8
0
  6
DASHED
 10
-0.575027
 20
100.874985
 11
-0.575027
 21
97.874985
  0
LINE
  8
0
  6
DASHED
 10
1.424973
 20
100.874985
 11
1.424973
 21
97.874985
  0
LINE
  8
0
  6
DASHED
 10
-1.075027
 20
100.874985
 11
1.924973
 21
100.874985
  0
LINE
  8
0
 10
-1.875023
 20
102.874985
 11
-1.875023
 21
97.874985
  0
LINE
  8
0
 10
2.724968
 20
102.874985
 11
2.724968
 21
97.874985
  0
LINE
  8
0
 10
5.324973
 20
112.274986
 11
5.324973
 21
111.074982
  0
LINE
  8
0
 10
-4.475028
 20
112.274986
 11
-4.475028
 21
111.074982
  0
POINT
  8
0
 10
117.694962
 20
97.874985
  0
POINT
  8
0
 10
113.094963
 20
97.874985
  0
LINE
  8
0
 10
108.494965
 20
97.874985
 11
117.694962
 21
97.874985
  0
LINE
  8
0
  6
CENTER
 10
113.094963
 20
123.397751
 11
113.094963
 21
89.452469
  0
LINE
  8
0
 10
109.094963
 20
113.174988
 11
117.094963
 21
113.174988
  0
LINE
  8
0
 10
108.194962
 20
115.174988
 11
117.994965
 21
115.174988
  0
LINE
  8
0
 10
108.194962
 20
113.974983
 11
117.994965
 21
113.974983
  0
LINE
  8
0
 10
110.494965
 20
113.974983
 11
110.494965
 21
113.174988
  0
LINE
  8
0
 10
115.694962
 20
113.974983
 11
115.694962
 21
113.174988
  0
LINE
  8
0
 10
108.494965
 20
102.874985
 11
108.494965
 21
97.874985
  0
LINE
  8
0
 10
117.694962
 20
102.874985
 11
117.694962
 21
97.874985
  0
LINE
  8
0
 10
108.494965
 20
102.874985
 11
117.694962
 21
102.874985
  0
LINE
  8
0
 10
109.094963
 20
113.174988
 11
109.094963
 21
102.874985
  0
LINE
  8
0
 10
117.094963
 20
113.174988
 11
117.094963
 21
102.874985
  0
LINE
  8
0
  6
DASHED
 10
110.594963
 20
102.274979
 11
110.594963
 21
97.874985
  0
LINE
  8
0
  6
DASHED
 10
115.594963
 20
102.274979
 11
115.594963
 21
97.874985
  0
LINE
  8
0
  6
DASHED
 10
111.094963
 20
102.274979
 11
111.094963
 21
97.874985
  0
LINE
  8
0
  6
DASHED
 10
115.094963
 20
102.274979
 11
115.094963
 21
97.874985
  0
LINE
  8
0
 10
108.494965
 20
102.874985
 11
117.694962
 21
102.874985
  0
LINE
  8
0
 10
108.494965
 20
102.874985
 11
117.694962
 21
102.874985
  0
LINE
  8
0
 10
108.494965
 20
102.874985
 11
117.694962
 21
102.874985
  0
LINE
  8
0
 10
108.494965
 20
102.874985
 11
117.694962
 21
102.874985
  0
LINE
  8
0
  6
DASHED
 10
110.594963
 20
102.274979
 11
115.594963
 21
102.274979
  0
LINE
  8
0
 10
110.194962
 20
102.874985
 11
110.194962
 21
97.874985
  0
LINE
  8
0
 10
115.994965
 20
102.874985
 11
115.994965
 21
97.874985
  0
LINE
  8
0
 10
117.994965
 20
115.174988
 11
117.994965
 21
113.974983
  0
LINE
  8
0
 10
108.194962
 20
115.174988
 11
108.194962
 21
113.974983
  0
POINT
  8
0
 10
225.764954
 20
149.875336
  0
POINT
  8
0
 10
233.847855
 20
149.875336
  0
LINE
  8
0
  6
CENTER
 10
225.764954
 20
163.412994
 11
225.764954
 21
135.596008
  0
LINE
  8
0
  6
CENTER
 10
211.423065
 20
149.875336
 11
242.815994
 21
149.875336
  0
LINE
  8
0
 10
221.723495
 20
142.875336
 11
229.806412
 21
142.875336
  0
LINE
  8
0
 10
221.723495
 20
156.875336
 11
229.806412
 21
156.875336
  0
LINE
  8
0
 10
217.682053
 20
149.875336
 11
221.723495
 21
142.875336
  0
LINE
  8
0
 10
229.806412
 20
156.875336
 11
233.847855
 21
149.875336
  0
LINE
  8
0
 10
217.682053
 20
149.875336
 11
221.723495
 21
156.875336
  0
LINE
  8
0
 10
229.806412
 20
142.875336
 11
233.847855
 21
149.875336
  0
CIRCLE
  8
0
 10
225.764954
 20
149.875336
 40
2.100000
  0
CIRCLE
  8
0
 10
225.764954
 20
149.875336
 40
5.500000
  0
CIRCLE
  8
0
 10
225.764954
 20
149.875336
 40
4.950000
  0
POINT
  8
0
 10
225.764954
 20
89.874985
  0
POINT
  8
0
 10
232.764923
 20
89.890213
  0
LINE
  8
0
  6
DASHED
 10
221.189987
 20
97.274475
 11
221.826675
 21
97.866440
  0
LINE
  8
0
  6
CENTER
 10
225.698212
 20
120.557465
 11
225.776443
 21
84.591660
  0
LINE
  8
0
 10
218.764969
 20
89.859756
 11
232.764923
 21
89.890213
  0
LINE
  8
0
 10
220.243210
 20
99.862999
 11
231.243195
 21
99.886925
  0
LINE
  8
0
 10
221.530548
 20
110.065826
 11
229.911484
 21
110.084053
  0
LINE
  8
0
 10
220.223541
 20
108.906921
 11
220.243210
 21
99.862999
  0
LINE
  8
0
 10
217.748550
 20
97.409683
 11
217.762802
 21
90.857582
  0
LINE
  8
0
 10
220.243088
 20
99.915131
 11
217.748535
 21
97.409691
  0
LINE
  8
0
 10
221.185440
 20
109.465073
 11
230.259186
 21
109.484810
  0
LINE
  8
0
 10
217.796326
 20
97.457680
 11
233.700531
 21
97.492271
  0
LINE
  8
0
 10
231.243088
 20
99.939041
 11
233.748535
 21
97.444481
  0
LINE
  8
0
 10
233.748505
 20
97.444481
 11
233.762756
 21
90.892380
  0
LINE
  8
0
 10
231.223526
 20
108.930847
 11
231.243195
 21
99.886925
  0
LINE
  8
0
 10
230.661652
 20
114.385689
 11
230.665131
 21
112.785706
  0
LINE
  8
0
 10
229.417740
 20
111.582977
 11
229.421005
 21
110.082985
  0
LINE
  8
0
 10
221.185440
 20
109.465080
 11
220.223541
 21
108.906929
  0
LINE
  8
0
 10
220.761688
 20
114.364159
 11
230.661652
 21
114.385689
  0
LINE
  8
0
 10
222.017761
 20
111.566887
 11
222.021027
 21
110.066895
  0
LINE
  8
0
 10
222.017761
 20
111.566887
 11
229.417740
 21
111.582977
  0
LINE
  8
0
 10
220.765167
 20
112.764168
 11
230.665131
 21
112.785706
  0
LINE
  8
0
 10
223.015152
 20
112.769058
 11
223.017761
 21
111.569061
  0
LINE
  8
0
 10
220.761688
 20
114.364159
 11
220.765167
 21
112.764168
  0
LINE
  8
0
 10
228.415131
 20
112.780807
 11
228.417740
 21
111.580811
  0
LINE
  8
0
 10
217.762802
 20
90.857582
 11
233.762741
 21
90.892380
  0
LINE
  8
0
  6
DASHED
 10
221.212799
 20
97.265106
 11
230.308060
 21
97.284882
  0
LINE
  8
0
 10
232.764938
 20
89.890213
 11
233.762741
 21
90.892380
  0
LINE
  8
0
  6
DASHED
 10
230.307693
 20
97.294312
 11
229.668442
 21
97.883507
  0
LINE
  8
0
 10
221.948425
 20
97.466705
 11
221.962784
 21
90.866714
  0
LINE
  8
0
 10
229.548416
 20
97.483238
 11
229.562775
 21
90.883247
  0
LINE
  8
0
 10
218.764969
 20
89.859772
 11
217.762802
 21
90.857590
  0
LINE
  8
0
  6
DASHED
 10
230.609573
 20
89.884827
 11
230.308044
 21
97.284882
  0
LINE
  8
0
  6
DASHED
 10
230.009125
 20
89.884216
 11
229.684967
 21
97.839622
  0
LINE
  8
0
  6
DASHED
 10
221.811935
 20
97.866409
 11
229.683182
 21
97.883530
  0
LINE
  8
0
  6
DASHED
 10
220.920319
 20
89.863762
 11
221.189651
 21
97.265053
  0
LINE
  8
0
  6
DASHED
 10
221.520782
 20
89.865753
 11
221.810333
 21
97.822502
  0
LINE
  8
0
 10
221.185440
 20
109.465073
 11
221.530548
 21
110.065826
  0
LINE
  8
0
 10
220.223541
 20
108.906929
 11
231.223526
 21
108.930855
  0
LINE
  8
0
 10
230.259201
 20
109.484810
 11
229.911484
 21
110.084053
  0
LINE
  8
0
 10
230.259201
 20
109.484818
 11
231.223526
 21
108.930855
  0
POINT
  8
0
 10
-224.915009
 20
29.708664
  0
POINT
  8
0
 10
-215.596146
 20
29.708664
  0
LINE
  8
0
  6
CENTER
 10
-224.915009
 20
47.329945
 11
-224.915009
 21
12.076118
  0
LINE
  8
0
  6
CENTER
 10
-243.376678
 20
29.708664
 11
-204.838074
 21
29.708664
  0
LINE
  8
0
 10
-229.131653
 20
38.109848
 11
-220.779480
 21
38.109848
  0
LINE
  8
0
 10
-234.293991
 20
30.318687
 11
-230.131409
 21
37.528469
  0
LINE
  8
0
 10
-234.295349
 20
29.082630
 11
-230.131424
 21
21.870487
  0
LINE
  8
0
 10
-229.131653
 20
21.289093
 11
-220.779480
 21
21.289093
  0
LINE
  8
0
 10
-215.615768
 20
29.082640
 11
-219.779724
 21
21.870476
  0
LINE
  8
0
 10
-215.617157
 20
30.318693
 11
-219.779724
 21
37.528469
  0
ARC
  8
0
 10
-224.996140
 20
29.708664
 40
9.400002
 50
56.293579
 51
63.347343
  0
CIRCLE
  8
0
 10
-224.915009
 20
29.708664
 40
7.000000
  0
CIRCLE
  8
0
 10
-224.915009
 20
29.708664
 40
4.950000
  0
CIRCLE
  8
0
 10
-224.915009
 20
29.708664
 40
2.100000
  0
ARC
  8
0
 10
-224.915009
 20
29.708664
 40
9.399999
 50
116.652565
 51
123.706329
  0
ARC
  8
0
 10
-224.915009
 20
29.690277
 40
9.399996
 50
176.166809
 51
183.706253
  0
ARC
  8
0
 10
-224.915009
 20
29.690277
 40
9.400002
 50
236.293579
 51
243.347336
  0
ARC
  8
0
 10
-224.996124
 20
29.690277
 40
9.399999
 50
296.652557
 51
303.706329
  0
ARC
  8
0
 10
-224.996124
 20
29.690277
 40
9.400001
 50
356.293701
 51
3.833242
  0
POINT
  8
0
 10
-224.915009
 20
-36.291687
  0
POINT
  8
0
 10
-216.381042
 20
-36.291687
  0
POINT
  8
0
 10
-297.748352
 20
-74.958359
  0
LINE
  8
0
  6
DASHED
 10
-219.561600
 20
-25.291687
 11
-224.915009
 21
-25.291687
  0
LINE
  8
0
  6
CENTER
 10
-224.915009
 20
-0.304585
 11
-224.915009
 21
-44.203743
  0
LINE
  8
0
 10
-229.451904
 20
-13.491674
 11
-230.415024
 21
-14.047731
  0
LINE
  8
0
 10
-229.865005
 20
-8.591686
 11
-219.965012
 21
-8.591686
  0
LINE
  8
0
 10
-228.615005
 20
-11.391685
 11
-228.615005
 21
-12.891685
  0
LINE
  8
0
 10
-228.615005
 20
-11.391685
 11
-221.215012
 21
-11.391685
  0
LINE
  8
0
 10
-229.865005
 20
-10.191685
 11
-219.965012
 21
-10.191685
  0
LINE
  8
0
 10
-227.615005
 20
-10.191685
 11
-227.615005
 21
-11.391685
  0
LINE
  8
0
 10
-229.865005
 20
-8.591686
 11
-229.865005
 21
-10.191685
  0
LINE
  8
0
 10
-220.378128
 20
-13.491678
 11
-219.415009
 21
-14.047731
  0
LINE
  8
0
 10
-221.215012
 20
-11.391685
 11
-221.215012
 21
-12.891685
  0
LINE
  8
0
 10
-222.215012
 20
-10.191685
 11
-222.215012
 21
-11.391685
  0
LINE
  8
0
 10
-219.965012
 20
-8.591686
 11
-219.965012
 21
-10.191685
  0
LINE
  8
0
 10
-231.847748
 20
-23.291687
 11
-224.915009
 21
-23.291687
  0
LINE
  8
0
 10
-229.451904
 20
-13.491684
 11
-220.378143
 21
-13.491684
  0
LINE
  8
0
 10
-234.315002
 20
-25.758957
 11
-234.315002
 21
-35.791687
  0
LINE
  8
0
 10
-230.415009
 20
-14.047733
 11
-230.415009
 21
-23.291687
  0
LINE
  8
0
 10
-231.847748
 20
-23.291679
 11
-234.315018
 21
-25.758949
  0
LINE
  8
0
 10
-229.105484
 20
-12.891685
 11
-220.724533
 21
-12.891685
  0
LINE
  8
0
 10
-217.982269
 20
-23.291679
 11
-215.514999
 21
-25.758955
  0
LINE
  8
0
 10
-215.515015
 20
-25.758957
 11
-215.515015
 21
-35.791687
  0
LINE
  8
0
 10
-217.982269
 20
-23.291687
 11
-224.915009
 21
-23.291687
  0
LINE
  8
0
 10
-219.415009
 20
-14.047733
 11
-219.415009
 21
-23.291687
  0
LINE
  8
0
 10
-234.315002
 20
-35.791687
 11
-215.515015
 21
-35.791687
  0
LINE
  8
0
 10
-233.448975
 20
-36.291687
 11
-216.381042
 21
-36.291687
  0
LINE
  8
0
  6
DASHED
 10
-231.113831
 20
-26.141676
 11
-230.263840
 21
-25.291679
  0
LINE
  8
0
  6
DASHED
 10
-231.147598
 20
-26.141685
 11
-231.490219
 21
-36.291687
  0
LINE
  8
0
  6
DASHED
 10
-218.711121
 20
-26.141685
 11
-224.915009
 21
-26.141685
  0
LINE
  8
0
  6
DASHED
 10
-218.682419
 20
-26.141685
 11
-218.339813
 21
-36.291687
  0
LINE
  8
0
  6
DASHED
 10
-219.560623
 20
-25.320362
 11
-219.190292
 21
-36.291687
  0
LINE
  8
0
  6
DASHED
 10
-230.268417
 20
-25.291687
 11
-224.915009
 21
-25.291687
  0
LINE
  8
0
  6
DASHED
 10
-231.118912
 20
-26.141685
 11
-224.915009
 21
-26.141685
  0
LINE
  8
0
  6
DASHED
 10
-218.716187
 20
-26.141674
 11
-219.566177
 21
-25.291679
  0
LINE
  8
0
  6
DASHED
 10
-230.269394
 20
-25.320362
 11
-230.639725
 21
-36.291687
  0
LINE
  8
0
 10
-216.381042
 20
-36.291687
 11
-215.515015
 21
-35.791687
  0
LINE
  8
0
 10
-234.315002
 20
-35.791687
 11
-233.448975
 21
-36.291687
  0
LINE
  8
0
 10
-234.315002
 20
-25.758957
 11
-215.515015
 21
-25.758957
  0
LINE
  8
0
 10
-229.451904
 20
-13.491682
 11
-229.105484
 21
-12.891685
  0
LINE
  8
0
 10
-220.378113
 20
-13.491680
 11
-220.724533
 21
-12.891684
  0
LINE
  8
0
 10
-230.415009
 20
-14.047733
 11
-219.415009
 21
-14.047733
  0
LINE
  8
0
 10
-229.795761
 20
-25.758957
 11
-229.795761
 21
-35.791687
  0
LINE
  8
0
 10
-220.034256
 20
-25.758957
 11
-220.034256
 21
-35.791687
  0
POINT
  8
0
 10
-112.245026
 20
29.708664
  0
POINT
  8
0
 10
-104.162125
 20
29.708660
  0
LINE
  8
0
  6
CENTER
 10
-129.946304
 20
29.708673
 11
-93.703568
 21
29.708654
  0
LINE
  8
0
  6
CENTER
 10
-112.245018
 20
45.004917
 11
-112.245033
 21
15.151800
  0
LINE
  8
0
 10
-116.286484
 20
22.708666
 11
-108.203575
 21
22.708662
  0
LINE
  8
0
 10
-116.286476
 20
36.708664
 11
-108.203568
 21
36.708664
  0
LINE
  8
0
 10
-108.203575
 20
22.708664
 11
-104.162125
 21
29.708660
  0
LINE
  8
0
 10
-120.327927
 20
29.708668
 11
-116.286476
 21
36.708664
  0
LINE
  8
0
 10
-104.162125
 20
29.708658
 11
-108.203568
 21
36.708660
  0
LINE
  8
0
 10
-116.286484
 20
22.708666
 11
-120.327927
 21
29.708670
  0
CIRCLE
  8
0
 10
-112.245026
 20
29.708664
 40
3.100000
  0
CIRCLE
  8
0
 10
-112.245026
 20
29.708664
 40
6.500000
  0
CIRCLE
  8
0
 10
-112.245026
 20
29.708664
 40
5.900000
  0
POINT
  8
0
 10
-112.245026
 20
-36.291687
  0
POINT
  8
0
 10
-105.245033
 20
-36.291687
  0
LINE
  8
0
  6
CENTER
 10
-112.245026
 20
-2.018692
 11
-112.245026
 21
-40.337868
  0
LINE
  8
0
 10
-119.245018
 20
-36.291687
 11
-105.245033
 21
-36.291687
  0
LINE
  8
0
 10
-118.745026
 20
-26.291687
 11
-105.745026
 21
-26.291687
  0
LINE
  8
0
 10
-117.495026
 20
-14.391685
 11
-106.985931
 21
-14.391685
  0
LINE
  8
0
 10
-117.850533
 20
-14.991684
 11
-106.639526
 21
-14.991684
  0
LINE
  8
0
 10
-120.245026
 20
-27.791687
 11
-120.245026
 21
-35.291687
  0
LINE
  8
0
 10
-120.245018
 20
-35.291683
 11
-119.245018
 21
-36.291683
  0
LINE
  8
0
 10
-117.850533
 20
-14.991682
 11
-117.504120
 21
-14.391684
  0
LINE
  8
0
 10
-118.745026
 20
-15.508121
 11
-118.745026
 21
-26.291687
  0
LINE
  8
0
  6
DASHED
 10
-116.258209
 20
-28.291687
 11
-112.245026
 21
-28.291687
  0
LINE
  8
0
  6
DASHED
 10
-116.878021
 20
-28.891687
 11
-117.118523
 21
-36.291687
  0
LINE
  8
0
  6
DASHED
 10
-116.258835
 20
-28.311174
 11
-116.518196
 21
-36.291687
  0
LINE
  8
0
  6
DASHED
 10
-116.858528
 20
-28.891685
 11
-112.245026
 21
-28.891685
  0
LINE
  8
0
  6
DASHED
 10
-116.879669
 20
-28.942068
 11
-116.259186
 21
-28.321587
  0
LINE
  8
0
 10
-120.245026
 20
-27.791687
 11
-104.245026
 21
-27.791687
  0
LINE
  8
0
 10
-120.245026
 20
-35.291687
 11
-104.245033
 21
-35.291687
  0
LINE
  8
0
 10
-116.045029
 20
-27.791687
 11
-116.045029
 21
-35.291687
  0
LINE
  8
0
 10
-118.145027
 20
-9.591686
 11
-106.345024
 21
-9.591686
  0
LINE
  8
0
 10
-118.145027
 20
-11.391685
 11
-106.345024
 21
-11.391685
  0
LINE
  8
0
 10
-118.145027
 20
-9.591686
 11
-118.145027
 21
-11.391685
  0
LINE
  8
0
 10
-116.295029
 20
-11.391685
 11
-116.295029
 21
-12.591686
  0
LINE
  8
0
 10
-116.995026
 20
-12.591686
 11
-116.995026
 21
-14.391685
  0
LINE
  8
0
 10
-116.995026
 20
-12.591686
 11
-107.495026
 21
-12.591686
  0
LINE
  8
0
  6
DASHED
 10
-108.231842
 20
-28.291687
 11
-112.245026
 21
-28.291687
  0
LINE
  8
0
  6
DASHED
 10
-107.631523
 20
-28.891685
 11
-112.245026
 21
-28.891685
  0
LINE
  8
0
 10
-108.445023
 20
-27.791687
 11
-108.445023
 21
-35.291687
  0
LINE
  8
0
  6
DASHED
 10
-108.231232
 20
-28.311180
 11
-107.971863
 21
-36.291687
  0
LINE
  8
0
  6
DASHED
 10
-107.612045
 20
-28.891685
 11
-107.371536
 21
-36.291687
  0
LINE
  8
0
  6
DASHED
 10
-107.610405
 20
-28.942083
 11
-108.230888
 21
-28.321598
  0
LINE
  8
0
 10
-104.245041
 20
-35.291687
 11
-105.245033
 21
-36.291679
  0
LINE
  8
0
 10
-106.639519
 20
-14.991667
 11
-106.985924
 21
-14.391668
  0
LINE
  8
0
 10
-107.495026
 20
-12.591686
 11
-107.495026
 21
-14.391685
  0
LINE
  8
0
 10
-108.195023
 20
-11.391685
 11
-108.195023
 21
-12.591686
  0
LINE
  8
0
 10
-106.345024
 20
-9.591686
 11
-106.345024
 21
-11.391685
  0
LINE
  8
0
 10
-104.245026
 20
-27.791687
 11
-104.245026
 21
-35.291687
  0
LINE
  8
0
 10
-105.745026
 20
-15.513569
 11
-105.745026
 21
-26.291687
  0
LINE
  8
0
 10
-118.745026
 20
-26.291687
 11
-120.245026
 21
-27.791687
  0
LINE
  8
0
 10
-105.745026
 20
-26.291687
 11
-104.245026
 21
-27.791687
  0
LINE
  8
0
 10
-117.843460
 20
-14.987598
 11
-118.745026
 21
-15.508120
  0
LINE
  8
0
 10
-118.745026
 20
-15.508121
 11
-105.745026
 21
-15.508121
  0
LINE
  8
0
 10
-106.639519
 20
-14.991686
 11
-105.742676
 21
-15.509483
  0
POINT
  8
0
 10
0.424980
 20
28.708664
  0
POINT
  8
0
 10
10.239935
 20
28.708664
  0
LINE
  8
0
  6
CENTER
 10
0.424980
 20
45.043236
 11
0.424980
 21
12.118864
  0
LINE
  8
0
  6
CENTER
 10
-18.844709
 20
28.708664
 11
19.694670
 21
28.708664
  0
LINE
  8
0
 10
-4.482497
 20
37.208664
 11
5.332457
 21
37.208664
  0
LINE
  8
0
 10
-4.482497
 20
20.208664
 11
5.332457
 21
20.208664
  0
LINE
  8
0
 10
5.332457
 20
37.208664
 11
10.239935
 21
28.708664
  0
LINE
  8
0
 10
-9.389975
 20
28.708664
 11
-4.482497
 21
20.208664
  0
LINE
  8
0
 10
-9.389975
 20
28.708664
 11
-4.482497
 21
37.208664
  0
LINE
  8
0
 10
5.332457
 20
20.208664
 11
10.239935
 21
28.708664
  0
CIRCLE
  8
0
 10
0.424980
 20
28.708664
 40
5.900000
  0
CIRCLE
  8
0
 10
0.424980
 20
28.708664
 40
3.100000
  0
CIRCLE
  8
0
 10
0.420128
 20
28.699814
 40
7.500000
  0
POINT
  8
0
 10
0.424980
 20
-40.291687
  0
POINT
  8
0
 10
9.224983
 20
-40.291687
  0
LINE
  8
0
 10
-7.791588
 20
-40.291687
 11
9.224983
 21
-40.291687
  0
LINE
  8
0
  6
CENTER
 10
0.424980
 20
-3.794128
 11
0.424980
 21
-48.458973
  0
LINE
  8
0
 10
-8.375023
 20
-40.291687
 11
8.922424
 21
-40.291687
  0
LINE
  8
0
  6
DASHED
 10
-5.807607
 20
-30.141678
 11
-6.150937
 21
-40.312828
  0
LINE
  8
0
  6
DASHED
 10
-4.928429
 20
-29.291687
 11
5.715202
 21
-29.291687
  0
LINE
  8
0
  6
DASHED
 10
-4.929413
 20
-29.320374
 11
-5.301435
 21
-40.341518
  0
LINE
  8
0
  6
DASHED
 10
-5.778908
 20
-30.141685
 11
0.424980
 21
-30.141685
  0
LINE
  8
0
  6
DASHED
 10
-5.773830
 20
-30.141684
 11
-4.923837
 21
-29.291691
  0
LINE
  8
0
  6
DASHED
 10
5.778404
 20
-29.291687
 11
0.424980
 21
-29.291687
  0
LINE
  8
0
  6
DASHED
 10
6.628883
 20
-30.141685
 11
0.424980
 21
-30.141685
  0
LINE
  8
0
  6
DASHED
 10
5.779363
 20
-29.320366
 11
6.151384
 21
-40.341503
  0
LINE
  8
0
  6
DASHED
 10
6.657570
 20
-30.141693
 11
7.000900
 21
-40.312828
  0
LINE
  8
0
  6
DASHED
 10
6.623782
 20
-30.141685
 11
5.773786
 21
-29.291693
  0
LINE
  8
0
 10
-6.075020
 20
-16.541687
 11
6.954674
 21
-16.541687
  0
LINE
  8
0
 10
-7.075020
 20
-27.291687
 11
7.861786
 21
-27.291687
  0
LINE
  8
0
 10
-4.825020
 20
-15.391685
 11
5.685356
 21
-15.391685
  0
LINE
  8
0
 10
-5.181801
 20
-15.991684
 11
6.031776
 21
-15.991684
  0
LINE
  8
0
 10
-6.075020
 20
-16.533920
 11
-6.075020
 21
-27.291687
  0
LINE
  8
0
 10
-9.375023
 20
-29.654877
 11
-9.375023
 21
-39.291687
  0
LINE
  8
0
 10
-7.075016
 20
-27.354866
 11
-9.375022
 21
-29.654875
  0
LINE
  8
0
 10
-5.181799
 20
-15.991686
 11
-4.835387
 21
-15.391682
  0
LINE
  8
0
 10
-5.135834
 20
-15.991674
 11
-6.075015
 21
-16.533911
  0
LINE
  8
0
 10
-8.375023
 20
-40.291687
 11
-9.375024
 21
-39.291687
  0
LINE
  8
0
 10
-9.375023
 20
-39.291687
 11
0.424980
 21
-39.291687
  0
LINE
  8
0
 10
-9.375023
 20
-29.591690
 11
-6.379189
 21
-29.591690
  0
LINE
  8
0
 10
-4.575020
 20
-29.591690
 11
-4.575020
 21
-39.291687
  0
LINE
  8
0
 10
-6.615181
 20
-29.591690
 11
10.224983
 21
-29.591690
  0
LINE
  8
0
 10
-5.475014
 20
-10.591682
 11
6.324974
 21
-10.591682
  0
LINE
  8
0
 10
-5.475014
 20
-12.391685
 11
6.324974
 21
-12.391685
  0
LINE
  8
0
 10
-4.325020
 20
-13.591682
 11
5.174980
 21
-13.591682
  0
LINE
  8
0
 10
-3.625023
 20
-12.391685
 11
-3.625023
 21
-13.591682
  0
LINE
  8
0
 10
-5.475014
 20
-10.591682
 11
-5.475014
 21
-12.391685
  0
LINE
  8
0
 10
-4.325020
 20
-13.591682
 11
-4.325020
 21
-15.391685
  0
LINE
  8
0
 10
10.224983
 20
-39.291687
 11
0.424980
 21
-39.291687
  0
LINE
  8
0
 10
5.424980
 20
-29.591690
 11
5.424980
 21
-39.291687
  0
LINE
  8
0
 10
9.224977
 20
-40.291691
 11
10.224978
 21
-39.291691
  0
LINE
  8
0
 10
10.224983
 20
-29.654877
 11
10.224983
 21
-39.291687
  0
LINE
  8
0
 10
7.924964
 20
-27.354887
 11
10.224967
 21
-29.654898
  0
LINE
  8
0
 10
6.924980
 20
-16.533920
 11
6.924980
 21
-27.291687
  0
LINE
  8
0
 10
5.985812
 20
-15.991673
 11
6.924992
 21
-16.533911
  0
LINE
  8
0
 10
6.031776
 20
-15.991693
 11
5.685357
 21
-15.391689
  0
LINE
  8
0
 10
5.174980
 20
-13.591682
 11
5.174980
 21
-15.391685
  0
LINE
  8
0
 10
4.474983
 20
-12.391685
 11
4.474983
 21
-13.591682
  0
LINE
  8
0
 10
6.324974
 20
-10.591682
 11
6.324974
 21
-12.391685
  0
POINT
  8
0
 10
113.094971
 20
-40.291687
  0
POINT
  8
0
 10
120.094955
 20
-40.291687
  0
LINE
  8
0
 10
106.094971
 20
-40.291687
 11
120.094955
 21
-40.291687
  0
LINE
  8
0
  6
CENTER
 10
113.094971
 20
-2.279819
 11
113.094971
 21
-50.262012
  0
LINE
  8
0
 10
106.094978
 20
-40.291676
 11
105.094978
 21
-39.291679
  0
LINE
  8
0
  6
DASHED
 10
109.159348
 20
-32.291687
 11
117.030609
 21
-32.291687
  0
LINE
  8
0
  6
DASHED
 10
108.250328
 20
-40.292370
 11
108.535751
 21
-32.891685
  0
LINE
  8
0
  6
DASHED
 10
108.849876
 20
-40.315495
 11
109.157646
 21
-32.335587
  0
LINE
  8
0
  6
DASHED
 10
108.536110
 20
-32.882271
 11
109.174080
 21
-32.291687
  0
LINE
  8
0
  6
DASHED
 10
108.558899
 20
-32.891685
 11
117.654190
 21
-32.891685
  0
LINE
  8
0
  6
DASHED
 10
117.939621
 20
-40.292377
 11
117.654190
 21
-32.891693
  0
LINE
  8
0
  6
DASHED
 10
117.340073
 20
-40.315495
 11
117.032303
 21
-32.335587
  0
LINE
  8
0
  6
DASHED
 10
117.653824
 20
-32.882259
 11
117.015854
 21
-32.291676
  0
LINE
  8
0
 10
105.844971
 20
-18.191689
 11
120.344971
 21
-18.191689
  0
LINE
  8
0
 10
105.844971
 20
-30.291687
 11
120.344971
 21
-30.291687
  0
LINE
  8
0
 10
106.537796
 20
-17.791687
 11
119.652145
 21
-17.791687
  0
LINE
  8
0
 10
105.844971
 20
-18.191689
 11
105.844971
 21
-30.291687
  0
LINE
  8
0
 10
105.094971
 20
-31.102554
 11
105.094971
 21
-39.291687
  0
LINE
  8
0
 10
105.094978
 20
-39.291687
 11
106.094971
 21
-40.291687
  0
LINE
  8
0
 10
105.905838
 20
-30.291691
 11
105.094978
 21
-31.102556
  0
LINE
  8
0
 10
105.094971
 20
-39.291687
 11
121.094971
 21
-39.291687
  0
LINE
  8
0
 10
105.094971
 20
-31.091690
 11
121.084106
 21
-31.091690
  0
LINE
  8
0
 10
109.594971
 20
-31.091690
 11
109.594971
 21
-39.291687
  0
LINE
  8
0
 10
116.594971
 20
-31.091690
 11
116.594971
 21
-39.291687
  0
LINE
  8
0
 10
120.094971
 20
-40.291672
 11
121.094963
 21
-39.291683
  0
LINE
  8
0
 10
120.284103
 20
-30.291693
 11
121.094963
 21
-31.102552
  0
LINE
  8
0
 10
120.344971
 20
-18.209229
 11
120.344971
 21
-30.291687
  0
LINE
  8
0
 10
121.094971
 20
-31.102554
 11
121.094971
 21
-39.291687
  0
LINE
  8
0
 10
119.994972
 20
-12.091690
 11
119.994972
 21
-14.091690
  0
LINE
  8
0
 10
117.994972
 20
-14.091690
 11
117.994972
 21
-15.091690
  0
LINE
  8
0
 10
118.794968
 20
-15.091690
 11
118.794968
 21
-17.191689
  0
LINE
  8
0
 10
106.194969
 20
-12.091690
 11
119.994972
 21
-12.091690
  0
LINE
  8
0
 10
106.194969
 20
-14.091690
 11
119.994972
 21
-14.091690
  0
LINE
  8
0
 10
108.194969
 20
-14.091690
 11
108.194969
 21
-15.091690
  0
LINE
  8
0
 10
106.194969
 20
-12.091690
 11
106.194969
 21
-14.091690
  0
LINE
  8
0
 10
107.394974
 20
-15.091690
 11
107.394974
 21
-17.191689
  0
LINE
  8
0
 10
107.394974
 20
-15.091690
 11
118.794968
 21
-15.091690
  0
LINE
  8
0
 10
106.537788
 20
-17.791683
 11
105.837379
 21
-18.196070
  0
LINE
  8
0
 10
106.534821
 20
-17.796829
 11
106.884201
 21
-17.191689
  0
LINE
  8
0
 10
106.884201
 20
-17.191689
 11
119.305740
 21
-17.191689
  0
LINE
  8
0
 10
119.652145
 20
-17.791689
 11
119.305740
 21
-17.191692
  0
LINE
  8
0
 10
119.652153
 20
-17.791685
 11
120.352562
 21
-18.196072
  0
POINT
  8
0
 10
225.764954
 20
28.708664
  0
POINT
  8
0
 10
235.565521
 20
28.708664
  0
LINE
  8
0
  6
CENTER
 10
225.764954
 20
44.735901
 11
225.764954
 21
11.819550
  0
LINE
  8
0
  6
CENTER
 10
203.655899
 20
28.708664
 11
247.561752
 21
28.708664
  0
LINE
  8
0
 10
220.902832
 20
37.191948
 11
230.667694
 21
37.191948
  0
LINE
  8
0
 10
216.005005
 20
28.708670
 11
220.902832
 21
37.191948
  0
LINE
  8
0
 10
235.565536
 20
28.708662
 11
230.667709
 21
37.191956
  0
LINE
  8
0
 10
216.005020
 20
28.708668
 11
220.902847
 21
20.225389
  0
LINE
  8
0
 10
220.902832
 20
20.225380
 11
230.667694
 21
20.225380
  0
LINE
  8
0
 10
235.565521
 20
28.708664
 11
230.667694
 21
20.225372
  0
CIRCLE
  8
0
 10
225.764954
 20
28.708664
 40
6.900000
  0
CIRCLE
  8
0
 10
225.764954
 20
28.708664
 40
4.100000
  0
CIRCLE
  8
0
 10
225.764954
 20
28.708664
 40
7.500000
  0
POINT
  8
0
 10
225.764954
 20
-40.291687
  0
POINT
  8
0
 10
234.564941
 20
-40.291687
  0
LINE
  8
0
 10
230.764954
 20
-30.091690
 11
230.764954
 21
-39.291687
  0
LINE
  8
0
  6
CENTER
 10
225.764954
 20
-0.731396
 11
225.764954
 21
-47.693291
  0
LINE
  8
0
  6
DASHED
 10
231.119339
 20
-29.320366
 11
231.491348
 21
-40.341511
  0
LINE
  8
0
  6
DASHED
 10
219.532364
 20
-30.141693
 11
219.189041
 21
-40.312828
  0
LINE
  8
0
  6
DASHED
 10
220.411530
 20
-29.291687
 11
225.764954
 21
-29.291687
  0
LINE
  8
0
  6
DASHED
 10
220.410568
 20
-29.320366
 11
220.038559
 21
-40.341503
  0
LINE
  8
0
  6
DASHED
 10
219.561066
 20
-30.141685
 11
225.764954
 21
-30.141685
  0
LINE
  8
0
  6
DASHED
 10
219.566132
 20
-30.141685
 11
220.416138
 21
-29.291687
  0
LINE
  8
0
  6
DASHED
 10
231.997589
 20
-30.141684
 11
232.340927
 21
-40.312817
  0
LINE
  8
0
  6
DASHED
 10
231.118362
 20
-29.291687
 11
225.764954
 21
-29.291687
  0
LINE
  8
0
  6
DASHED
 10
231.963791
 20
-30.141647
 11
231.113800
 21
-29.291655
  0
LINE
  8
0
  6
DASHED
 10
231.968842
 20
-30.141685
 11
225.764954
 21
-30.141685
  0
LINE
  8
0
 10
219.195908
 20
-14.791693
 11
219.542313
 21
-14.191694
  0
LINE
  8
0
 10
219.238174
 20
-14.791687
 11
218.514954
 21
-15.209232
  0
LINE
  8
0
 10
218.864960
 20
-9.091690
 11
232.664948
 21
-9.091690
  0
LINE
  8
0
 10
218.864960
 20
-11.091690
 11
232.664948
 21
-11.091690
  0
LINE
  8
0
 10
220.864960
 20
-11.091690
 11
220.864960
 21
-12.091690
  0
LINE
  8
0
 10
218.864960
 20
-9.091690
 11
218.864960
 21
-11.091690
  0
LINE
  8
0
 10
220.064957
 20
-12.091690
 11
220.064957
 21
-14.191689
  0
LINE
  8
0
 10
220.064957
 20
-12.091690
 11
231.464951
 21
-12.091690
  0
LINE
  8
0
 10
232.334015
 20
-14.791683
 11
231.987595
 21
-14.191685
  0
LINE
  8
0
 10
231.464951
 20
-12.091690
 11
231.464951
 21
-14.191689
  0
LINE
  8
0
 10
230.664948
 20
-11.091690
 11
230.664948
 21
-12.091690
  0
LINE
  8
0
 10
232.664948
 20
-9.091690
 11
232.664948
 21
-11.091690
  0
LINE
  8
0
 10
216.964951
 20
-40.291687
 11
234.564941
 21
-40.291687
  0
LINE
  8
0
 10
218.264954
 20
-27.791687
 11
233.264954
 21
-27.791687
  0
LINE
  8
0
 10
219.514954
 20
-14.191689
 11
231.987595
 21
-14.191689
  0
LINE
  8
0
 10
219.272186
 20
-14.791687
 11
232.291718
 21
-14.791687
  0
LINE
  8
0
 10
218.264954
 20
-15.373207
 11
218.264954
 21
-27.791687
  0
LINE
  8
0
 10
215.964951
 20
-30.102852
 11
215.964951
 21
-39.291687
  0
LINE
  8
0
 10
219.188187
 20
-14.791685
 11
219.534592
 21
-14.191690
  0
LINE
  8
0
 10
219.272186
 20
-14.791693
 11
218.264954
 21
-15.373215
  0
LINE
  8
0
 10
218.276123
 20
-27.791697
 11
215.964966
 21
-30.102863
  0
LINE
  8
0
 10
215.964935
 20
-39.291687
 11
216.964935
 21
-40.291687
  0
LINE
  8
0
 10
215.964951
 20
-39.291687
 11
235.564941
 21
-39.291687
  0
LINE
  8
0
 10
215.964951
 20
-30.091690
 11
235.553772
 21
-30.091690
  0
LINE
  8
0
 10
218.264954
 20
-15.391685
 11
233.264954
 21
-15.391685
  0
LINE
  8
0
 10
219.514954
 20
-14.191689
 11
231.987595
 21
-14.191689
  0
LINE
  8
0
 10
232.291733
 20
-14.791721
 11
233.014938
 21
-15.209261
  0
LINE
  8
0
 10
233.264954
 20
-15.373207
 11
233.264954
 21
-27.791687
  0
LINE
  8
0
 10
233.253799
 20
-27.791695
 11
235.564957
 21
-30.102863
  0
LINE
  8
0
 10
235.564957
 20
-39.291676
 11
234.564957
 21
-40.291679
  0
LINE
  8
0
 10
235.564941
 20
-30.102852
 11
235.564941
 21
-39.291687
  0
LINE
  8
0
 10
220.764954
 20
-30.091690
 11
220.764954
 21
-39.291687
  0
POINT
  8
0
 10
-224.915009
 20
-100.458008
  0
POINT
  8
0
 10
-212.790649
 20
-100.458008
  0
LINE
  8
0
  6
CENTER
 10
-224.915009
 20
-83.958008
 11
-224.915009
 21
-117.458008
  0
LINE
  8
0
  6
CENTER
 10
-249.415009
 20
-100.458008
 11
-200.285538
 21
-100.458008
  0
LINE
  8
0
 10
-230.977188
 20
-89.958008
 11
-218.852829
 21
-89.958008
  0
LINE
  8
0
 10
-230.977188
 20
-110.958008
 11
-218.852829
 21
-110.958008
  0
LINE
  8
0
 10
-237.039352
 20
-100.458008
 11
-230.977173
 21
-89.958008
  0
LINE
  8
0
 10
-218.852844
 20
-110.958008
 11
-212.790665
 21
-100.458008
  0
LINE
  8
0
 10
-237.039368
 20
-100.458015
 11
-230.977188
 21
-110.958015
  0
LINE
  8
0
 10
-218.852829
 20
-89.958008
 11
-212.790649
 21
-100.457993
  0
CIRCLE
  8
0
 10
-224.915009
 20
-100.458008
 40
6.900000
  0
CIRCLE
  8
0
 10
-224.915009
 20
-100.458008
 40
7.500000
  0
CIRCLE
  8
0
 10
-224.915009
 20
-100.458008
 40
4.100000
  0
POINT
  8
0
 10
-224.915009
 20
-161.458359
  0
POINT
  8
0
 10
-212.815002
 20
-161.458359
  0
LINE
  8
0
  6
DASHED
 10
-217.790405
 20
-149.458359
 11
-216.964188
 21
-150.284592
  0
LINE
  8
0
  6
DASHED
 10
-232.865845
 20
-150.284561
 11
-232.039642
 21
-149.458359
  0
LINE
  8
0
  6
CENTER
 10
-224.915009
 20
-123.408356
 11
-224.915009
 21
-172.908356
  0
LINE
  8
0
 10
-237.015015
 20
-161.458359
 11
-212.815002
 21
-161.458359
  0
LINE
  8
0
 10
-231.264999
 20
-134.358353
 11
-218.565002
 21
-134.358353
  0
LINE
  8
0
 10
-231.611420
 20
-134.958359
 11
-218.218597
 21
-134.958359
  0
LINE
  8
0
 10
-232.415009
 20
-135.422302
 11
-232.415009
 21
-147.458359
  0
LINE
  8
0
 10
-217.415009
 20
-135.422318
 11
-217.415009
 21
-147.458359
  0
LINE
  8
0
 10
-231.611435
 20
-134.958344
 11
-231.265015
 21
-134.358353
  0
LINE
  8
0
 10
-218.565018
 20
-134.358368
 11
-218.218613
 21
-134.958359
  0
LINE
  8
0
 10
-232.415009
 20
-135.422302
 11
-231.611420
 21
-134.958344
  0
LINE
  8
0
 10
-218.218613
 20
-134.958359
 11
-217.415009
 21
-135.422318
  0
LINE
  8
0
 10
-232.415009
 20
-135.422379
 11
-217.415009
 21
-135.422379
  0
LINE
  8
0
 10
-233.415009
 20
-147.458359
 11
-216.415009
 21
-147.458359
  0
LINE
  8
0
 10
-237.015030
 20
-151.058350
 11
-233.415039
 21
-147.458344
  0
LINE
  8
0
 10
-216.415024
 20
-147.458359
 11
-212.815018
 21
-151.058365
  0
LINE
  8
0
 10
-212.815002
 20
-151.058365
 11
-212.815002
 21
-161.458359
  0
LINE
  8
0
 10
-237.015015
 20
-151.058365
 11
-237.015015
 21
-161.458359
  0
LINE
  8
0
 10
-237.015015
 20
-151.058365
 11
-212.815002
 21
-151.058365
  0
LINE
  8
0
 10
-218.915009
 20
-151.058365
 11
-218.915009
 21
-161.458359
  0
LINE
  8
0
 10
-230.915009
 20
-151.058365
 11
-230.915009
 21
-161.458359
  0
LINE
  8
0
 10
-230.615005
 20
-132.258362
 11
-219.215012
 21
-132.258362
  0
LINE
  8
0
 10
-231.815002
 20
-129.258362
 11
-218.015015
 21
-129.258362
  0
LINE
  8
0
 10
-230.615005
 20
-132.258362
 11
-230.615005
 21
-134.358353
  0
LINE
  8
0
 10
-219.215012
 20
-132.258362
 11
-219.215012
 21
-134.358353
  0
LINE
  8
0
 10
-231.815002
 20
-131.258362
 11
-218.015015
 21
-131.258362
  0
LINE
  8
0
 10
-220.015015
 20
-131.258362
 11
-220.015015
 21
-132.258362
  0
LINE
  8
0
 10
-229.815002
 20
-131.258362
 11
-229.815002
 21
-132.258362
  0
LINE
  8
0
 10
-218.015015
 20
-129.258362
 11
-218.015015
 21
-131.258362
  0
LINE
  8
0
 10
-231.815002
 20
-129.258362
 11
-231.815002
 21
-131.258362
  0
LINE
  8
0
  6
DASHED
 10
-232.865829
 20
-150.284576
 11
-233.215012
 21
-161.458359
  0
LINE
  8
0
  6
DASHED
 10
-216.964172
 20
-150.284576
 11
-216.615005
 21
-161.458359
  0
LINE
  8
0
  6
DASHED
 10
-232.039627
 20
-149.458359
 11
-232.415405
 21
-161.483353
  0
LINE
  8
0
  6
DASHED
 10
-217.790405
 20
-149.458359
 11
-217.414612
 21
-161.483353
  0
LINE
  8
0
  6
DASHED
 10
-232.039627
 20
-149.458359
 11
-217.790405
 21
-149.458359
  0
LINE
  8
0
  6
DASHED
 10
-232.865829
 20
-150.284576
 11
-216.964172
 21
-150.284576
  0
POINT
  8
0
  6
DASHED
 10
-112.245026
 20
-100.458008
  0
POINT
  8
0
  6
DASHED
 10
-102.430077
 20
-100.458008
  0
LINE
  8
0
  6
CENTER
 10
-129.983353
 20
-100.458008
 11
-92.720108
 21
-100.458008
  0
LINE
  8
0
  6
CENTER
 10
-112.245026
 20
-84.879372
 11
-112.245026
 21
-117.282928
  0
LINE
  8
0
 10
-117.152504
 20
-108.958008
 11
-107.337555
 21
-108.958008
  0
LINE
  8
0
 10
-117.152504
 20
-91.958008
 11
-107.337555
 21
-91.958008
  0
LINE
  8
0
 10
-122.059990
 20
-100.458008
 11
-117.152512
 21
-91.958008
  0
LINE
  8
0
 10
-107.337555
 20
-108.958015
 11
-102.430077
 21
-100.458015
  0
LINE
  8
0
 10
-122.059982
 20
-100.458015
 11
-117.152504
 21
-108.958008
  0
LINE
  8
0
 10
-107.337555
 20
-91.958008
 11
-102.430069
 21
-100.458008
  0
CIRCLE
  8
0
 10
-112.245026
 20
-100.458008
 40
5.100000
  0
CIRCLE
  8
0
 10
-112.245026
 20
-100.458008
 40
8.500000
  0
POINT
  8
0
 10
-112.245026
 20
-161.458359
  0
POINT
  8
0
 10
-102.445023
 20
-161.458359
  0
LINE
  8
0
  6
DASHED
 10
-118.477104
 20
-151.284561
 11
-117.650894
 21
-150.458344
  0
LINE
  8
0
  6
DASHED
 10
-106.839165
 20
-150.458359
 11
-106.012955
 21
-151.284576
  0
LINE
  8
0
  6
CENTER
 10
-112.245026
 20
-123.684662
 11
-112.245026
 21
-171.157013
  0
LINE
  8
0
 10
-120.145027
 20
-133.058365
 11
-104.345024
 21
-133.058365
  0
LINE
  8
0
 10
-122.045029
 20
-161.458359
 11
-102.445023
 21
-161.458359
  0
LINE
  8
0
 10
-120.491440
 20
-133.658356
 11
-103.998611
 21
-133.658356
  0
LINE
  8
0
 10
-120.491447
 20
-133.658371
 11
-120.145035
 21
-133.058365
  0
LINE
  8
0
 10
-104.345016
 20
-133.058350
 11
-103.998611
 21
-133.658356
  0
LINE
  8
0
 10
-120.995026
 20
-133.949112
 11
-120.995026
 21
-148.458359
  0
LINE
  8
0
 10
-103.495026
 20
-133.949112
 11
-103.495026
 21
-148.458359
  0
LINE
  8
0
 10
-120.995026
 20
-133.949097
 11
-120.491440
 21
-133.658356
  0
LINE
  8
0
 10
-103.998627
 20
-133.658340
 11
-103.495026
 21
-133.949097
  0
LINE
  8
0
 10
-120.995026
 20
-133.949112
 11
-103.495026
 21
-133.949112
  0
LINE
  8
0
 10
-120.995026
 20
-148.458359
 11
-103.495026
 21
-148.458359
  0
LINE
  8
0
 10
-102.445023
 20
-149.508362
 11
-102.445023
 21
-161.458359
  0
LINE
  8
0
 10
-122.045029
 20
-149.508362
 11
-122.045029
 21
-161.458359
  0
LINE
  8
0
 10
-122.045029
 20
-149.508347
 11
-120.995033
 21
-148.458359
  0
LINE
  8
0
 10
-103.495026
 20
-148.458359
 11
-102.445030
 21
-149.508362
  0
LINE
  8
0
 10
-122.045029
 20
-149.508362
 11
-102.445023
 21
-149.508362
  0
LINE
  8
0
 10
-107.345024
 20
-149.508362
 11
-107.345024
 21
-161.458359
  0
LINE
  8
0
 10
-117.145027
 20
-149.508362
 11
-117.145027
 21
-161.458359
  0
LINE
  8
0
 10
-119.245026
 20
-130.858368
 11
-105.245026
 21
-130.858368
  0
LINE
  8
0
 10
-120.645027
 20
-127.458359
 11
-103.845024
 21
-127.458359
  0
LINE
  8
0
 10
-105.245026
 20
-130.858368
 11
-105.245026
 21
-133.058365
  0
LINE
  8
0
 10
-119.245026
 20
-130.858368
 11
-119.245026
 21
-133.058365
  0
LINE
  8
0
 10
-120.645027
 20
-129.658356
 11
-103.845024
 21
-129.658356
  0
LINE
  8
0
 10
-118.245026
 20
-129.658356
 11
-118.245026
 21
-130.858368
  0
LINE
  8
0
 10
-106.245026
 20
-129.658356
 11
-106.245026
 21
-130.858368
  0
LINE
  8
0
 10
-120.645027
 20
-127.458359
 11
-120.645027
 21
-129.658356
  0
LINE
  8
0
 10
-103.845024
 20
-127.458359
 11
-103.845024
 21
-129.658356
  0
LINE
  8
0
  6
DASHED
 10
-118.477089
 20
-151.284561
 11
-118.795021
 21
-161.458359
  0
LINE
  8
0
  6
DASHED
 10
-106.012955
 20
-151.284576
 11
-105.695030
 21
-161.458359
  0
LINE
  8
0
  6
DASHED
 10
-117.650887
 20
-150.458359
 11
-117.995415
 21
-161.483337
  0
LINE
  8
0
  6
DASHED
 10
-106.839165
 20
-150.458359
 11
-106.494637
 21
-161.483337
  0
LINE
  8
0
  6
DASHED
 10
-117.650887
 20
-150.458359
 11
-106.839165
 21
-150.458359
  0
LINE
  8
0
  6
DASHED
 10
-118.477089
 20
-151.284561
 11
-106.012955
 21
-151.284561
  0
POINT
  8
0
  6
DASHED
 10
0.424988
 20
-100.458008
  0
POINT
  8
0
  6
DASHED
 10
12.549332
 20
-100.458008
  0
LINE
  8
0
  6
CENTER
 10
-21.141750
 20
-100.458008
 11
23.267866
 21
-100.458008
  0
LINE
  8
0
  6
CENTER
 10
0.424988
 20
-84.256226
 11
0.424988
 21
-117.282928
  0
LINE
  8
0
 10
-5.637192
 20
-89.958008
 11
6.487152
 21
-89.958008
  0
LINE
  8
0
 10
-5.637199
 20
-110.958008
 11
6.487167
 21
-110.958008
  0
LINE
  8
0
 10
-11.699378
 20
-100.458023
 11
-5.637198
 21
-89.958015
  0
LINE
  8
0
 10
6.487172
 20
-110.958015
 11
12.549352
 21
-100.458008
  0
LINE
  8
0
 10
6.487154
 20
-89.958008
 11
12.549334
 21
-100.458008
  0
LINE
  8
0
 10
-11.699352
 20
-100.458000
 11
-5.637173
 21
-110.958008
  0
CIRCLE
  8
0
 10
0.424988
 20
-100.458008
 40
5.100000
  0
CIRCLE
  8
0
 10
0.424988
 20
-100.458008
 40
8.400000
  0
POINT
  8
0
 10
0.424988
 20
-161.458359
  0
POINT
  8
0
 10
12.524994
 20
-161.458359
  0
LINE
  8
0
  6
DASHED
 10
-7.525832
 20
-150.284576
 11
-6.699619
 21
-149.458374
  0
LINE
  8
0
  6
DASHED
 10
7.549588
 20
-149.458359
 11
8.375807
 21
-150.284576
  0
LINE
  8
0
  6
CENTER
 10
0.424988
 20
-121.658661
 11
0.424988
 21
-171.658661
  0
LINE
  8
0
 10
-11.675011
 20
-161.458359
 11
12.524994
 21
-161.458359
  0
LINE
  8
0
 10
-7.475014
 20
-132.058365
 11
8.324982
 21
-132.058365
  0
LINE
  8
0
 10
-7.821426
 20
-132.658356
 11
8.671402
 21
-132.658356
  0
LINE
  8
0
 10
-8.325012
 20
-132.949112
 11
-8.325012
 21
-146.458359
  0
LINE
  8
0
 10
9.174988
 20
-132.949097
 11
9.174988
 21
-146.458359
  0
LINE
  8
0
 10
-7.821425
 20
-132.658356
 11
-7.475013
 21
-132.058350
  0
LINE
  8
0
 10
8.324989
 20
-132.058365
 11
8.671400
 21
-132.658356
  0
LINE
  8
0
 10
-8.325018
 20
-132.949097
 11
-7.821426
 21
-132.658356
  0
LINE
  8
0
 10
8.671412
 20
-132.658356
 11
9.174983
 21
-132.949081
  0
LINE
  8
0
 10
-8.325012
 20
-132.949158
 11
9.174988
 21
-132.949158
  0
LINE
  8
0
 10
-8.325012
 20
-146.458359
 11
9.174988
 21
-146.458359
  0
LINE
  8
0
 10
12.524994
 20
-149.808350
 11
12.524994
 21
-161.458359
  0
LINE
  8
0
 10
-11.675011
 20
-149.808350
 11
-11.675011
 21
-161.458359
  0
LINE
  8
0
 10
6.474991
 20
-149.808350
 11
6.474991
 21
-161.458359
  0
LINE
  8
0
 10
-5.625015
 20
-149.808350
 11
-5.625015
 21
-161.458359
  0
LINE
  8
0
 10
-11.675010
 20
-149.808350
 11
-8.325013
 21
-146.458359
  0
LINE
  8
0
 10
9.174995
 20
-146.458344
 11
12.525000
 21
-149.808350
  0
LINE
  8
0
 10
-11.675011
 20
-149.808334
 11
12.524994
 21
-149.808334
  0
LINE
  8
0
 10
-5.575012
 20
-129.858368
 11
6.424988
 21
-129.858368
  0
LINE
  8
0
 10
-7.975014
 20
-126.458359
 11
8.824982
 21
-126.458359
  0
LINE
  8
0
 10
4.424988
 20
-128.658356
 11
4.424988
 21
-129.858368
  0
LINE
  8
0
 10
-3.575012
 20
-128.658356
 11
-3.575012
 21
-129.858368
  0
LINE
  8
0
 10
-7.975014
 20
-128.658356
 11
8.824982
 21
-128.658356
  0
LINE
  8
0
 10
-5.575012
 20
-129.858368
 11
-5.575012
 21
-132.058365
  0
LINE
  8
0
 10
6.424988
 20
-129.858368
 11
6.424988
 21
-132.058365
  0
LINE
  8
0
 10
8.824982
 20
-126.458359
 11
8.824982
 21
-128.658356
  0
LINE
  8
0
 10
-7.975014
 20
-126.458359
 11
-7.975014
 21
-128.658356
  0
LINE
  8
0
  6
DASHED
 10
-7.525844
 20
-150.284576
 11
-7.875025
 21
-161.458359
  0
LINE
  8
0
  6
DASHED
 10
8.375802
 20
-150.284576
 11
8.724983
 21
-161.458359
  0
LINE
  8
0
  6
DASHED
 10
-6.699626
 20
-149.458359
 11
-7.075407
 21
-161.483353
  0
LINE
  8
0
  6
DASHED
 10
7.549593
 20
-149.458359
 11
7.925375
 21
-161.483353
  0
LINE
  8
0
  6
DASHED
 10
-6.699623
 20
-149.458359
 11
7.549591
 21
-149.458359
  0
LINE
  8
0
  6
DASHED
 10
-7.525844
 20
-150.284576
 11
8.375802
 21
-150.284576
  0
POINT
  8
0
  6
DASHED
 10
125.219330
 20
-100.458008
  0
POINT
  8
0
  6
DASHED
 10
113.094971
 20
-100.458008
  0
LINE
  8
0
  6
CENTER
 10
113.094971
 20
-80.458008
 11
113.094971
 21
-117.958008
  0
LINE
  8
0
  6
CENTER
 10
87.594971
 20
-100.458008
 11
139.000580
 21
-100.458008
  0
LINE
  8
0
 10
107.032791
 20
-89.958008
 11
119.157150
 21
-89.958008
  0
LINE
  8
0
 10
107.032791
 20
-110.958008
 11
119.157150
 21
-110.958008
  0
LINE
  8
0
 10
100.970612
 20
-100.458000
 11
107.032791
 21
-89.958000
  0
LINE
  8
0
 10
119.157143
 20
-110.958015
 11
125.219322
 21
-100.458015
  0
LINE
  8
0
 10
119.157158
 20
-89.958015
 11
125.219337
 21
-100.458015
  0
LINE
  8
0
 10
100.970604
 20
-100.458015
 11
107.032784
 21
-110.958008
  0
CIRCLE
  8
0
 10
113.094971
 20
-100.458008
 40
6.100000
  0
CIRCLE
  8
0
 10
113.094971
 20
-100.458008
 40
9.900000
  0
CIRCLE
  8
0
 10
113.094971
 20
-100.458008
 40
10.400000
  0
POINT
  8
0
 10
113.094971
 20
-161.458359
  0
POINT
  8
0
 10
125.194969
 20
-161.458359
  0
LINE
  8
0
  6
DASHED
 10
106.862900
 20
-151.284561
 11
107.689110
 21
-150.458359
  0
LINE
  8
0
  6
DASHED
 10
107.689117
 20
-150.458359
 11
118.500832
 21
-150.458359
  0
LINE
  8
0
  6
DASHED
 10
118.500832
 20
-150.458374
 11
119.327034
 21
-151.284576
  0
LINE
  8
0
  6
CENTER
 10
113.094971
 20
-122.434334
 11
113.094971
 21
-171.508362
  0
LINE
  8
0
 10
103.694977
 20
-130.558365
 11
122.494972
 21
-130.558365
  0
LINE
  8
0
 10
100.994965
 20
-161.458359
 11
125.194969
 21
-161.458359
  0
LINE
  8
0
 10
103.348572
 20
-131.158356
 11
122.841385
 21
-131.158356
  0
LINE
  8
0
 10
123.494972
 20
-131.535706
 11
123.494972
 21
-148.458359
  0
LINE
  8
0
 10
102.694977
 20
-131.535706
 11
102.694977
 21
-148.458359
  0
LINE
  8
0
 10
103.348557
 20
-131.158356
 11
103.694969
 21
-130.558350
  0
LINE
  8
0
 10
122.494965
 20
-130.558365
 11
122.841370
 21
-131.158356
  0
LINE
  8
0
 10
102.694962
 20
-131.535721
 11
103.348564
 21
-131.158356
  0
LINE
  8
0
 10
122.841385
 20
-131.158371
 11
123.494972
 21
-131.535721
  0
LINE
  8
0
 10
102.694977
 20
-131.535690
 11
123.494972
 21
-131.535690
  0
LINE
  8
0
 10
102.694977
 20
-148.458359
 11
123.494972
 21
-148.458359
  0
LINE
  8
0
 10
125.194969
 20
-150.158356
 11
125.194969
 21
-161.458359
  0
LINE
  8
0
 10
100.994965
 20
-150.158371
 11
100.994965
 21
-161.458359
  0
LINE
  8
0
 10
100.994957
 20
-150.158371
 11
102.694977
 21
-148.458359
  0
LINE
  8
0
 10
123.494965
 20
-148.458374
 11
125.194962
 21
-150.158371
  0
LINE
  8
0
 10
100.994965
 20
-150.158295
 11
125.194969
 21
-150.158295
  0
LINE
  8
0
 10
119.144974
 20
-150.158356
 11
119.144974
 21
-161.458359
  0
LINE
  8
0
 10
107.044968
 20
-150.158371
 11
107.044968
 21
-161.458359
  0
LINE
  8
0
 10
104.394974
 20
-129.258362
 11
121.794968
 21
-129.258362
  0
LINE
  8
0
 10
103.194977
 20
-125.458359
 11
122.994972
 21
-125.458359
  0
LINE
  8
0
 10
103.194977
 20
-125.458359
 11
103.194977
 21
-127.658363
  0
LINE
  8
0
 10
122.994972
 20
-125.458359
 11
122.994972
 21
-127.658363
  0
LINE
  8
0
 10
105.594971
 20
-127.658363
 11
105.594971
 21
-129.258362
  0
LINE
  8
0
 10
120.594971
 20
-127.658363
 11
120.594971
 21
-129.258362
  0
LINE
  8
0
 10
103.194977
 20
-127.658363
 11
122.994972
 21
-127.658363
  0
LINE
  8
0
 10
104.394974
 20
-129.258362
 11
104.394974
 21
-130.558365
  0
LINE
  8
0
 10
121.794968
 20
-129.258362
 11
121.794968
 21
-130.558365
  0
LINE
  8
0
  6
DASHED
 10
106.862900
 20
-151.284576
 11
106.544968
 21
-161.458359
  0
LINE
  8
0
  6
DASHED
 10
119.327042
 20
-151.284561
 11
119.644974
 21
-161.458359
  0
LINE
  8
0
  6
DASHED
 10
107.689110
 20
-150.458359
 11
107.344574
 21
-161.483337
  0
LINE
  8
0
  6
DASHED
 10
118.500832
 20
-150.458359
 11
118.845360
 21
-161.483353
  0
LINE
  8
0
  6
DASHED
 10
106.862900
 20
-151.284576
 11
119.327042
 21
-151.284576
  0
POINT
  8
0
  6
DASHED
 10
225.764954
 20
-95.458008
  0
POINT
  8
0
  6
DASHED
 10
237.889313
 20
-95.458008
  0
LINE
  8
0
  6
CENTER
 10
204.963898
 20
-95.458008
 11
247.586914
 21
-95.458008
  0
LINE
  8
0
  6
CENTER
 10
225.764954
 20
-80.502518
 11
225.764954
 21
-110.413498
  0
LINE
  8
0
 10
219.702774
 20
-105.958008
 11
231.827133
 21
-105.958008
  0
LINE
  8
0
 10
219.702774
 20
-84.958008
 11
231.827133
 21
-84.958008
  0
LINE
  8
0
 10
213.640594
 20
-95.458008
 11
219.702774
 21
-84.958008
  0
LINE
  8
0
 10
231.827133
 20
-105.958008
 11
237.889313
 21
-95.458008
  0
LINE
  8
0
 10
231.827133
 20
-84.958008
 11
237.889313
 21
-95.458008
  0
LINE
  8
0
 10
213.640594
 20
-95.458008
 11
219.702774
 21
-105.958008
  0
CIRCLE
  8
0
 10
225.764954
 20
-95.458008
 40
6.100000
  0
CIRCLE
  8
0
 10
225.764954
 20
-95.458008
 40
9.900000
  0
CIRCLE
  8
0
 10
225.764954
 20
-95.458008
 40
10.400000
  0
POINT
  8
0
 10
225.764954
 20
-152.958359
  0
POINT
  8
0
 10
237.864960
 20
-152.958359
  0
LINE
  8
0
  6
DASHED
 10
217.814148
 20
-141.784561
 11
218.640350
 21
-140.958359
  0
LINE
  8
0
  6
DASHED
 10
232.889557
 20
-140.958359
 11
233.715775
 21
-141.784576
  0
LINE
  8
0
  6
CENTER
 10
225.764954
 20
-114.049873
 11
225.764954
 21
-158.566666
  0
LINE
  8
0
 10
213.664948
 20
-152.958359
 11
237.864960
 21
-152.958359
  0
LINE
  8
0
 10
216.364960
 20
-121.058365
 11
235.164948
 21
-121.058365
  0
LINE
  8
0
 10
216.018555
 20
-121.658356
 11
235.511368
 21
-121.658356
  0
LINE
  8
0
 10
215.364960
 20
-122.035713
 11
215.364960
 21
-138.958359
  0
LINE
  8
0
 10
236.164948
 20
-122.035706
 11
236.164948
 21
-138.958359
  0
LINE
  8
0
 10
216.018539
 20
-121.658356
 11
216.364944
 21
-121.058357
  0
LINE
  8
0
 10
235.164963
 20
-121.058357
 11
235.511368
 21
-121.658356
  0
LINE
  8
0
 10
215.364944
 20
-122.035713
 11
216.018539
 21
-121.658363
  0
LINE
  8
0
 10
235.511368
 20
-121.658363
 11
236.164948
 21
-122.035713
  0
LINE
  8
0
 10
215.364960
 20
-122.035713
 11
236.164948
 21
-122.035713
  0
LINE
  8
0
 10
215.364960
 20
-138.958359
 11
236.164948
 21
-138.958359
  0
LINE
  8
0
 10
237.864960
 20
-140.658356
 11
237.864960
 21
-152.958359
  0
LINE
  8
0
 10
213.664948
 20
-140.658356
 11
213.664948
 21
-152.958359
  0
LINE
  8
0
 10
213.664948
 20
-140.658356
 11
215.364944
 21
-138.958359
  0
LINE
  8
0
 10
236.164948
 20
-138.958359
 11
237.864944
 21
-140.658356
  0
LINE
  8
0
 10
213.664948
 20
-140.658356
 11
237.864960
 21
-140.658356
  0
LINE
  8
0
 10
219.714951
 20
-140.658356
 11
219.714951
 21
-152.958359
  0
LINE
  8
0
 10
231.814957
 20
-140.658356
 11
231.814957
 21
-152.958359
  0
LINE
  8
0
 10
217.064957
 20
-119.758362
 11
234.464951
 21
-119.758362
  0
LINE
  8
0
 10
215.864960
 20
-115.958359
 11
235.664948
 21
-115.958359
  0
LINE
  8
0
 10
217.064957
 20
-119.758362
 11
217.064957
 21
-121.058365
  0
LINE
  8
0
 10
234.464951
 20
-119.758362
 11
234.464951
 21
-121.058365
  0
LINE
  8
0
 10
215.864960
 20
-118.158363
 11
235.664948
 21
-118.158363
  0
LINE
  8
0
 10
218.264954
 20
-118.158363
 11
218.264954
 21
-119.758362
  0
LINE
  8
0
 10
233.264954
 20
-118.158363
 11
233.264954
 21
-119.758362
  0
LINE
  8
0
 10
215.864960
 20
-115.958359
 11
215.864960
 21
-118.158363
  0
LINE
  8
0
 10
235.664948
 20
-115.958359
 11
235.664948
 21
-118.158363
  0
LINE
  8
0
  6
DASHED
 10
217.814133
 20
-141.784561
 11
217.464951
 21
-152.958359
  0
LINE
  8
0
  6
DASHED
 10
233.715775
 20
-141.784576
 11
234.064957
 21
-152.958359
  0
LINE
  8
0
  6
DASHED
 10
218.640335
 20
-140.958359
 11
218.264557
 21
-152.983337
  0
LINE
  8
0
  6
DASHED
 10
232.889557
 20
-140.958359
 11
233.265350
 21
-152.983337
  0
LINE
  8
0
  6
DASHED
 10
218.640350
 20
-140.958359
 11
232.889557
 21
-140.958359
  0
LINE
  8
0
  6
DASHED
 10
217.814133
 20
-141.784561
 11
233.715775
 21
-141.784561
  0
POINT
  8
0
  6
DASHED
 10
-224.915009
 20
149.875336
  0
POINT
  8
0
  6
DASHED
 10
-221.415009
 20
149.875336
  0
LINE
  8
0
  6
CENTER
 10
-224.915009
 20
156.526321
 11
-224.915009
 21
142.349548
  0
LINE
  8
0
  6
CENTER
 10
-233.652313
 20
149.875336
 11
-216.061737
 21
149.875336
  0
CIRCLE
  8
0
 10
-224.915009
 20
149.875336
 40
1.575000
  0
ARC
  8
0
 10
-223.993484
 20
149.874069
 40
2.578479
 50
348.264557
 51
11.576914
  0
ARC
  8
0
 10
-224.238190
 20
149.800430
 40
2.833071
 50
12.042728
 51
44.893513
  0
ARC
  8
0
 10
-224.916245
 20
148.985489
 40
3.889851
 50
46.348293
 51
133.493210
  0
ARC
  8
0
 10
-225.592041
 20
149.802292
 40
2.833079
 50
134.947845
 51
167.798813
  0
ARC
  8
0
 10
-225.836533
 20
149.876602
 40
2.578479
 50
168.264557
 51
191.576920
  0
ARC
  8
0
 10
-225.591827
 20
149.950241
 40
2.833071
 50
192.042725
 51
224.893509
  0
ARC
  8
0
 10
-224.913773
 20
150.765182
 40
3.889851
 50
226.348297
 51
313.493195
  0
ARC
  8
0
 10
-224.237976
 20
149.948380
 40
2.833079
 50
314.947845
 51
347.798828
  0
POINT
  8
0
 10
-112.245018
 20
158.875336
  0
POINT
  8
0
 10
-107.626213
 20
158.875336
  0
LINE
  8
0
  6
CENTER
 10
-112.245018
 20
167.276535
 11
-112.245018
 21
150.176285
  0
LINE
  8
0
  6
CENTER
 10
-121.533295
 20
158.875336
 11
-101.880760
 21
158.875336
  0
LINE
  8
0
 10
-116.863823
 20
158.875336
 11
-114.554420
 21
154.875336
  0
LINE
  8
0
 10
-109.935616
 20
162.875336
 11
-107.626213
 21
158.875336
  0
LINE
  8
0
 10
-109.935616
 20
154.875336
 11
-107.626213
 21
158.875336
  0
LINE
  8
0
 10
-116.863823
 20
158.875336
 11
-114.554420
 21
162.875336
  0
LINE
  8
0
 10
-114.554420
 20
154.875336
 11
-109.935616
 21
154.875336
  0
LINE
  8
0
 10
-114.554420
 20
162.875336
 11
-109.935616
 21
162.875336
  0
CIRCLE
  8
0
 10
-112.245018
 20
158.875336
 40
1.575000
  0
CIRCLE
  8
0
 10
-112.245018
 20
158.875336
 40
4.000000
  0
ARC
  8
0
 10
-111.323502
 20
158.874069
 40
2.578487
 50
348.264587
 51
11.576845
  0
ARC
  8
0
 10
-111.568192
 20
158.800430
 40
2.833071
 50
12.042728
 51
44.893734
  0
ARC
  8
0
 10
-112.246246
 20
157.985489
 40
3.889841
 50
46.348457
 51
133.493210
  0
ARC
  8
0
 10
-112.922043
 20
158.802292
 40
2.833079
 50
134.947845
 51
167.798843
  0
ARC
  8
0
 10
-113.166534
 20
158.876602
 40
2.578487
 50
168.264587
 51
191.576843
  0
ARC
  8
0
 10
-112.921844
 20
158.950241
 40
2.833071
 50
192.042725
 51
224.893738
  0
ARC
  8
0
 10
-112.243790
 20
159.765182
 40
3.889841
 50
226.348450
 51
313.493195
  0
ARC
  8
0
 10
-111.567993
 20
158.948380
 40
2.833079
 50
314.947845
 51
347.798859
  0
POINT
  8
0
 10
113.094963
 20
158.875336
  0
POINT
  8
0
 10
117.994965
 20
158.875336
  0
LINE
  8
0
  6
CENTER
 10
113.094963
 20
170.341980
 11
113.094963
 21
146.861038
  0
LINE
  8
0
  6
CENTER
 10
99.680443
 20
158.875336
 11
127.500259
 21
158.875336
  0
LINE
  8
0
 10
110.785561
 20
154.875336
 11
115.404366
 21
154.875336
  0
LINE
  8
0
 10
110.785561
 20
162.875336
 11
115.404366
 21
162.875336
  0
LINE
  8
0
 10
115.404366
 20
154.875336
 11
115.852516
 21
155.651566
  0
LINE
  8
0
 10
115.404366
 20
162.875336
 11
115.852455
 21
162.099228
  0
LINE
  8
0
 10
110.337410
 20
162.099106
 11
110.785561
 21
162.875336
  0
LINE
  8
0
 10
110.337471
 20
155.651443
 11
110.785561
 21
154.875336
  0
CIRCLE
  8
0
 10
113.094963
 20
158.875336
 40
2.100000
  0
ARC
  8
0
 10
114.877251
 20
158.879593
 40
3.117713
 50
347.591461
 51
12.682863
  0
ARC
  8
0
 10
114.404564
 20
158.724396
 40
3.613262
 50
13.438156
 51
47.565861
  0
ARC
  8
0
 10
113.099396
 20
157.021912
 40
5.753426
 50
49.413036
 51
130.861069
  0
ARC
  8
0
 10
111.786102
 20
158.718140
 40
3.613255
 50
132.708389
 51
166.836075
  0
ARC
  8
0
 10
111.312675
 20
158.871078
 40
3.117713
 50
167.591461
 51
192.682861
  0
ARC
  8
0
 10
111.785362
 20
159.026276
 40
3.613262
 50
193.438156
 51
227.565857
  0
ARC
  8
0
 10
113.090530
 20
160.728760
 40
5.753426
 50
229.413040
 51
310.861084
  0
ARC
  8
0
 10
114.403824
 20
159.032532
 40
3.613255
 50
312.708374
 51
346.836060
  0
POINT
  8
0
 10
113.094971
 20
28.708664
  0
POINT
  8
0
 10
121.177872
 20
28.708664
  0
LINE
  8
0
  6
CENTER
 10
95.902428
 20
28.708664
 11
131.379074
 21
28.708664
  0
LINE
  8
0
  6
CENTER
 10
113.094971
 20
43.964066
 11
113.094971
 21
13.081517
  0
LINE
  8
0
 10
109.053520
 20
35.708664
 11
117.136421
 21
35.708664
  0
LINE
  8
0
 10
109.053520
 20
21.708664
 11
117.136421
 21
21.708664
  0
LINE
  8
0
 10
109.053520
 20
35.708664
 11
105.017738
 21
28.718493
  0
LINE
  8
0
 10
121.177872
 20
28.708664
 11
117.136421
 21
21.708664
  0
LINE
  8
0
 10
117.136421
 20
35.708664
 11
121.172203
 21
28.718493
  0
LINE
  8
0
 10
105.038559
 20
28.662775
 11
109.053520
 21
21.708664
  0
CIRCLE
  8
0
 10
113.094971
 20
28.708664
 40
6.900000
  0
CIRCLE
  8
0
 10
113.094971
 20
28.708664
 40
4.100000
  0
ENDSEC
  0
EOF
