  0
SECTION
  2
HEADER
  9
$ACADVER
  1
AC1002
  9
$INSBASE
 10
0.0
 20
0.0
  9
$EXTMIN
 10
-370.8736
 20
-254.5585
  9
$EXTMAX
 10
370.8736
 20
254.5585
  9
$LIMMIN
 10
0.0
 20
0.0
  9
$LIMMAX
 10
12.0
 20
9.0
  9
$VIEWCTR
 10
28.6093211
 20
0.0
  9
$VIEWSIZE
 40
509.117
  9
$SNAPMODE
 70
     0
  9
$SNAPUNIT
 10
1.0
 20
1.0
  9
$SNAPBASE
 10
0.0
 20
0.0
  9
$SNAPANG
 50
0.0
  9
$SNAPSTYLE
 70
     0
  9
$SNAPISOPAIR
 70
     0
  9
$GRIDMODE
 70
     0
  9
$GRIDUNIT
 10
0.0
 20
0.0
  9
$ORTHOMODE
 70
     0
  9
$REGENMODE
 70
     1
  9
$FILLMODE
 70
     1
  9
$QTEXTMODE
 70
     0
  9
$DRAGMODE
 70
     2
  9
$LTSCALE
 40
1.0
  9
$OSMODE
 70
     0
  9
$ATTMODE
 70
     1
  9
$TEXTSIZE
 40
0.2
  9
$TRACEWID
 40
0.05
  9
$TEXTSTYLE
  7
AAA
  9
$CLAYER
  8
0
  9
$CELTYPE
  6
BYLAYER
  9
$CECOLOR
 62
   256
  9
$DIMSCALE
 40
1.0
  9
$DIMASZ
 40
0.18
  9
$DIMEXO
 40
0.0625
  9
$DIMDLI
 40
0.38
  9
$DIMRND
 40
0.0
  9
$DIMDLE
 40
0.0
  9
$DIMEXE
 40
0.18
  9
$DIMTP
 40
0.0
  9
$DIMTM
 40
0.0
  9
$DIMTXT
 40
0.18
  9
$DIMCEN
 40
0.09
  9
$DIMTSZ
 40
0.0
  9
$DIMTOL
 70
     0
  9
$DIMLIM
 70
     0
  9
$DIMTIH
 70
     1
  9
$DIMTOH
 70
     1
  9
$DIMSE1
 70
     0
  9
$DIMSE2
 70
     0
  9
$DIMTAD
 70
     0
  9
$DIMZIN
 70
     0
  9
$DIMBLK
  1

  9
$LUNITS
 70
     2
  9
$LUPREC
 70
     4
  9
$AXISMODE
 70
     0
  9
$AXISUNIT
 10
0.0
 20
0.0
  9
$SKETCHINC
 40
0.1
  9
$FILLETRAD
 40
0.0
  9
$AUNITS
 70
     0
  9
$AUPREC
 70
     0
  9
$MENU
  1
ACAD
  9
$ELEVATION
 40
0.0
  9
$THICKNESS
 40
0.0
  9
$VIEWDIR
 10
0.0
 20
0.0
 30
1.0
  9
$LIMCHECK
 70
     0
  9
$BLIPMODE
 70
     1
  9
$CHAMFERA
 40
0.0
  9
$CHAMFERB
 40
0.0
  9
$FASTZOOM
 70
     1
  9
$SKPOLY
 70
     0
  9
$TDCREATE
 40
2447820.5486806050
  9
$TDUPDATE
 40
2447820.5486806050
  9
$TDINDWG
 40
0.0036458333
  9
$TDUSRTIMER
 40
0.0036458333
  9
$USRTIMER
 70
     1
  9
$ANGBASE
 50
0.0
  9
$ANGDIR
 70
     0
  9
$PDMODE
 70
     0
  9
$PDSIZE
 40
0.0
  9
$PLINEWID
 40
0.0
  9
$COORDS
 70
     0
  9
$USERI1
 70
     0
  9
$USERI2
 70
     0
  9
$USERI3
 70
     0
  9
$USERI4
 70
     0
  9
$USERI5
 70
     0
  9
$USERR1
 40
0.0
  9
$USERR2
 40
0.0
  9
$USERR3
 40
0.0
  9
$USERR4
 40
0.0
  9
$USERR5
 40
0.0
  0
ENDSEC
  0
SECTION
  2
TABLES
  0
TABLE
  2
LTYPE
 70
     2
  0
LTYPE
  2
CONTINUOUS
 70
    64
  3
SOLID
 72
    65
 73
     0
 40
0.0
  0
LTYPE
  2
CENTER
 70
    64
  3
CENTER
 72
    65
 73
     4
 40
2.0
 49
1.25
 49
-0.25
 49
0.25
 49
-0.25
  0
ENDTAB
  0
TABLE
  2
LAYER
 70
     1
  0
LAYER
  2
0
 70
    64
 62
     7
  6
CONTINUOUS
  0
ENDTAB
  0
TABLE
  2
STYLE
 70
     2
  0
STYLE
  2
AAA
 70
     0
 40
0.0
 41
1.0
 50
0.0
 71
     0
 42
0.2
  3
TXT
  4

  0
STYLE
  2
STANDARD
 70
    64
 40
0.0
 41
1.0
 50
0.0
 71
     0
 42
0.2
  3
TXT
  4
BIGFONT
  0
ENDTAB
  0
TABLE
  2
VIEW
 70
     0
  0
ENDTAB
  0
ENDSEC
  0
SECTION
  2
BLOCKS
  0
ENDSEC
  0
SECTION
  2
ENTITIES
  0
POINT
  8
0
  6
CONTINUOUS
 62
     7
 10
-252.249
 20
114.7056
  0
POINT
  8
0
  6
CONTINUOUS
 62
     7
 10
-248.249
 20
114.7056
  0
POINT
  8
0
  6
CONTINUOUS
 62
     7
 10
-252.2491
 20
177.132
  0
POINT
  8
0
  6
CONTINUOUS
 62
     7
 10
-235.2491
 20
177.132
  0
POINT
  8
0
  6
CONTINUOUS
 62
     7
 10
-314.0613
 20
114.7056
  0
POINT
  8
0
  6
CONTINUOUS
 62
     7
 10
-310.0613
 20
114.7056
  0
POINT
  8
0
  6
CONTINUOUS
 62
     7
 10
-180.4368
 20
114.7057
  0
POINT
  8
0
  6
CONTINUOUS
 62
     7
 10
-176.4368
 20
114.7057
  0
POINT
  8
0
  6
CONTINUOUS
 62
     7
 10
-4.99997
 20
114.7056
  0
POINT
  8
0
  6
CONTINUOUS
 62
     7
 10
-0.13597
 20
114.7056
  0
POINT
  8
0
  6
CONTINUOUS
 62
     7
 10
11.99997
 20
177.132
  0
POINT
  8
0
  6
CONTINUOUS
 62
     7
 10
-5.00003
 20
177.132
  0
POINT
  8
0
  6
CONTINUOUS
 62
     7
 10
-66.81227
 20
114.7056
  0
POINT
  8
0
  6
CONTINUOUS
 62
     7
 10
-61.94827
 20
114.7056
  0
POINT
  8
0
  6
CONTINUOUS
 62
     7
 10
66.81226
 20
114.7057
  0
POINT
  8
0
  6
CONTINUOUS
 62
     7
 10
71.67622
 20
114.7057
  0
POINT
  8
0
  6
CONTINUOUS
 62
     7
 10
-252.249
 20
-55.00005
  0
POINT
  8
0
  6
CONTINUOUS
 62
     7
 10
-247.385
 20
-55.00005
  0
POINT
  8
0
  6
CONTINUOUS
 62
     7
 10
-232.2491
 20
17.42638
  0
POINT
  8
0
  6
CONTINUOUS
 62
     7
 10
-252.2491
 20
17.42638
  0
POINT
  8
0
  6
CONTINUOUS
 62
     7
 10
-314.0613
 20
-55.00003
  0
POINT
  8
0
  6
CONTINUOUS
 62
     7
 10
-309.1973
 20
-55.00003
  0
POINT
  8
0
  6
CONTINUOUS
 62
     7
 10
-180.4368
 20
-54.99998
  0
POINT
  8
0
  6
CONTINUOUS
 62
     7
 10
-175.5728
 20
-54.99998
  0
POINT
  8
0
  6
CONTINUOUS
 62
     7
 10
-4.99997
 20
-55.00005
  0
POINT
  8
0
  6
CONTINUOUS
 62
     7
 10
1.57853
 20
-55.00005
  0
POINT
  8
0
  6
CONTINUOUS
 62
     7
 10
-5.00003
 20
17.42638
  0
POINT
  8
0
  6
CONTINUOUS
 62
     7
 10
14.99997
 20
17.42638
  0
POINT
  8
0
  6
CONTINUOUS
 62
     7
 10
-66.81227
 20
-55.00003
  0
POINT
  8
0
  6
CONTINUOUS
 62
     7
 10
-60.23377
 20
-55.00003
  0
POINT
  8
0
  6
CONTINUOUS
 62
     7
 10
66.81226
 20
-54.99998
  0
POINT
  8
0
  6
CONTINUOUS
 62
     7
 10
73.39075
 20
-54.99998
  0
POINT
  8
0
  6
CONTINUOUS
 62
     7
 10
-252.249
 20
-224.7057
  0
POINT
  8
0
  6
CONTINUOUS
 62
     7
 10
-247.385
 20
-224.7057
  0
POINT
  8
0
  6
CONTINUOUS
 62
     7
 10
-252.2491
 20
-152.2793
  0
POINT
  8
0
  6
CONTINUOUS
 62
     7
 10
-229.7491
 20
-152.2793
  0
POINT
  8
0
  6
CONTINUOUS
 62
     7
 10
-314.0613
 20
-224.7057
  0
POINT
  8
0
  6
CONTINUOUS
 62
     7
 10
-309.1973
 20
-224.7057
  0
POINT
  8
0
  6
CONTINUOUS
 62
     7
 10
-180.4368
 20
-224.7056
  0
POINT
  8
0
  6
CONTINUOUS
 62
     7
 10
-175.5728
 20
-224.7056
  0
POINT
  8
0
  6
CONTINUOUS
 62
     7
 10
-4.99997
 20
-224.7057
  0
POINT
  8
0
  6
CONTINUOUS
 62
     7
 10
1.57852
 20
-224.7057
  0
POINT
  8
0
  6
CONTINUOUS
 62
     7
 10
17.49997
 20
-152.2793
  0
POINT
  8
0
  6
CONTINUOUS
 62
     7
 10
-5.00003
 20
-152.2793
  0
POINT
  8
0
  6
CONTINUOUS
 62
     7
 10
-66.81227
 20
-224.7057
  0
POINT
  8
0
  6
CONTINUOUS
 62
     7
 10
-60.23378
 20
-224.7057
  0
POINT
  8
0
  6
CONTINUOUS
 62
     7
 10
66.81226
 20
-224.7056
  0
POINT
  8
0
  6
CONTINUOUS
 62
     7
 10
73.39073
 20
-224.7056
  0
POINT
  8
0
  6
CONTINUOUS
 62
     7
 10
242.2491
 20
56.1035
  0
POINT
  8
0
  6
CONTINUOUS
 62
     7
 10
248.8276
 20
56.1035
  0
POINT
  8
0
  6
CONTINUOUS
 62
     7
 10
242.249
 20
148.5299
  0
POINT
  8
0
  6
CONTINUOUS
 62
     7
 10
267.749
 20
148.5299
  0
POINT
  8
0
  6
CONTINUOUS
 62
     7
 10
180.4368
 20
56.10352
  0
POINT
  8
0
  6
CONTINUOUS
 62
     7
 10
187.0153
 20
56.10352
  0
POINT
  8
0
  6
CONTINUOUS
 62
     7
 10
314.0613
 20
56.10356
  0
POINT
  8
0
  6
CONTINUOUS
 62
     7
 10
320.6398
 20
56.10356
  0
POINT
  8
0
  6
CONTINUOUS
 62
     7
 10
242.2491
 20
-169.8529
  0
POINT
  8
0
  6
CONTINUOUS
 62
     7
 10
250.5801
 20
-169.8529
  0
POINT
  8
0
  6
CONTINUOUS
 62
     7
 10
242.249
 20
-77.42647
  0
POINT
  8
0
  6
CONTINUOUS
 62
     7
 10
267.749
 20
-77.42647
  0
POINT
  8
0
  6
CONTINUOUS
 62
     7
 10
180.4368
 20
-169.8529
  0
POINT
  8
0
  6
CONTINUOUS
 62
     7
 10
188.7678
 20
-169.8529
  0
POINT
  8
0
  6
CONTINUOUS
 62
     7
 10
314.0613
 20
-169.8528
  0
POINT
  8
0
  6
CONTINUOUS
 62
     7
 10
322.3923
 20
-169.8528
  0
LINE
  8
0
  6
CONTINUOUS
 62
     7
 10
218.3292
 20
-225.9564
 11
370.8736
 21
-225.9564
  0
LINE
  8
0
  6
CONTINUOUS
 62
     7
 10
-218.3292
 20
225.9564
 11
-218.3292
 21
254.5585
  0
LINE
  8
0
  6
CONTINUOUS
 62
     7
 10
-370.8736
 20
225.9564
 11
-218.3292
 21
225.9564
  0
LINE
  8
0
  6
CONTINUOUS
 62
     7
 10
-370.8736
 20
254.5585
 11
370.8736
 21
254.5585
  0
LINE
  8
0
  6
CONTINUOUS
 62
     7
 10
-370.8736
 20
-254.5585
 11
370.8736
 21
-254.5585
  0
LINE
  8
0
  6
CONTINUOUS
 62
     7
 10
370.8736
 20
254.5585
 11
370.8736
 21
-254.5585
  0
LINE
  8
0
  6
CONTINUOUS
 62
     7
 10
-370.8736
 20
-254.5585
 11
-370.8736
 21
254.5585
  0
LINE
  8
0
  6
CONTINUOUS
 62
     7
 10
218.3292
 20
-225.9564
 11
218.3292
 21
-254.5585
  0
LINE
  8
0
  6
CONTINUOUS
 62
     7
 10
218.3292
 20
254.5585
 11
218.3292
 21
225.9564
  0
LINE
  8
0
  6
CONTINUOUS
 62
     7
 10
218.3292
 20
225.9564
 11
370.8736
 21
225.9564
  0
LINE
  8
0
  6
CONTINUOUS
 62
     7
 10
258.3816
 20
-232.8337
 11
258.3816
 21
-236.1516
  0
LINE
  8
0
  6
CONTINUOUS
 62
     7
 10
258.3816
 20
-236.1516
 11
270.8235
 21
-236.1516
  0
LINE
  8
0
  6
CONTINUOUS
 62
     7
 10
258.3816
 20
-249.1465
 11
275.2473
 21
-249.1465
  0
LINE
  8
0
  6
CONTINUOUS
 62
     7
 10
258.3816
 20
-245.8286
 11
270.8235
 21
-245.8286
  0
LINE
  8
0
  6
CONTINUOUS
 62
     7
 10
258.3816
 20
-232.8337
 11
273.0354
 21
-232.8337
  0
LINE
  8
0
  6
CONTINUOUS
 62
     7
 10
270.8235
 20
-236.1516
 11
270.8235
 21
-245.8286
  0
LINE
  8
0
  6
CONTINUOUS
 62
     7
 10
275.2473
 20
-235.0457
 11
275.2473
 21
-249.1465
  0
LINE
  8
0
  6
CONTINUOUS
 62
     7
 10
258.3816
 20
-245.8286
 11
258.3816
 21
-249.1465
  0
LINE
  8
0
  6
CONTINUOUS
 62
     7
 10
293.4954
 20
-236.1516
 11
293.4954
 21
-246.9346
  0
LINE
  8
0
  6
CONTINUOUS
 62
     7
 10
277.7357
 20
-232.8337
 11
277.7357
 21
-236.1516
  0
LINE
  8
0
  6
CONTINUOUS
 62
     7
 10
293.9378
 20
-232.585
 11
295.5138
 21
-232.585
  0
LINE
  8
0
  6
CONTINUOUS
 62
     7
 10
293.9378
 20
-230.373
 11
295.5138
 21
-230.373
  0
LINE
  8
0
  6
CONTINUOUS
 62
     7
 10
295.5138
 20
-230.373
 11
295.5138
 21
-232.585
  0
LINE
  8
0
  6
CONTINUOUS
 62
     7
 10
293.9378
 20
-230.373
 11
293.9378
 21
-232.585
  0
LINE
  8
0
  6
CONTINUOUS
 62
     7
 10
293.1083
 20
-230.373
 11
293.1083
 21
-232.585
  0
LINE
  8
0
  6
CONTINUOUS
 62
     7
 10
282.7661
 20
-230.373
 11
286.2009
 21
-230.373
  0
LINE
  8
0
  6
CONTINUOUS
 62
     7
 10
285.5413
 20
-232.8335
 11
286.2006
 21
-230.3727
  0
LINE
  8
0
  6
CONTINUOUS
 62
     7
 10
282.1067
 20
-232.8337
 11
282.766
 21
-230.373
  0
LINE
  8
0
  6
CONTINUOUS
 62
     7
 10
285.5416
 20
-232.8337
 11
290.1776
 21
-232.8337
  0
LINE
  8
0
  6
CONTINUOUS
 62
     7
 10
284.6526
 20
-236.1516
 11
289.0716
 21
-236.1516
  0
LINE
  8
0
  6
CONTINUOUS
 62
     7
 10
286.6429
 20
-249.1465
 11
291.2836
 21
-249.1465
  0
LINE
  8
0
  6
CONTINUOUS
 62
     7
 10
285.7537
 20
-245.8286
 11
286.6427
 21
-249.1463
  0
LINE
  8
0
  6
CONTINUOUS
 62
     7
 10
285.7538
 20
-245.8286
 11
289.0716
 21
-245.8286
  0
LINE
  8
0
  6
CONTINUOUS
 62
     7
 10
281.1707
 20
-249.1466
 11
284.6527
 21
-236.1517
  0
LINE
  8
0
  6
CONTINUOUS
 62
     7
 10
277.7357
 20
-236.1516
 11
281.2177
 21
-236.1516
  0
LINE
  8
0
  6
CONTINUOUS
 62
     7
 10
277.7354
 20
-249.1462
 11
281.2175
 21
-236.1513
  0
LINE
  8
0
  6
CONTINUOUS
 62
     7
 10
277.7357
 20
-249.1465
 11
281.1706
 21
-249.1465
  0
LINE
  8
0
  6
CONTINUOUS
 62
     7
 10
277.7357
 20
-232.8337
 11
282.1067
 21
-232.8337
  0
LINE
  8
0
  6
CONTINUOUS
 62
     7
 10
289.0716
 20
-236.1516
 11
289.0716
 21
-245.8286
  0
LINE
  8
0
  6
CONTINUOUS
 62
     7
 10
291.5323
 20
-230.373
 11
293.1083
 21
-230.373
  0
LINE
  8
0
  6
CONTINUOUS
 62
     7
 10
291.5323
 20
-232.585
 11
293.1083
 21
-232.585
  0
LINE
  8
0
  6
CONTINUOUS
 62
     7
 10
291.5323
 20
-230.373
 11
291.5323
 21
-232.585
  0
LINE
  8
0
  6
CONTINUOUS
 62
     7
 10
301.5135
 20
-230.373
 11
305.9373
 21
-230.373
  0
LINE
  8
0
  6
CONTINUOUS
 62
     7
 10
308.3423
 20
-240.1951
 11
311.2962
 21
-238.8176
  0
LINE
  8
0
  6
CONTINUOUS
 62
     7
 10
305.9373
 20
-242.7344
 11
305.9373
 21
-249.1465
  0
LINE
  8
0
  6
CONTINUOUS
 62
     7
 10
301.5135
 20
-243.379
 11
301.5135
 21
-249.1465
  0
LINE
  8
0
  6
CONTINUOUS
 62
     7
 10
305.9373
 20
-232.8337
 11
310.3611
 21
-232.8337
  0
LINE
  8
0
  6
CONTINUOUS
 62
     7
 10
305.9373
 20
-230.373
 11
305.9373
 21
-232.8337
  0
LINE
  8
0
  6
CONTINUOUS
 62
     7
 10
301.5135
 20
-230.373
 11
301.5135
 21
-232.8337
  0
LINE
  8
0
  6
CONTINUOUS
 62
     7
 10
312.573
 20
-235.0457
 11
312.573
 21
-236.8128
  0
LINE
  8
0
  6
CONTINUOUS
 62
     7
 10
308.3424
 20
-240.195
 11
312.5734
 21
-242.168
  0
LINE
  8
0
  6
CONTINUOUS
 62
     7
 10
305.9373
 20
-242.7343
 11
312.5731
 21
-245.8286
  0
LINE
  8
0
  6
CONTINUOUS
 62
     7
 10
296.2603
 20
-242.1678
 11
296.2603
 21
-245.8286
  0
LINE
  8
0
  6
CONTINUOUS
 62
     7
 10
296.2607
 20
-242.1682
 11
309.1626
 21
-236.1519
  0
LINE
  8
0
  6
CONTINUOUS
 62
     7
 10
296.2603
 20
-245.8286
 11
301.5136
 21
-243.3789
  0
LINE
  8
0
  6
CONTINUOUS
 62
     7
 10
312.573
 20
-242.1678
 11
312.573
 21
-245.8286
  0
LINE
  8
0
  6
CONTINUOUS
 62
     7
 10
296.2603
 20
-232.8337
 11
296.2603
 21
-236.1516
  0
LINE
  8
0
  6
CONTINUOUS
 62
     7
 10
301.5135
 20
-249.1465
 11
305.9373
 21
-249.1465
  0
LINE
  8
0
  6
CONTINUOUS
 62
     7
 10
296.2603
 20
-236.1516
 11
309.1621
 21
-236.1516
  0
LINE
  8
0
  6
CONTINUOUS
 62
     7
 10
296.2603
 20
-232.8337
 11
301.5135
 21
-232.8337
  0
LINE
  8
0
  6
CONTINUOUS
 62
     7
 10
327.504
 20
-236.4047
 11
328.73
 21
-235.9171
  0
LINE
  8
0
  6
CONTINUOUS
 62
     7
 10
327.5034
 20
-236.4044
 11
327.5034
 21
-249.1465
  0
LINE
  8
0
  6
CONTINUOUS
 62
     7
 10
323.0795
 20
-249.1465
 11
327.5034
 21
-249.1465
  0
LINE
  8
0
  6
CONTINUOUS
 62
     7
 10
313.9553
 20
-241.7925
 11
323.0794
 21
-238.1637
  0
LINE
  8
0
  6
CONTINUOUS
 62
     7
 10
313.9555
 20
-238.222
 11
326.8062
 21
-233.1111
  0
LINE
  8
0
  6
CONTINUOUS
 62
     7
 10
323.0795
 20
-238.1638
 11
323.0795
 21
-249.1465
  0
LINE
  8
0
  6
CONTINUOUS
 62
     7
 10
327.5034
 20
-231.3684
 11
327.5034
 21
-232.0834
  0
LINE
  8
0
  6
CONTINUOUS
 62
     7
 10
330.8211
 20
-231.3684
 11
330.8211
 21
-232.8338
  0
LINE
  8
0
  6
CONTINUOUS
 62
     7
 10
313.9554
 20
-238.2219
 11
313.9554
 21
-241.7925
  0
LINE
  8
0
  6
CONTINUOUS
 62
     7
 10
327.5034
 20
-231.3684
 11
330.8211
 21
-231.3684
  0
LINE
  8
0
  6
CONTINUOUS
 62
     7
 10
-370.8736
 20
-84.85283
 11
123.6245
 21
-84.85283
  0
LINE
  8
0
  6
CONTINUOUS
 62
     7
 10
123.6245
 20
0.0
 11
370.8736
 21
0.0
  0
LINE
  8
0
  6
CONTINUOUS
 62
     7
 10
-370.8736
 20
84.85283
 11
123.6245
 21
84.85283
  0
LINE
  8
0
  6
CONTINUOUS
 62
     7
 10
123.6245
 20
254.5585
 11
123.6245
 21
-254.5585
  0
LINE
  8
0
  6
CONTINUOUS
 62
     7
 10
-123.6245
 20
254.5585
 11
-123.6245
 21
-254.5585
  0
LINE
  8
0
  6
CENTER
 62
     2
 10
-252.249
 20
108.9766
 11
-252.249
 21
152.4738
  0
LINE
  8
0
  6
CONTINUOUS
 62
     7
 10
-246.4755
 20
117.2522
 11
-246.4755
 21
132.359
  0
LINE
  8
0
  6
CONTINUOUS
 62
     7
 10
-249.3623
 20
117.2522
 11
-249.3623
 21
132.359
  0
LINE
  8
0
  6
CONTINUOUS
 62
     7
 10
-246.4755
 20
132.359
 11
-247.249
 21
132.8056
  0
LINE
  8
0
  6
CONTINUOUS
 62
     7
 10
-255.1358
 20
117.2522
 11
-255.1358
 21
132.359
  0
LINE
  8
0
  6
CONTINUOUS
 62
     7
 10
-246.4755
 20
117.2522
 11
-247.249
 21
116.8056
  0
LINE
  8
0
  6
CONTINUOUS
 62
     7
 10
-258.0226
 20
132.3591
 11
-257.2491
 21
132.8056
  0
LINE
  8
0
  6
CONTINUOUS
 62
     7
 10
-258.0225
 20
117.2522
 11
-257.249
 21
116.8056
  0
LINE
  8
0
  6
CONTINUOUS
 62
     7
 10
-258.0225
 20
117.2522
 11
-258.0225
 21
132.3591
  0
LINE
  8
0
  6
CONTINUOUS
 62
     7
 10
-257.249
 20
116.8056
 11
-247.249
 21
116.8056
  0
LINE
  8
0
  6
CONTINUOUS
 62
     7
 10
-254.749
 20
111.3056
 11
-249.749
 21
111.3056
  0
LINE
  8
0
  6
CONTINUOUS
 62
     7
 10
-249.749
 20
111.3056
 11
-249.749
 21
114.7056
  0
LINE
  8
0
  6
CONTINUOUS
 62
     7
 10
-250.182
 20
111.3056
 11
-250.182
 21
114.7056
  0
LINE
  8
0
  6
CONTINUOUS
 62
     7
 10
-254.316
 20
111.3056
 11
-254.316
 21
114.7056
  0
LINE
  8
0
  6
CONTINUOUS
 62
     7
 10
-254.749
 20
111.3056
 11
-254.749
 21
114.7056
  0
LINE
  8
0
  6
CONTINUOUS
 62
     7
 10
-256.249
 20
114.7056
 11
-256.249
 21
116.8056
  0
LINE
  8
0
  6
CONTINUOUS
 62
     7
 10
-248.249
 20
114.7056
 11
-248.249
 21
116.8056
  0
LINE
  8
0
  6
CONTINUOUS
 62
     7
 10
-256.249
 20
115.3056
 11
-248.249
 21
115.3056
  0
LINE
  8
0
  6
CENTER
 62
     2
 10
-258.8403
 20
145.8056
 11
-233.1506
 21
145.8056
  0
LINE
  8
0
  6
CONTINUOUS
 62
     7
 10
-257.2491
 20
132.8056
 11
-247.249
 21
132.8056
  0
LINE
  8
0
  6
CONTINUOUS
 62
     7
 10
-247.249
 20
132.8056
 11
-247.249
 21
140.8056
  0
LINE
  8
0
  6
CONTINUOUS
 62
     7
 10
-257.249
 20
132.8056
 11
-257.249
 21
145.8056
  0
LINE
  8
0
  6
CONTINUOUS
 62
     7
 10
-255.749
 20
142.9396
 11
-255.749
 21
145.8056
  0
LINE
  8
0
  6
CONTINUOUS
 62
     7
 10
-252.249
 20
149.3056
 11
-249.383
 21
149.3056
  0
LINE
  8
0
  6
CONTINUOUS
 62
     7
 10
-247.249
 20
140.8056
 11
-249.383
 21
142.9396
  0
LINE
  8
0
  6
CONTINUOUS
 62
     7
 10
-247.249
 20
136.6635
 11
-243.1069
 21
140.8056
  0
LINE
  8
0
  6
CONTINUOUS
 62
     7
 10
-257.249
 20
141.4396
 11
-247.883
 21
141.4396
  0
LINE
  8
0
  6
CONTINUOUS
 62
     7
 10
-236.849
 20
150.8056
 11
-235.249
 21
150.8056
  0
LINE
  8
0
  6
CONTINUOUS
 62
     7
 10
-235.249
 20
150.8056
 11
-235.249
 21
140.8056
  0
LINE
  8
0
  6
CONTINUOUS
 62
     7
 10
-236.849
 20
150.8056
 11
-236.849
 21
140.8056
  0
LINE
  8
0
  6
CONTINUOUS
 62
     7
 10
-236.849
 20
140.8056
 11
-235.249
 21
140.8056
  0
LINE
  8
0
  6
CONTINUOUS
 62
     7
 10
-237.749
 20
148.4056
 11
-236.849
 21
148.4056
  0
LINE
  8
0
  6
CONTINUOUS
 62
     7
 10
-237.749
 20
143.2056
 11
-236.849
 21
143.2056
  0
LINE
  8
0
  6
CONTINUOUS
 62
     7
 10
-237.749
 20
150.5556
 11
-237.749
 21
141.0556
  0
LINE
  8
0
  6
CONTINUOUS
 62
     7
 10
-239.249
 20
141.0556
 11
-237.749
 21
141.0556
  0
LINE
  8
0
  6
CONTINUOUS
 62
     7
 10
-239.249
 20
150.5556
 11
-237.749
 21
150.5556
  0
LINE
  8
0
  6
CONTINUOUS
 62
     7
 10
-239.249
 20
150.8056
 11
-239.249
 21
140.8056
  0
LINE
  8
0
  6
CONTINUOUS
 62
     7
 10
-252.249
 20
150.8056
 11
-239.249
 21
150.8056
  0
LINE
  8
0
  6
CONTINUOUS
 62
     7
 10
-247.883
 20
150.8056
 11
-247.883
 21
141.4396
  0
LINE
  8
0
  6
CONTINUOUS
 62
     7
 10
-247.249
 20
140.8056
 11
-239.249
 21
140.8056
  0
LINE
  8
0
  6
CONTINUOUS
 62
     7
 10
-257.249
 20
141.4396
 11
-255.749
 21
142.9396
  0
LINE
  8
0
  6
CONTINUOUS
 62
     7
 10
-255.749
 20
142.9396
 11
-249.383
 21
142.9396
  0
LINE
  8
0
  6
CONTINUOUS
 62
     7
 10
-247.883
 20
150.8056
 11
-249.383
 21
149.3056
  0
LINE
  8
0
  6
CONTINUOUS
 62
     7
 10
-249.383
 20
149.3056
 11
-249.383
 21
142.9396
  0
LINE
  8
0
  6
CONTINUOUS
 62
     7
 10
-256.249
 20
114.7056
 11
-248.249
 21
114.7056
  0
LINE
  8
0
  6
CENTER
 62
     2
 10
-252.2491
 20
170.632
 11
-252.2491
 21
183.632
  0
LINE
  8
0
  6
CENTER
 62
     2
 10
-258.7491
 20
177.132
 11
-233.1039
 21
177.132
  0
LINE
  8
0
  6
CONTINUOUS
 62
     7
 10
-239.2491
 20
182.132
 11
-239.2491
 21
172.132
  0
LINE
  8
0
  6
CONTINUOUS
 62
     7
 10
-249.3623
 20
172.132
 11
-248.8209
 21
173.0699
  0
LINE
  8
0
  6
CONTINUOUS
 62
     7
 10
-248.8209
 20
181.1942
 11
-249.3623
 21
182.132
  0
LINE
  8
0
  6
CONTINUOUS
 62
     7
 10
-249.3623
 20
182.132
 11
-255.1358
 21
182.132
  0
LINE
  8
0
  6
CONTINUOUS
 62
     7
 10
-255.1358
 20
182.132
 11
-258.0226
 21
177.132
  0
LINE
  8
0
  6
CONTINUOUS
 62
     7
 10
-258.0226
 20
177.1321
 11
-255.1358
 21
172.1321
  0
LINE
  8
0
  6
CONTINUOUS
 62
     7
 10
-255.1358
 20
172.132
 11
-249.3623
 21
172.132
  0
LINE
  8
0
  6
CONTINUOUS
 62
     7
 10
-237.7491
 20
181.882
 11
-237.7491
 21
172.382
  0
LINE
  8
0
  6
CONTINUOUS
 62
     7
 10
-237.7491
 20
179.732
 11
-236.8491
 21
179.732
  0
LINE
  8
0
  6
CONTINUOUS
 62
     7
 10
-237.7491
 20
174.532
 11
-236.8491
 21
174.532
  0
LINE
  8
0
  6
CONTINUOUS
 62
     7
 10
-236.8491
 20
182.132
 11
-236.8491
 21
172.132
  0
LINE
  8
0
  6
CONTINUOUS
 62
     7
 10
-236.8491
 20
172.132
 11
-235.2491
 21
172.132
  0
LINE
  8
0
  6
CONTINUOUS
 62
     7
 10
-235.2491
 20
182.132
 11
-235.2491
 21
172.132
  0
LINE
  8
0
  6
CONTINUOUS
 62
     7
 10
-236.8491
 20
182.132
 11
-235.2491
 21
182.132
  0
LINE
  8
0
  6
CONTINUOUS
 62
     7
 10
-247.883
 20
172.132
 11
-239.2491
 21
172.132
  0
LINE
  8
0
  6
CONTINUOUS
 62
     7
 10
-247.883
 20
182.132
 11
-239.2491
 21
182.132
  0
LINE
  8
0
  6
CONTINUOUS
 62
     7
 10
-247.883
 20
182.132
 11
-247.883
 21
178.132
  0
LINE
  8
0
  6
CONTINUOUS
 62
     7
 10
-239.2491
 20
181.882
 11
-237.7491
 21
181.882
  0
LINE
  8
0
  6
CONTINUOUS
 62
     7
 10
-239.2491
 20
172.382
 11
-237.7491
 21
172.382
  0
LINE
  8
0
  6
CONTINUOUS
 62
     7
 10
-252.2491
 20
180.632
 11
-249.383
 21
180.632
  0
LINE
  8
0
  6
CONTINUOUS
 62
     7
 10
-252.2491
 20
173.632
 11
-249.383
 21
173.632
  0
LINE
  8
0
  6
CONTINUOUS
 62
     7
 10
-257.148
 20
176.132
 11
-247.883
 21
176.132
  0
LINE
  8
0
  6
CONTINUOUS
 62
     7
 10
-247.883
 20
176.132
 11
-247.883
 21
172.132
  0
LINE
  8
0
  6
CONTINUOUS
 62
     7
 10
-257.148
 20
178.132
 11
-247.883
 21
178.132
  0
LINE
  8
0
  6
CONTINUOUS
 62
     7
 10
-247.8831
 20
182.1321
 11
-249.3831
 21
180.6321
  0
LINE
  8
0
  6
CONTINUOUS
 62
     7
 10
-249.383
 20
180.632
 11
-249.383
 21
178.132
  0
LINE
  8
0
  6
CONTINUOUS
 62
     7
 10
-247.8831
 20
172.132
 11
-249.3831
 21
173.632
  0
LINE
  8
0
  6
CONTINUOUS
 62
     7
 10
-249.383
 20
173.632
 11
-249.383
 21
176.132
  0
LINE
  8
0
  6
CONTINUOUS
 62
     7
 10
-319.0613
 20
132.8056
 11
-309.0613
 21
132.8056
  0
LINE
  8
0
  6
CENTER
 62
     2
 10
-314.0613
 20
109.1072
 11
-314.0613
 21
152.3675
  0
LINE
  8
0
  6
CONTINUOUS
 62
     7
 10
-309.0613
 20
116.8056
 11
-309.0613
 21
141.4396
  0
LINE
  8
0
  6
CONTINUOUS
 62
     7
 10
-314.0613
 20
117.2522
 11
-314.0613
 21
132.359
  0
LINE
  8
0
  6
CONTINUOUS
 62
     7
 10
-319.0613
 20
116.8056
 11
-319.0613
 21
141.4396
  0
LINE
  8
0
  6
CONTINUOUS
 62
     7
 10
-319.0613
 20
116.8056
 11
-309.0613
 21
116.8056
  0
LINE
  8
0
  6
CONTINUOUS
 62
     7
 10
-316.5613
 20
111.3056
 11
-311.5613
 21
111.3056
  0
LINE
  8
0
  6
CONTINUOUS
 62
     7
 10
-311.5613
 20
111.3056
 11
-311.5613
 21
114.7056
  0
LINE
  8
0
  6
CONTINUOUS
 62
     7
 10
-316.5613
 20
111.3056
 11
-316.5613
 21
114.7056
  0
LINE
  8
0
  6
CONTINUOUS
 62
     7
 10
-311.9943
 20
111.3056
 11
-311.9943
 21
114.7056
  0
LINE
  8
0
  6
CONTINUOUS
 62
     7
 10
-316.1283
 20
111.3056
 11
-316.1283
 21
114.7056
  0
LINE
  8
0
  6
CONTINUOUS
 62
     7
 10
-318.0613
 20
115.3056
 11
-310.0613
 21
115.3056
  0
LINE
  8
0
  6
CONTINUOUS
 62
     7
 10
-310.0613
 20
114.7056
 11
-310.0613
 21
116.8056
  0
LINE
  8
0
  6
CONTINUOUS
 62
     7
 10
-318.0613
 20
114.7056
 11
-318.0613
 21
116.8056
  0
LINE
  8
0
  6
CONTINUOUS
 62
     7
 10
-319.0613
 20
141.4396
 11
-315.0613
 21
141.4396
  0
LINE
  8
0
  6
CENTER
 62
     2
 10
-321.0613
 20
145.8056
 11
-307.0613
 21
145.8056
  0
LINE
  8
0
  6
CONTINUOUS
 62
     7
 10
-313.0613
 20
141.4396
 11
-313.0613
 21
150.7046
  0
LINE
  8
0
  6
CONTINUOUS
 62
     7
 10
-315.0613
 20
141.4396
 11
-315.0613
 21
150.7046
  0
LINE
  8
0
  6
CONTINUOUS
 62
     7
 10
-313.0613
 20
141.4396
 11
-309.0613
 21
141.4396
  0
LINE
  8
0
  6
CONTINUOUS
 62
     7
 10
-319.0614
 20
141.4396
 11
-317.5614
 21
142.9396
  0
LINE
  8
0
  6
CONTINUOUS
 62
     7
 10
-317.5613
 20
142.9396
 11
-315.0613
 21
142.9396
  0
LINE
  8
0
  6
CONTINUOUS
 62
     7
 10
-317.5613
 20
142.9396
 11
-317.5613
 21
145.8056
  0
LINE
  8
0
  6
CONTINUOUS
 62
     7
 10
-310.5613
 20
142.9396
 11
-310.5613
 21
145.8056
  0
LINE
  8
0
  6
CONTINUOUS
 62
     7
 10
-309.0613
 20
141.4396
 11
-310.5613
 21
142.9396
  0
LINE
  8
0
  6
CONTINUOUS
 62
     7
 10
-310.5613
 20
142.9396
 11
-313.0613
 21
142.9396
  0
LINE
  8
0
  6
CONTINUOUS
 62
     7
 10
-318.0613
 20
114.7056
 11
-310.0613
 21
114.7056
  0
LINE
  8
0
  6
CONTINUOUS
 62
     7
 10
-175.4368
 20
132.8057
 11
-185.4368
 21
132.8057
  0
LINE
  8
0
  6
CENTER
 62
     2
 10
-180.4368
 20
108.8461
 11
-180.4368
 21
153.5954
  0
LINE
  8
0
  6
CONTINUOUS
 62
     7
 10
-185.4368
 20
116.8057
 11
-185.4368
 21
141.4397
  0
LINE
  8
0
  6
CONTINUOUS
 62
     7
 10
-180.4368
 20
117.2523
 11
-180.4368
 21
132.3481
  0
LINE
  8
0
  6
CONTINUOUS
 62
     7
 10
-175.4368
 20
116.8057
 11
-175.4368
 21
141.4397
  0
LINE
  8
0
  6
CONTINUOUS
 62
     7
 10
-175.4368
 20
116.8057
 11
-185.4368
 21
116.8057
  0
LINE
  8
0
  6
CONTINUOUS
 62
     7
 10
-177.9368
 20
111.3057
 11
-182.9368
 21
111.3057
  0
LINE
  8
0
  6
CONTINUOUS
 62
     7
 10
-182.9368
 20
111.3057
 11
-182.9368
 21
114.7057
  0
LINE
  8
0
  6
CONTINUOUS
 62
     7
 10
-177.9368
 20
111.3057
 11
-177.9368
 21
114.7057
  0
LINE
  8
0
  6
CONTINUOUS
 62
     7
 10
-182.5038
 20
111.3057
 11
-182.5038
 21
114.7057
  0
LINE
  8
0
  6
CONTINUOUS
 62
     7
 10
-178.3698
 20
111.3057
 11
-178.3698
 21
114.7057
  0
LINE
  8
0
  6
CONTINUOUS
 62
     7
 10
-176.4368
 20
115.3057
 11
-184.4368
 21
115.3057
  0
LINE
  8
0
  6
CONTINUOUS
 62
     7
 10
-184.4368
 20
114.7057
 11
-184.4368
 21
116.8057
  0
LINE
  8
0
  6
CONTINUOUS
 62
     7
 10
-176.4368
 20
114.7057
 11
-176.4368
 21
116.8057
  0
LINE
  8
0
  6
CONTINUOUS
 62
     7
 10
-175.4368
 20
141.4397
 11
-178.0
 21
141.4397
  0
LINE
  8
0
  6
CENTER
 62
     2
 10
-173.4368
 20
145.8057
 11
-187.4368
 21
145.8057
  0
LINE
  8
0
  6
CONTINUOUS
 62
     7
 10
-182.8736
 20
141.4397
 11
-185.4368
 21
141.4397
  0
LINE
  8
0
  6
CONTINUOUS
 62
     7
 10
-179.4368
 20
136.6635
 11
-179.4368
 21
140.9067
  0
LINE
  8
0
  6
CONTINUOUS
 62
     7
 10
-181.4368
 20
136.6635
 11
-181.4368
 21
140.9067
  0
LINE
  8
0
  6
CONTINUOUS
 62
     7
 10
-181.4368
 20
136.6635
 11
-179.4368
 21
136.6635
  0
LINE
  8
0
  6
CONTINUOUS
 62
     7
 10
-175.4368
 20
141.4397
 11
-176.5985
 21
142.6014
  0
LINE
  8
0
  6
CONTINUOUS
 62
     7
 10
-185.4368
 20
141.4397
 11
-184.2751
 21
142.6014
  0
LINE
  8
0
  6
CONTINUOUS
 62
     7
 10
-176.4368
 20
114.7057
 11
-184.4368
 21
114.7057
  0
LINE
  8
0
  6
CONTINUOUS
 62
     7
 10
0.77353
 20
119.1522
 11
0.77353
 21
134.259
  0
LINE
  8
0
  6
CONTINUOUS
 62
     7
 10
-2.11322
 20
119.1522
 11
-2.11322
 21
134.259
  0
LINE
  8
0
  6
CONTINUOUS
 62
     7
 10
0.77353
 20
134.259
 11
0.00003
 21
134.7056
  0
LINE
  8
0
  6
CONTINUOUS
 62
     7
 10
-7.88672
 20
119.1522
 11
-7.88672
 21
134.259
  0
LINE
  8
0
  6
CONTINUOUS
 62
     7
 10
0.77355
 20
119.1522
 11
0.00005
 21
118.7056
  0
LINE
  8
0
  6
CONTINUOUS
 62
     7
 10
-10.77348
 20
134.259
 11
-9.99998
 21
134.7056
  0
LINE
  8
0
  6
CONTINUOUS
 62
     7
 10
-10.77348
 20
119.1522
 11
-9.99998
 21
118.7056
  0
LINE
  8
0
  6
CONTINUOUS
 62
     7
 10
-10.77347
 20
119.1522
 11
-10.77347
 21
134.259
  0
LINE
  8
0
  6
CONTINUOUS
 62
     7
 10
-9.99997
 20
118.7056
 11
0.00003
 21
118.7056
  0
LINE
  8
0
  6
CONTINUOUS
 62
     7
 10
-9.73827
 20
110.7056
 11
-9.98968
 21
118.7056
  0
LINE
  8
0
  6
CONTINUOUS
 62
     7
 10
-9.15728
 20
110.7056
 11
-9.40869
 21
118.7056
  0
LINE
  8
0
  6
CONTINUOUS
 62
     7
 10
-9.73827
 20
110.7056
 11
-0.26167
 21
110.7056
  0
LINE
  8
0
  6
CONTINUOUS
 62
     7
 10
-0.84268
 20
110.7056
 11
-0.59127
 21
118.7056
  0
LINE
  8
0
  6
CONTINUOUS
 62
     7
 10
-0.26168
 20
110.7056
 11
-0.01027
 21
118.7056
  0
LINE
  8
0
  6
CENTER
 62
     2
 10
-4.99997
 20
108.2277
 11
-4.99997
 21
154.3737
  0
LINE
  8
0
  6
CONTINUOUS
 62
     7
 10
-10.0
 20
134.7056
 11
0.00001
 21
134.7056
  0
LINE
  8
0
  6
CONTINUOUS
 62
     7
 10
0.00003
 20
134.7056
 11
0.00003
 21
142.7056
  0
LINE
  8
0
  6
CONTINUOUS
 62
     7
 10
-9.99997
 20
134.7056
 11
-9.99997
 21
147.7056
  0
LINE
  8
0
  6
CENTER
 62
     2
 10
-11.59126
 20
147.7056
 11
14.09848
 21
147.7056
  0
LINE
  8
0
  6
CONTINUOUS
 62
     7
 10
-8.49997
 20
144.8396
 11
-8.49997
 21
147.7056
  0
LINE
  8
0
  6
CONTINUOUS
 62
     7
 10
-4.99997
 20
151.2056
 11
-2.13395
 21
151.2056
  0
LINE
  8
0
  6
CONTINUOUS
 62
     7
 10
0.00003
 20
142.7056
 11
-2.13395
 21
144.8396
  0
LINE
  8
0
  6
CONTINUOUS
 62
     7
 10
0.00002
 20
138.5635
 11
4.14216
 21
142.7056
  0
LINE
  8
0
  6
CONTINUOUS
 62
     7
 10
-9.99997
 20
143.3396
 11
-0.63394
 21
143.3396
  0
LINE
  8
0
  6
CONTINUOUS
 62
     7
 10
10.40003
 20
152.7056
 11
12.00003
 21
152.7056
  0
LINE
  8
0
  6
CONTINUOUS
 62
     7
 10
12.00003
 20
152.7056
 11
12.00003
 21
142.7056
  0
LINE
  8
0
  6
CONTINUOUS
 62
     7
 10
10.40003
 20
152.7056
 11
10.40003
 21
142.7056
  0
LINE
  8
0
  6
CONTINUOUS
 62
     7
 10
10.40003
 20
142.7056
 11
12.00003
 21
142.7056
  0
LINE
  8
0
  6
CONTINUOUS
 62
     7
 10
9.50003
 20
150.3056
 11
10.40003
 21
150.3056
  0
LINE
  8
0
  6
CONTINUOUS
 62
     7
 10
9.50003
 20
145.1056
 11
10.40003
 21
145.1056
  0
LINE
  8
0
  6
CONTINUOUS
 62
     7
 10
9.50003
 20
152.4556
 11
9.50003
 21
142.9556
  0
LINE
  8
0
  6
CONTINUOUS
 62
     7
 10
8.00003
 20
142.9556
 11
9.50003
 21
142.9556
  0
LINE
  8
0
  6
CONTINUOUS
 62
     7
 10
8.00003
 20
152.4556
 11
9.50003
 21
152.4556
  0
LINE
  8
0
  6
CONTINUOUS
 62
     7
 10
8.00003
 20
152.7056
 11
8.00003
 21
142.7056
  0
LINE
  8
0
  6
CONTINUOUS
 62
     7
 10
-4.99997
 20
152.7056
 11
8.00003
 21
152.7056
  0
LINE
  8
0
  6
CONTINUOUS
 62
     7
 10
-0.63394
 20
152.7056
 11
-0.63394
 21
143.3396
  0
LINE
  8
0
  6
CONTINUOUS
 62
     7
 10
0.00003
 20
142.7056
 11
8.00003
 21
142.7056
  0
LINE
  8
0
  6
CONTINUOUS
 62
     7
 10
-9.99998
 20
143.3396
 11
-8.49998
 21
144.8396
  0
LINE
  8
0
  6
CONTINUOUS
 62
     7
 10
-8.49997
 20
144.8396
 11
-2.13395
 21
144.8396
  0
LINE
  8
0
  6
CONTINUOUS
 62
     7
 10
-0.63395
 20
152.7056
 11
-2.13395
 21
151.2056
  0
LINE
  8
0
  6
CONTINUOUS
 62
     7
 10
-2.13395
 20
151.2056
 11
-2.13395
 21
144.8396
  0
LINE
  8
0
  6
CENTER
 62
     2
 10
-5.00003
 20
170.632
 11
-5.00003
 21
183.632
  0
LINE
  8
0
  6
CENTER
 62
     2
 10
-11.50003
 20
177.132
 11
14.1451
 21
177.132
  0
LINE
  8
0
  6
CONTINUOUS
 62
     7
 10
7.99997
 20
182.132
 11
7.99997
 21
172.132
  0
LINE
  8
0
  6
CONTINUOUS
 62
     7
 10
-2.11328
 20
172.132
 11
-1.57183
 21
173.0699
  0
LINE
  8
0
  6
CONTINUOUS
 62
     7
 10
-1.57182
 20
181.1942
 11
-2.11327
 21
182.132
  0
LINE
  8
0
  6
CONTINUOUS
 62
     7
 10
-2.11328
 20
182.132
 11
-7.88678
 21
182.132
  0
LINE
  8
0
  6
CONTINUOUS
 62
     7
 10
-7.8868
 20
182.1321
 11
-10.77355
 21
177.1321
  0
LINE
  8
0
  6
CONTINUOUS
 62
     7
 10
-10.77352
 20
177.132
 11
-7.88678
 21
172.132
  0
LINE
  8
0
  6
CONTINUOUS
 62
     7
 10
-7.88678
 20
172.132
 11
-2.11328
 21
172.132
  0
LINE
  8
0
  6
CONTINUOUS
 62
     7
 10
9.49997
 20
181.882
 11
9.49997
 21
172.382
  0
LINE
  8
0
  6
CONTINUOUS
 62
     7
 10
9.49997
 20
179.732
 11
10.39997
 21
179.732
  0
LINE
  8
0
  6
CONTINUOUS
 62
     7
 10
9.49997
 20
174.532
 11
10.39997
 21
174.532
  0
LINE
  8
0
  6
CONTINUOUS
 62
     7
 10
10.39997
 20
182.132
 11
10.39997
 21
172.132
  0
LINE
  8
0
  6
CONTINUOUS
 62
     7
 10
10.39997
 20
172.132
 11
11.99997
 21
172.132
  0
LINE
  8
0
  6
CONTINUOUS
 62
     7
 10
11.99997
 20
182.132
 11
11.99997
 21
172.132
  0
LINE
  8
0
  6
CONTINUOUS
 62
     7
 10
10.39997
 20
182.132
 11
11.99997
 21
182.132
  0
LINE
  8
0
  6
CONTINUOUS
 62
     7
 10
-0.63401
 20
172.132
 11
7.99997
 21
172.132
  0
LINE
  8
0
  6
CONTINUOUS
 62
     7
 10
-0.634
 20
182.132
 11
7.99997
 21
182.132
  0
LINE
  8
0
  6
CONTINUOUS
 62
     7
 10
-0.63401
 20
182.132
 11
-0.63401
 21
178.132
  0
LINE
  8
0
  6
CONTINUOUS
 62
     7
 10
7.99997
 20
181.882
 11
9.49997
 21
181.882
  0
LINE
  8
0
  6
CONTINUOUS
 62
     7
 10
7.99997
 20
172.382
 11
9.49997
 21
172.382
  0
LINE
  8
0
  6
CONTINUOUS
 62
     7
 10
-5.00003
 20
180.632
 11
-2.13401
 21
180.632
  0
LINE
  8
0
  6
CONTINUOUS
 62
     7
 10
-5.00003
 20
173.632
 11
-2.13401
 21
173.632
  0
LINE
  8
0
  6
CONTINUOUS
 62
     7
 10
-9.89901
 20
176.132
 11
-0.63401
 21
176.132
  0
LINE
  8
0
  6
CONTINUOUS
 62
     7
 10
-0.63401
 20
176.132
 11
-0.63401
 21
172.132
  0
LINE
  8
0
  6
CONTINUOUS
 62
     7
 10
-9.89901
 20
178.132
 11
-0.63401
 21
178.132
  0
LINE
  8
0
  6
CONTINUOUS
 62
     7
 10
-0.63403
 20
182.1321
 11
-2.13403
 21
180.6321
  0
LINE
  8
0
  6
CONTINUOUS
 62
     7
 10
-2.13401
 20
180.632
 11
-2.13401
 21
178.132
  0
LINE
  8
0
  6
CONTINUOUS
 62
     7
 10
-0.634
 20
172.132
 11
-2.134
 21
173.632
  0
LINE
  8
0
  6
CONTINUOUS
 62
     7
 10
-2.13401
 20
173.632
 11
-2.13401
 21
176.132
  0
LINE
  8
0
  6
CONTINUOUS
 62
     7
 10
-71.81227
 20
134.7056
 11
-61.81227
 21
134.7056
  0
LINE
  8
0
  6
CONTINUOUS
 62
     7
 10
-61.81227
 20
118.7056
 11
-61.81227
 21
143.3396
  0
LINE
  8
0
  6
CONTINUOUS
 62
     7
 10
-66.81227
 20
119.1522
 11
-66.81227
 21
134.259
  0
LINE
  8
0
  6
CONTINUOUS
 62
     7
 10
-71.81227
 20
118.7056
 11
-71.81227
 21
143.3396
  0
LINE
  8
0
  6
CONTINUOUS
 62
     7
 10
-71.81227
 20
118.7056
 11
-61.81227
 21
118.7056
  0
LINE
  8
0
  6
CONTINUOUS
 62
     7
 10
-71.55058
 20
110.7056
 11
-71.80199
 21
118.7056
  0
LINE
  8
0
  6
CONTINUOUS
 62
     7
 10
-70.96959
 20
110.7056
 11
-71.221
 21
118.7056
  0
LINE
  8
0
  6
CONTINUOUS
 62
     7
 10
-71.55058
 20
110.7056
 11
-62.07397
 21
110.7056
  0
LINE
  8
0
  6
CONTINUOUS
 62
     7
 10
-62.65496
 20
110.7056
 11
-62.40355
 21
118.7056
  0
LINE
  8
0
  6
CONTINUOUS
 62
     7
 10
-62.07397
 20
110.7056
 11
-61.82256
 21
118.7056
  0
LINE
  8
0
  6
CENTER
 62
     2
 10
-66.81227
 20
108.2277
 11
-66.81227
 21
154.2675
  0
LINE
  8
0
  6
CONTINUOUS
 62
     7
 10
-71.81227
 20
143.3396
 11
-67.81227
 21
143.3396
  0
LINE
  8
0
  6
CENTER
 62
     2
 10
-73.81227
 20
147.7056
 11
-59.81227
 21
147.7056
  0
LINE
  8
0
  6
CONTINUOUS
 62
     7
 10
-65.81227
 20
143.3396
 11
-65.81227
 21
152.6046
  0
LINE
  8
0
  6
CONTINUOUS
 62
     7
 10
-67.81227
 20
143.3396
 11
-67.81227
 21
152.6046
  0
LINE
  8
0
  6
CONTINUOUS
 62
     7
 10
-65.81227
 20
143.3396
 11
-61.81227
 21
143.3396
  0
LINE
  8
0
  6
CONTINUOUS
 62
     7
 10
-71.81231
 20
143.3397
 11
-70.31231
 21
144.8397
  0
LINE
  8
0
  6
CONTINUOUS
 62
     7
 10
-70.31227
 20
144.8396
 11
-67.81227
 21
144.8396
  0
LINE
  8
0
  6
CONTINUOUS
 62
     7
 10
-70.31227
 20
144.8396
 11
-70.31227
 21
147.7056
  0
LINE
  8
0
  6
CONTINUOUS
 62
     7
 10
-63.31227
 20
144.8396
 11
-63.31227
 21
147.7056
  0
LINE
  8
0
  6
CONTINUOUS
 62
     7
 10
-61.81227
 20
143.3396
 11
-63.31227
 21
144.8396
  0
LINE
  8
0
  6
CONTINUOUS
 62
     7
 10
-63.31227
 20
144.8396
 11
-65.81227
 21
144.8396
  0
LINE
  8
0
  6
CONTINUOUS
 62
     7
 10
62.655
 20
110.7057
 11
62.40359
 21
118.7057
  0
LINE
  8
0
  6
CONTINUOUS
 62
     7
 10
62.07399
 20
110.7057
 11
61.82258
 21
118.7057
  0
LINE
  8
0
  6
CONTINUOUS
 62
     7
 10
70.96951
 20
110.7057
 11
71.22092
 21
118.7057
  0
LINE
  8
0
  6
CONTINUOUS
 62
     7
 10
71.5505
 20
110.7057
 11
71.80191
 21
118.7057
  0
LINE
  8
0
  6
CONTINUOUS
 62
     7
 10
62.07396
 20
110.7057
 11
71.55055
 21
110.7057
  0
LINE
  8
0
  6
CONTINUOUS
 62
     7
 10
71.81226
 20
134.7057
 11
61.81226
 21
134.7057
  0
LINE
  8
0
  6
CONTINUOUS
 62
     7
 10
61.81226
 20
118.7057
 11
61.81226
 21
143.3397
  0
LINE
  8
0
  6
CONTINUOUS
 62
     7
 10
66.81226
 20
119.1523
 11
66.81226
 21
134.2591
  0
LINE
  8
0
  6
CONTINUOUS
 62
     7
 10
71.81226
 20
118.7057
 11
71.81226
 21
143.3396
  0
LINE
  8
0
  6
CONTINUOUS
 62
     7
 10
71.81226
 20
118.7057
 11
61.81226
 21
118.7057
  0
LINE
  8
0
  6
CENTER
 62
     2
 10
66.81226
 20
108.1639
 11
66.81226
 21
155.4954
  0
LINE
  8
0
  6
CONTINUOUS
 62
     7
 10
71.81226
 20
143.3396
 11
69.24902
 21
143.3396
  0
LINE
  8
0
  6
CENTER
 62
     2
 10
73.81226
 20
147.7057
 11
59.81226
 21
147.7057
  0
LINE
  8
0
  6
CONTINUOUS
 62
     7
 10
64.37549
 20
143.3396
 11
61.81226
 21
143.3396
  0
LINE
  8
0
  6
CONTINUOUS
 62
     7
 10
67.81226
 20
138.5635
 11
67.81226
 21
142.8067
  0
LINE
  8
0
  6
CONTINUOUS
 62
     7
 10
65.81226
 20
138.5635
 11
65.81226
 21
142.8067
  0
LINE
  8
0
  6
CONTINUOUS
 62
     7
 10
65.81226
 20
138.5635
 11
67.81226
 21
138.5635
  0
LINE
  8
0
  6
CONTINUOUS
 62
     7
 10
71.81231
 20
143.3397
 11
70.6506
 21
144.5014
  0
LINE
  8
0
  6
CONTINUOUS
 62
     7
 10
61.81227
 20
143.3397
 11
62.97398
 21
144.5014
  0
LINE
  8
0
  6
CENTER
 62
     2
 10
-252.249
 20
-62.08313
 11
-252.249
 21
-12.36681
  0
LINE
  8
0
  6
CONTINUOUS
 62
     7
 10
-258.249
 20
-32.00005
 11
-246.249
 21
-32.00005
  0
LINE
  8
0
  6
CONTINUOUS
 62
     7
 10
-258.249
 20
-51.00005
 11
-246.249
 21
-51.00005
  0
LINE
  8
0
  6
CONTINUOUS
 62
     7
 10
-259.1772
 20
-32.53596
 11
-259.1772
 21
-50.46413
  0
LINE
  8
0
  6
CONTINUOUS
 62
     7
 10
-255.7131
 20
-32.53594
 11
-255.7131
 21
-50.46415
  0
LINE
  8
0
  6
CONTINUOUS
 62
     7
 10
-248.7849
 20
-32.53595
 11
-248.7849
 21
-50.46415
  0
LINE
  8
0
  6
CONTINUOUS
 62
     7
 10
-245.3208
 20
-32.53594
 11
-245.3208
 21
-50.46415
  0
LINE
  8
0
  6
CONTINUOUS
 62
     7
 10
-246.249
 20
-32.00004
 11
-245.3208
 21
-32.53593
  0
LINE
  8
0
  6
CONTINUOUS
 62
     7
 10
-258.249
 20
-32.00005
 11
-259.1772
 21
-32.53595
  0
LINE
  8
0
  6
CONTINUOUS
 62
     7
 10
-258.249
 20
-51.00005
 11
-259.1772
 21
-50.46414
  0
LINE
  8
0
  6
CONTINUOUS
 62
     7
 10
-246.249
 20
-51.00003
 11
-245.3208
 21
-50.46413
  0
LINE
  8
0
  6
CONTINUOUS
 62
     7
 10
-256.9873
 20
-59.00005
 11
-257.2387
 21
-51.00005
  0
LINE
  8
0
  6
CONTINUOUS
 62
     7
 10
-256.4063
 20
-59.00005
 11
-256.6578
 21
-51.00005
  0
LINE
  8
0
  6
CONTINUOUS
 62
     7
 10
-256.9873
 20
-59.00005
 11
-247.5107
 21
-59.00005
  0
LINE
  8
0
  6
CONTINUOUS
 62
     7
 10
-248.0917
 20
-59.00004
 11
-247.8403
 21
-51.00004
  0
LINE
  8
0
  6
CONTINUOUS
 62
     7
 10
-247.5107
 20
-59.00004
 11
-247.2593
 21
-51.00004
  0
LINE
  8
0
  6
CENTER
 62
     2
 10
-261.7998
 20
-20.75005
 11
-229.541
 21
-20.75005
  0
LINE
  8
0
  6
CONTINUOUS
 62
     7
 10
-258.249
 20
-32.00005
 11
-258.249
 21
-20.75005
  0
LINE
  8
0
  6
CONTINUOUS
 62
     7
 10
-256.749
 20
-23.50005
 11
-256.749
 21
-20.75005
  0
LINE
  8
0
  6
CONTINUOUS
 62
     7
 10
-252.249
 20
-16.25005
 11
-247.999
 21
-16.25005
  0
LINE
  8
0
  6
CONTINUOUS
 62
     7
 10
-258.249
 20
-25.00005
 11
-247.999
 21
-25.00005
  0
LINE
  8
0
  6
CONTINUOUS
 62
     7
 10
-234.049
 20
-14.85004
 11
-232.249
 21
-14.85004
  0
LINE
  8
0
  6
CONTINUOUS
 62
     7
 10
-232.249
 20
-14.85004
 11
-232.249
 21
-26.65005
  0
LINE
  8
0
  6
CONTINUOUS
 62
     7
 10
-234.049
 20
-14.85004
 11
-234.049
 21
-26.65005
  0
LINE
  8
0
  6
CONTINUOUS
 62
     7
 10
-234.049
 20
-26.65005
 11
-232.249
 21
-26.65005
  0
LINE
  8
0
  6
CONTINUOUS
 62
     7
 10
-235.249
 20
-16.45005
 11
-234.049
 21
-16.45005
  0
LINE
  8
0
  6
CONTINUOUS
 62
     7
 10
-235.249
 20
-25.05005
 11
-234.049
 21
-25.05005
  0
LINE
  8
0
  6
CONTINUOUS
 62
     7
 10
-235.249
 20
-15.00005
 11
-235.249
 21
-26.50005
  0
LINE
  8
0
  6
CONTINUOUS
 62
     7
 10
-237.249
 20
-26.50005
 11
-235.249
 21
-26.50005
  0
LINE
  8
0
  6
CONTINUOUS
 62
     7
 10
-237.249
 20
-15.00005
 11
-235.249
 21
-15.00005
  0
LINE
  8
0
  6
CONTINUOUS
 62
     7
 10
-237.249
 20
-14.50005
 11
-237.249
 21
-27.00005
  0
LINE
  8
0
  6
CONTINUOUS
 62
     7
 10
-251.999
 20
-14.50005
 11
-237.249
 21
-14.50005
  0
LINE
  8
0
  6
CONTINUOUS
 62
     7
 10
-246.249
 20
-27.00005
 11
-237.249
 21
-27.00005
  0
LINE
  8
0
  6
CONTINUOUS
 62
     7
 10
-240.249
 20
-14.50005
 11
-240.249
 21
-27.00005
  0
LINE
  8
0
  6
CONTINUOUS
 62
     7
 10
-246.249
 20
-32.00005
 11
-246.249
 21
-14.50005
  0
LINE
  8
0
  6
CONTINUOUS
 62
     7
 10
-247.999
 20
-20.75005
 11
-246.249
 21
-27.00005
  0
LINE
  8
0
  6
CONTINUOUS
 62
     7
 10
-247.999
 20
-25.00004
 11
-249.499
 21
-23.50004
  0
LINE
  8
0
  6
CONTINUOUS
 62
     7
 10
-246.249
 20
-28.78863
 11
-244.4605
 21
-27.00005
  0
LINE
  8
0
  6
CONTINUOUS
 62
     7
 10
-258.249
 20
-25.00004
 11
-256.7491
 21
-23.50005
  0
LINE
  8
0
  6
CONTINUOUS
 62
     7
 10
-256.749
 20
-23.50005
 11
-249.499
 21
-23.50005
  0
LINE
  8
0
  6
CONTINUOUS
 62
     7
 10
-246.249
 20
-14.50005
 11
-247.999
 21
-16.25004
  0
LINE
  8
0
  6
CONTINUOUS
 62
     7
 10
-247.999
 20
-16.25005
 11
-247.999
 21
-25.00005
  0
LINE
  8
0
  6
CONTINUOUS
 62
     7
 10
-255.7132
 20
11.42652
 11
-248.785
 21
11.42652
  0
LINE
  8
0
  6
CONTINUOUS
 62
     7
 10
-248.785
 20
11.42638
 11
-247.9483
 21
12.87558
  0
LINE
  8
0
  6
CONTINUOUS
 62
     7
 10
-247.9483
 20
21.97721
 11
-248.785
 21
23.42639
  0
LINE
  8
0
  6
CONTINUOUS
 62
     7
 10
-248.785
 20
23.42654
 11
-255.7132
 21
23.42655
  0
LINE
  8
0
  6
CONTINUOUS
 62
     7
 10
-255.7134
 20
23.42645
 11
-259.1775
 21
17.42646
  0
LINE
  8
0
  6
CONTINUOUS
 62
     7
 10
-259.1773
 20
17.4264
 11
-255.7132
 21
11.4264
  0
LINE
  8
0
  6
CONTINUOUS
 62
     7
 10
-232.2491
 20
23.32638
 11
-232.2491
 21
11.52637
  0
LINE
  8
0
  6
CONTINUOUS
 62
     7
 10
-234.0491
 20
23.32638
 11
-234.0491
 21
11.52637
  0
LINE
  8
0
  6
CONTINUOUS
 62
     7
 10
-234.0491
 20
11.52637
 11
-232.2491
 21
11.52637
  0
LINE
  8
0
  6
CONTINUOUS
 62
     7
 10
-234.0491
 20
23.32638
 11
-232.2491
 21
23.32638
  0
LINE
  8
0
  6
CONTINUOUS
 62
     7
 10
-235.2491
 20
13.12638
 11
-234.0491
 21
13.12638
  0
LINE
  8
0
  6
CONTINUOUS
 62
     7
 10
-235.2491
 20
21.72637
 11
-234.0491
 21
21.72637
  0
LINE
  8
0
  6
CENTER
 62
     2
 10
-260.7491
 20
17.42638
 11
-229.4211
 21
17.42638
  0
LINE
  8
0
  6
CENTER
 62
     2
 10
-252.2491
 20
25.92638
 11
-252.2491
 21
8.92638
  0
LINE
  8
0
  6
CONTINUOUS
 62
     7
 10
-246.2491
 20
11.17638
 11
-237.2491
 21
11.17638
  0
LINE
  8
0
  6
CONTINUOUS
 62
     7
 10
-246.2491
 20
23.67638
 11
-237.2491
 21
23.67638
  0
LINE
  8
0
  6
CONTINUOUS
 62
     7
 10
-237.2491
 20
23.67638
 11
-237.2491
 21
11.17638
  0
LINE
  8
0
  6
CONTINUOUS
 62
     7
 10
-240.2491
 20
23.67638
 11
-240.2491
 21
11.17638
  0
LINE
  8
0
  6
CONTINUOUS
 62
     7
 10
-237.2491
 20
23.17638
 11
-235.2491
 21
23.17638
  0
LINE
  8
0
  6
CONTINUOUS
 62
     7
 10
-235.2491
 20
23.17638
 11
-235.2491
 21
11.67638
  0
LINE
  8
0
  6
CONTINUOUS
 62
     7
 10
-237.2491
 20
11.67638
 11
-235.2491
 21
11.67638
  0
LINE
  8
0
  6
CONTINUOUS
 62
     7
 10
-246.2491
 20
18.67638
 11
-246.2491
 21
23.67638
  0
LINE
  8
0
  6
CONTINUOUS
 62
     7
 10
-252.2491
 20
21.92638
 11
-247.9991
 21
21.92638
  0
LINE
  8
0
  6
CONTINUOUS
 62
     7
 10
-252.2491
 20
12.92638
 11
-247.9991
 21
12.92638
  0
LINE
  8
0
  6
CONTINUOUS
 62
     7
 10
-258.0151
 20
18.67638
 11
-246.2491
 21
18.67638
  0
LINE
  8
0
  6
CONTINUOUS
 62
     7
 10
-246.2491
 20
16.17638
 11
-246.2491
 21
11.17638
  0
LINE
  8
0
  6
CONTINUOUS
 62
     7
 10
-258.0151
 20
16.17638
 11
-246.2491
 21
16.17638
  0
LINE
  8
0
  6
CONTINUOUS
 62
     7
 10
-246.2491
 20
23.67637
 11
-247.999
 21
21.92638
  0
LINE
  8
0
  6
CONTINUOUS
 62
     7
 10
-247.9991
 20
21.92638
 11
-247.9991
 21
18.67638
  0
LINE
  8
0
  6
CONTINUOUS
 62
     7
 10
-246.2491
 20
11.17635
 11
-247.9991
 21
12.92635
  0
LINE
  8
0
  6
CONTINUOUS
 62
     7
 10
-247.9991
 20
12.92638
 11
-247.9991
 21
16.17638
  0
LINE
  8
0
  6
CENTER
 62
     2
 10
-314.0613
 20
-62.08311
 11
-314.0613
 21
-12.36679
  0
LINE
  8
0
  6
CONTINUOUS
 62
     7
 10
-320.0613
 20
-32.00003
 11
-308.0613
 21
-32.00003
  0
LINE
  8
0
  6
CONTINUOUS
 62
     7
 10
-320.0613
 20
-51.00003
 11
-308.0613
 21
-51.00003
  0
LINE
  8
0
  6
CONTINUOUS
 62
     7
 10
-320.0613
 20
-25.00003
 11
-320.0613
 21
-51.00003
  0
LINE
  8
0
  6
CONTINUOUS
 62
     7
 10
-308.0613
 20
-25.00003
 11
-308.0613
 21
-51.00003
  0
LINE
  8
0
  6
CONTINUOUS
 62
     7
 10
-314.0613
 20
-50.46413
 11
-314.0613
 21
-32.53593
  0
LINE
  8
0
  6
CONTINUOUS
 62
     7
 10
-318.7997
 20
-59.00003
 11
-319.0511
 21
-51.00003
  0
LINE
  8
0
  6
CONTINUOUS
 62
     7
 10
-318.2186
 20
-59.00003
 11
-318.47
 21
-51.00003
  0
LINE
  8
0
  6
CONTINUOUS
 62
     7
 10
-318.7996
 20
-59.00003
 11
-309.323
 21
-59.00003
  0
LINE
  8
0
  6
CONTINUOUS
 62
     7
 10
-309.904
 20
-59.00002
 11
-309.6526
 21
-51.00002
  0
LINE
  8
0
  6
CONTINUOUS
 62
     7
 10
-309.323
 20
-59.00002
 11
-309.0716
 21
-51.00002
  0
LINE
  8
0
  6
CONTINUOUS
 62
     7
 10
-320.0613
 20
-51.00003
 11
-308.0613
 21
-51.00003
  0
LINE
  8
0
  6
CONTINUOUS
 62
     7
 10
-312.8113
 20
-25.00003
 11
-308.0613
 21
-25.00003
  0
LINE
  8
0
  6
CENTER
 62
     2
 10
-321.5613
 20
-20.75003
 11
-306.5613
 21
-20.75003
  0
LINE
  8
0
  6
CONTINUOUS
 62
     7
 10
-309.5613
 20
-23.50003
 11
-309.5613
 21
-20.75003
  0
LINE
  8
0
  6
CONTINUOUS
 62
     7
 10
-318.5613
 20
-23.50003
 11
-318.5613
 21
-20.75003
  0
LINE
  8
0
  6
CONTINUOUS
 62
     7
 10
-312.8113
 20
-25.00003
 11
-312.8113
 21
-14.6263
  0
LINE
  8
0
  6
CONTINUOUS
 62
     7
 10
-315.3113
 20
-25.00003
 11
-315.3113
 21
-14.6263
  0
LINE
  8
0
  6
CONTINUOUS
 62
     7
 10
-315.3113
 20
-25.00003
 11
-320.0613
 21
-25.00003
  0
LINE
  8
0
  6
CONTINUOUS
 62
     7
 10
-320.0613
 20
-25.00002
 11
-318.5613
 21
-23.50001
  0
LINE
  8
0
  6
CONTINUOUS
 62
     7
 10
-318.5613
 20
-23.50003
 11
-315.3113
 21
-23.50003
  0
LINE
  8
0
  6
CONTINUOUS
 62
     7
 10
-309.5613
 20
-23.50003
 11
-312.8113
 21
-23.50003
  0
LINE
  8
0
  6
CONTINUOUS
 62
     7
 10
-308.0613
 20
-25.00004
 11
-309.5613
 21
-23.50004
  0
LINE
  8
0
  6
CONTINUOUS
 62
     7
 10
-184.5941
 20
-58.99998
 11
-184.8455
 21
-50.99999
  0
LINE
  8
0
  6
CONTINUOUS
 62
     7
 10
-185.1751
 20
-58.99999
 11
-185.4265
 21
-50.99999
  0
LINE
  8
0
  6
CONTINUOUS
 62
     7
 10
-176.2795
 20
-58.99998
 11
-176.0281
 21
-50.99998
  0
LINE
  8
0
  6
CONTINUOUS
 62
     7
 10
-175.6985
 20
-58.99998
 11
-175.4471
 21
-50.99998
  0
LINE
  8
0
  6
CONTINUOUS
 62
     7
 10
-185.1751
 20
-58.99998
 11
-175.6985
 21
-58.99998
  0
LINE
  8
0
  6
CONTINUOUS
 62
     7
 10
-186.4368
 20
-50.99998
 11
-174.4368
 21
-50.99998
  0
LINE
  8
0
  6
CENTER
 62
     2
 10
-180.4368
 20
-62.24241
 11
-180.4368
 21
-12.36675
  0
LINE
  8
0
  6
CONTINUOUS
 62
     7
 10
-186.4368
 20
-31.99998
 11
-174.4368
 21
-31.99998
  0
LINE
  8
0
  6
CONTINUOUS
 62
     7
 10
-186.4368
 20
-50.99998
 11
-174.4368
 21
-50.99998
  0
LINE
  8
0
  6
CONTINUOUS
 62
     7
 10
-186.4368
 20
-24.99998
 11
-186.4368
 21
-50.99998
  0
LINE
  8
0
  6
CONTINUOUS
 62
     7
 10
-174.4368
 20
-24.99998
 11
-174.4368
 21
-50.99998
  0
LINE
  8
0
  6
CONTINUOUS
 62
     7
 10
-180.4368
 20
-50.46408
 11
-180.4368
 21
-32.53588
  0
LINE
  8
0
  6
CONTINUOUS
 62
     7
 10
-175.8542
 20
-24.99998
 11
-174.4368
 21
-24.99998
  0
LINE
  8
0
  6
CENTER
 62
     2
 10
-187.9368
 20
-20.74998
 11
-172.9368
 21
-20.74998
  0
LINE
  8
0
  6
CONTINUOUS
 62
     7
 10
-185.0194
 20
-24.99998
 11
-186.4368
 21
-24.99998
  0
LINE
  8
0
  6
CONTINUOUS
 62
     7
 10
-186.4368
 20
-24.99999
 11
-185.6437
 21
-24.20693
  0
LINE
  8
0
  6
CONTINUOUS
 62
     7
 10
-174.4368
 20
-24.99999
 11
-175.2299
 21
-24.20692
  0
LINE
  8
0
  6
CONTINUOUS
 62
     7
 10
-181.6868
 20
-28.78857
 11
-181.6868
 21
-26.87371
  0
LINE
  8
0
  6
CONTINUOUS
 62
     7
 10
-181.6868
 20
-28.78857
 11
-179.1868
 21
-28.78857
  0
LINE
  8
0
  6
CONTINUOUS
 62
     7
 10
-179.1868
 20
-28.78857
 11
-179.1868
 21
-26.87371
  0
LINE
  8
0
  6
CONTINUOUS
 62
     7
 10
-11.99996
 20
-50.00005
 11
2.00004
 21
-50.00005
  0
LINE
  8
0
  6
CONTINUOUS
 62
     7
 10
-13.08288
 20
-49.37482
 11
-13.08288
 21
-31.6308
  0
LINE
  8
0
  6
CONTINUOUS
 62
     7
 10
-9.04143
 20
-49.37482
 11
-9.04143
 21
-31.62761
  0
LINE
  8
0
  6
CONTINUOUS
 62
     7
 10
-0.95852
 20
-49.37482
 11
-0.95852
 21
-31.61897
  0
LINE
  8
0
  6
CONTINUOUS
 62
     7
 10
3.08294
 20
-49.37483
 11
3.08294
 21
-31.6308
  0
LINE
  8
0
  6
CONTINUOUS
 62
     7
 10
-11.39095
 20
-61.00005
 11
-11.73472
 21
-50.00005
  0
LINE
  8
0
  6
CONTINUOUS
 62
     7
 10
-10.53496
 20
-61.00005
 11
-10.87873
 21
-50.00005
  0
LINE
  8
0
  6
CONTINUOUS
 62
     7
 10
0.53502
 20
-61.00005
 11
0.87879
 21
-50.00005
  0
LINE
  8
0
  6
CONTINUOUS
 62
     7
 10
1.39102
 20
-61.00003
 11
1.73478
 21
-50.00003
  0
LINE
  8
0
  6
CONTINUOUS
 62
     7
 10
-11.39096
 20
-61.00005
 11
1.39102
 21
-61.00005
  0
LINE
  8
0
  6
CONTINUOUS
 62
     7
 10
-13.08287
 20
-49.37482
 11
-11.99996
 21
-50.00003
  0
LINE
  8
0
  6
CONTINUOUS
 62
     7
 10
3.08294
 20
-49.37482
 11
2.00003
 21
-50.00004
  0
LINE
  8
0
  6
CONTINUOUS
 62
     7
 10
-11.05351
 20
-31.00005
 11
1.05357
 21
-31.00005
  0
LINE
  8
0
  6
CENTER
 62
     2
 10
-4.99997
 20
-63.59159
 11
-4.99997
 21
-11.51627
  0
LINE
  8
0
  6
CENTER
 62
     2
 10
-14.5508
 20
-19.75005
 11
17.70805
 21
-19.75005
  0
LINE
  8
0
  6
CONTINUOUS
 62
     7
 10
-10.99997
 20
-31.00005
 11
-10.99997
 21
-19.75005
  0
LINE
  8
0
  6
CONTINUOUS
 62
     7
 10
-9.49997
 20
-22.50005
 11
-9.49997
 21
-19.75005
  0
LINE
  8
0
  6
CONTINUOUS
 62
     7
 10
-4.99997
 20
-15.25005
 11
-0.74997
 21
-15.25005
  0
LINE
  8
0
  6
CONTINUOUS
 62
     7
 10
-10.99997
 20
-24.00005
 11
-0.74997
 21
-24.00005
  0
LINE
  8
0
  6
CONTINUOUS
 62
     7
 10
13.20003
 20
-13.85004
 11
15.00003
 21
-13.85004
  0
LINE
  8
0
  6
CONTINUOUS
 62
     7
 10
15.00003
 20
-13.85004
 11
15.00003
 21
-25.65005
  0
LINE
  8
0
  6
CONTINUOUS
 62
     7
 10
13.20003
 20
-13.85004
 11
13.20003
 21
-25.65005
  0
LINE
  8
0
  6
CONTINUOUS
 62
     7
 10
13.20003
 20
-25.65005
 11
15.00003
 21
-25.65005
  0
LINE
  8
0
  6
CONTINUOUS
 62
     7
 10
12.00003
 20
-15.45005
 11
13.20003
 21
-15.45005
  0
LINE
  8
0
  6
CONTINUOUS
 62
     7
 10
12.00003
 20
-24.05005
 11
13.20003
 21
-24.05005
  0
LINE
  8
0
  6
CONTINUOUS
 62
     7
 10
12.00003
 20
-14.00005
 11
12.00003
 21
-25.50005
  0
LINE
  8
0
  6
CONTINUOUS
 62
     7
 10
10.00003
 20
-25.50005
 11
12.00003
 21
-25.50005
  0
LINE
  8
0
  6
CONTINUOUS
 62
     7
 10
10.00003
 20
-14.00005
 11
12.00003
 21
-14.00005
  0
LINE
  8
0
  6
CONTINUOUS
 62
     7
 10
10.00003
 20
-13.50005
 11
10.00003
 21
-26.00005
  0
LINE
  8
0
  6
CONTINUOUS
 62
     7
 10
-4.74997
 20
-13.50005
 11
10.00003
 21
-13.50005
  0
LINE
  8
0
  6
CONTINUOUS
 62
     7
 10
1.00003
 20
-26.00005
 11
10.00003
 21
-26.00005
  0
LINE
  8
0
  6
CONTINUOUS
 62
     7
 10
7.00003
 20
-13.50005
 11
7.00003
 21
-26.00005
  0
LINE
  8
0
  6
CONTINUOUS
 62
     7
 10
1.00003
 20
-31.00005
 11
1.00003
 21
-13.50005
  0
LINE
  8
0
  6
CONTINUOUS
 62
     7
 10
-0.74997
 20
-19.75005
 11
1.00003
 21
-26.00005
  0
LINE
  8
0
  6
CONTINUOUS
 62
     7
 10
-0.74997
 20
-24.00004
 11
-2.24997
 21
-22.50004
  0
LINE
  8
0
  6
CONTINUOUS
 62
     7
 10
1.00003
 20
-27.78863
 11
2.78861
 21
-26.00004
  0
LINE
  8
0
  6
CONTINUOUS
 62
     7
 10
-10.99997
 20
-24.00004
 11
-9.49997
 21
-22.50004
  0
LINE
  8
0
  6
CONTINUOUS
 62
     7
 10
-9.49997
 20
-22.50005
 11
-2.24997
 21
-22.50005
  0
LINE
  8
0
  6
CONTINUOUS
 62
     7
 10
1.00003
 20
-13.50005
 11
-0.74997
 21
-15.25005
  0
LINE
  8
0
  6
CONTINUOUS
 62
     7
 10
-0.74997
 20
-15.25005
 11
-0.74997
 21
-24.00005
  0
LINE
  8
0
  6
CONTINUOUS
 62
     7
 10
-0.95858
 20
10.42637
 11
0.03282
 21
12.14352
  0
LINE
  8
0
  6
CONTINUOUS
 62
     7
 10
0.03282
 20
22.70923
 11
-0.95857
 21
24.42637
  0
LINE
  8
0
  6
CONTINUOUS
 62
     7
 10
-0.95858
 20
24.42638
 11
-9.04148
 21
24.42639
  0
LINE
  8
0
  6
CONTINUOUS
 62
     7
 10
-9.0415
 20
24.42639
 11
-13.08295
 21
17.42639
  0
LINE
  8
0
  6
CONTINUOUS
 62
     7
 10
-13.08292
 20
17.42638
 11
-9.04148
 21
10.42638
  0
LINE
  8
0
  6
CONTINUOUS
 62
     7
 10
-9.04148
 20
10.42637
 11
-0.95858
 21
10.42637
  0
LINE
  8
0
  6
CONTINUOUS
 62
     7
 10
14.99997
 20
23.32638
 11
14.99997
 21
11.52637
  0
LINE
  8
0
  6
CONTINUOUS
 62
     7
 10
13.19997
 20
23.32638
 11
13.19997
 21
11.52637
  0
LINE
  8
0
  6
CONTINUOUS
 62
     7
 10
13.19997
 20
11.52637
 11
14.99997
 21
11.52637
  0
LINE
  8
0
  6
CONTINUOUS
 62
     7
 10
13.19997
 20
23.32638
 11
14.99997
 21
23.32638
  0
LINE
  8
0
  6
CONTINUOUS
 62
     7
 10
11.99997
 20
13.12638
 11
13.19997
 21
13.12638
  0
LINE
  8
0
  6
CONTINUOUS
 62
     7
 10
11.99997
 20
21.72638
 11
13.19997
 21
21.72638
  0
LINE
  8
0
  6
CENTER
 62
     2
 10
-14.68336
 20
17.42638
 11
17.828
 21
17.42638
  0
LINE
  8
0
  6
CENTER
 62
     2
 10
-5.00003
 20
26.49304
 11
-5.00003
 21
8.52638
  0
LINE
  8
0
  6
CONTINUOUS
 62
     7
 10
0.99997
 20
11.17638
 11
9.99997
 21
11.17638
  0
LINE
  8
0
  6
CONTINUOUS
 62
     7
 10
0.99997
 20
23.67638
 11
9.99997
 21
23.67638
  0
LINE
  8
0
  6
CONTINUOUS
 62
     7
 10
9.99997
 20
23.67638
 11
9.99997
 21
11.17638
  0
LINE
  8
0
  6
CONTINUOUS
 62
     7
 10
6.99997
 20
23.67638
 11
6.99997
 21
11.17638
  0
LINE
  8
0
  6
CONTINUOUS
 62
     7
 10
9.99997
 20
23.17638
 11
11.99997
 21
23.17638
  0
LINE
  8
0
  6
CONTINUOUS
 62
     7
 10
11.99997
 20
23.17638
 11
11.99997
 21
11.67638
  0
LINE
  8
0
  6
CONTINUOUS
 62
     7
 10
9.99997
 20
11.67638
 11
11.99997
 21
11.67638
  0
LINE
  8
0
  6
CONTINUOUS
 62
     7
 10
0.99997
 20
18.67638
 11
0.99997
 21
23.67638
  0
LINE
  8
0
  6
CONTINUOUS
 62
     7
 10
-5.00003
 20
21.92638
 11
-0.75003
 21
21.92638
  0
LINE
  8
0
  6
CONTINUOUS
 62
     7
 10
-5.00003
 20
12.92638
 11
-0.75003
 21
12.92638
  0
LINE
  8
0
  6
CONTINUOUS
 62
     7
 10
-10.7661
 20
18.67638
 11
0.99997
 21
18.67638
  0
LINE
  8
0
  6
CONTINUOUS
 62
     7
 10
0.99997
 20
16.17638
 11
0.99997
 21
11.17638
  0
LINE
  8
0
  6
CONTINUOUS
 62
     7
 10
-10.7661
 20
16.17638
 11
0.99997
 21
16.17638
  0
LINE
  8
0
  6
CONTINUOUS
 62
     7
 10
0.99997
 20
23.67637
 11
-0.75003
 21
21.92638
  0
LINE
  8
0
  6
CONTINUOUS
 62
     7
 10
-0.75003
 20
21.92638
 11
-0.75003
 21
18.67638
  0
LINE
  8
0
  6
CONTINUOUS
 62
     7
 10
0.99995
 20
11.17637
 11
-0.75004
 21
12.92636
  0
LINE
  8
0
  6
CONTINUOUS
 62
     7
 10
-0.75003
 20
12.92638
 11
-0.75003
 21
16.17638
  0
LINE
  8
0
  6
CONTINUOUS
 62
     7
 10
-73.81227
 20
-50.00003
 11
-59.81227
 21
-50.00003
  0
LINE
  8
0
  6
CONTINUOUS
 62
     7
 10
-59.81227
 20
-50.00003
 11
-59.81227
 21
-31.00003
  0
LINE
  8
0
  6
CONTINUOUS
 62
     7
 10
-66.81227
 20
-49.37481
 11
-66.81227
 21
-31.62525
  0
LINE
  8
0
  6
CONTINUOUS
 62
     7
 10
-73.81227
 20
-50.00003
 11
-73.81227
 21
-31.00003
  0
LINE
  8
0
  6
CONTINUOUS
 62
     7
 10
-73.20325
 20
-61.00003
 11
-73.54702
 21
-50.00003
  0
LINE
  8
0
  6
CONTINUOUS
 62
     7
 10
-72.34725
 20
-61.00003
 11
-72.69102
 21
-50.00003
  0
LINE
  8
0
  6
CONTINUOUS
 62
     7
 10
-61.27729
 20
-61.00002
 11
-60.93352
 21
-50.00002
  0
LINE
  8
0
  6
CONTINUOUS
 62
     7
 10
-60.42128
 20
-61.00002
 11
-60.07751
 21
-50.00002
  0
LINE
  8
0
  6
CONTINUOUS
 62
     7
 10
-73.20326
 20
-61.00003
 11
-60.42128
 21
-61.00003
  0
LINE
  8
0
  6
CONTINUOUS
 62
     7
 10
-73.81227
 20
-31.00003
 11
-59.81227
 21
-31.00003
  0
LINE
  8
0
  6
CENTER
 62
     2
 10
-66.81227
 20
-63.12491
 11
-66.81227
 21
-11.51625
  0
LINE
  8
0
  6
CONTINUOUS
 62
     7
 10
-72.81227
 20
-24.00003
 11
-72.81227
 21
-31.00003
  0
LINE
  8
0
  6
CONTINUOUS
 62
     7
 10
-60.81227
 20
-24.00003
 11
-60.81227
 21
-31.00003
  0
LINE
  8
0
  6
CONTINUOUS
 62
     7
 10
-65.56227
 20
-24.00003
 11
-60.81227
 21
-24.00003
  0
LINE
  8
0
  6
CENTER
 62
     2
 10
-74.31227
 20
-19.75003
 11
-59.31227
 21
-19.75003
  0
LINE
  8
0
  6
CONTINUOUS
 62
     7
 10
-62.31227
 20
-22.50003
 11
-62.31227
 21
-19.75003
  0
LINE
  8
0
  6
CONTINUOUS
 62
     7
 10
-71.31227
 20
-22.50003
 11
-71.31227
 21
-19.75003
  0
LINE
  8
0
  6
CONTINUOUS
 62
     7
 10
-65.56227
 20
-24.00003
 11
-65.56227
 21
-13.6263
  0
LINE
  8
0
  6
CONTINUOUS
 62
     7
 10
-68.06227
 20
-24.00003
 11
-68.06227
 21
-13.6263
  0
LINE
  8
0
  6
CONTINUOUS
 62
     7
 10
-68.06227
 20
-24.00003
 11
-72.81227
 21
-24.00003
  0
LINE
  8
0
  6
CONTINUOUS
 62
     7
 10
-72.81227
 20
-24.00002
 11
-71.31227
 21
-22.50002
  0
LINE
  8
0
  6
CONTINUOUS
 62
     7
 10
-71.31227
 20
-22.50003
 11
-68.06227
 21
-22.50003
  0
LINE
  8
0
  6
CONTINUOUS
 62
     7
 10
-62.31227
 20
-22.50003
 11
-65.56227
 21
-22.50003
  0
LINE
  8
0
  6
CONTINUOUS
 62
     7
 10
-60.81227
 20
-24.00003
 11
-62.31227
 21
-22.50003
  0
LINE
  8
0
  6
CONTINUOUS
 62
     7
 10
59.81225
 20
-30.99998
 11
73.81226
 21
-30.99998
  0
LINE
  8
0
  6
CONTINUOUS
 62
     7
 10
59.81225
 20
-49.99998
 11
73.81226
 21
-49.99998
  0
LINE
  8
0
  6
CONTINUOUS
 62
     7
 10
73.81226
 20
-49.99998
 11
73.81226
 21
-30.99998
  0
LINE
  8
0
  6
CONTINUOUS
 62
     7
 10
66.81226
 20
-49.37476
 11
66.81226
 21
-31.6252
  0
LINE
  8
0
  6
CONTINUOUS
 62
     7
 10
59.81225
 20
-49.99998
 11
59.81225
 21
-30.99998
  0
LINE
  8
0
  6
CONTINUOUS
 62
     7
 10
60.42126
 20
-60.99998
 11
60.0775
 21
-49.99998
  0
LINE
  8
0
  6
CONTINUOUS
 62
     7
 10
61.27725
 20
-60.99998
 11
60.93349
 21
-49.99998
  0
LINE
  8
0
  6
CONTINUOUS
 62
     7
 10
72.34722
 20
-60.99999
 11
72.69099
 21
-49.99999
  0
LINE
  8
0
  6
CONTINUOUS
 62
     7
 10
73.20323
 20
-60.99998
 11
73.547
 21
-49.99998
  0
LINE
  8
0
  6
CONTINUOUS
 62
     7
 10
60.42126
 20
-60.99998
 11
73.20325
 21
-60.99998
  0
LINE
  8
0
  6
CENTER
 62
     2
 10
66.81226
 20
-63.35819
 11
66.81226
 21
-11.32152
  0
LINE
  8
0
  6
CONTINUOUS
 62
     7
 10
60.81226
 20
-23.99998
 11
60.81226
 21
-30.99998
  0
LINE
  8
0
  6
CONTINUOUS
 62
     7
 10
72.81226
 20
-23.99998
 11
72.81226
 21
-30.99998
  0
LINE
  8
0
  6
CONTINUOUS
 62
     7
 10
71.39484
 20
-23.99998
 11
72.81226
 21
-23.99998
  0
LINE
  8
0
  6
CENTER
 62
     2
 10
59.31226
 20
-19.74998
 11
74.31226
 21
-19.74998
  0
LINE
  8
0
  6
CONTINUOUS
 62
     7
 10
62.22968
 20
-23.99998
 11
60.81226
 21
-23.99998
  0
LINE
  8
0
  6
CONTINUOUS
 62
     7
 10
60.81226
 20
-23.99998
 11
61.60533
 21
-23.20692
  0
LINE
  8
0
  6
CONTINUOUS
 62
     7
 10
72.81226
 20
-23.99998
 11
72.01919
 21
-23.20691
  0
LINE
  8
0
  6
CONTINUOUS
 62
     7
 10
65.56226
 20
-27.78857
 11
65.56226
 21
-25.87371
  0
LINE
  8
0
  6
CONTINUOUS
 62
     7
 10
65.56226
 20
-27.78857
 11
68.06226
 21
-27.78857
  0
LINE
  8
0
  6
CONTINUOUS
 62
     7
 10
68.06226
 20
-27.78857
 11
68.06226
 21
-25.87371
  0
LINE
  8
0
  6
CENTER
 62
     2
 10
-252.249
 20
-230.5312
 11
-252.249
 21
-174.0081
  0
LINE
  8
0
  6
CONTINUOUS
 62
     7
 10
-256.4063
 20
-228.7057
 11
-256.6577
 21
-220.7057
  0
LINE
  8
0
  6
CONTINUOUS
 62
     7
 10
-256.9873
 20
-228.7057
 11
-257.2387
 21
-220.7057
  0
LINE
  8
0
  6
CONTINUOUS
 62
     7
 10
-248.0917
 20
-228.7057
 11
-247.8403
 21
-220.7057
  0
LINE
  8
0
  6
CONTINUOUS
 62
     7
 10
-247.5107
 20
-228.7057
 11
-247.2593
 21
-220.7057
  0
LINE
  8
0
  6
CONTINUOUS
 62
     7
 10
-256.9873
 20
-228.7057
 11
-247.5107
 21
-228.7057
  0
LINE
  8
0
  6
CONTINUOUS
 62
     7
 10
-259.249
 20
-220.7057
 11
-245.249
 21
-220.7057
  0
LINE
  8
0
  6
CONTINUOUS
 62
     7
 10
-260.3319
 20
-220.0805
 11
-260.3319
 21
-200.3309
  0
LINE
  8
0
  6
CONTINUOUS
 62
     7
 10
-256.2905
 20
-220.0805
 11
-256.2905
 21
-200.3309
  0
LINE
  8
0
  6
CONTINUOUS
 62
     7
 10
-248.2076
 20
-220.0805
 11
-248.2076
 21
-200.3309
  0
LINE
  8
0
  6
CONTINUOUS
 62
     7
 10
-244.1661
 20
-220.0805
 11
-244.1661
 21
-200.3309
  0
LINE
  8
0
  6
CONTINUOUS
 62
     7
 10
-260.3319
 20
-220.0805
 11
-259.249
 21
-220.7057
  0
LINE
  8
0
  6
CONTINUOUS
 62
     7
 10
-244.166
 20
-220.0804
 11
-245.249
 21
-220.7057
  0
LINE
  8
0
  6
CONTINUOUS
 62
     7
 10
-259.249
 20
-199.7057
 11
-245.249
 21
-199.7057
  0
LINE
  8
0
  6
CONTINUOUS
 62
     7
 10
-260.3319
 20
-200.3309
 11
-259.249
 21
-199.7057
  0
LINE
  8
0
  6
CONTINUOUS
 62
     7
 10
-244.1661
 20
-200.3309
 11
-245.249
 21
-199.7057
  0
LINE
  8
0
  6
CENTER
 62
     2
 10
-261.8912
 20
-184.9557
 11
-226.5065
 21
-184.9557
  0
LINE
  8
0
  6
CONTINUOUS
 62
     7
 10
-259.249
 20
-199.7057
 11
-259.249
 21
-184.9557
  0
LINE
  8
0
  6
CONTINUOUS
 62
     7
 10
-257.749
 20
-188.9557
 11
-257.749
 21
-184.9557
  0
LINE
  8
0
  6
CONTINUOUS
 62
     7
 10
-259.149
 20
-190.4557
 11
-246.999
 21
-190.4557
  0
LINE
  8
0
  6
CONTINUOUS
 62
     7
 10
-234.749
 20
-177.7057
 11
-234.749
 21
-192.2057
  0
LINE
  8
0
  6
CONTINUOUS
 62
     7
 10
-231.749
 20
-178.0557
 11
-229.749
 21
-178.0557
  0
LINE
  8
0
  6
CONTINUOUS
 62
     7
 10
-231.749
 20
-178.0557
 11
-231.749
 21
-191.8557
  0
LINE
  8
0
  6
CONTINUOUS
 62
     7
 10
-229.749
 20
-178.0557
 11
-229.749
 21
-191.8557
  0
LINE
  8
0
  6
CONTINUOUS
 62
     7
 10
-232.249
 20
-177.9557
 11
-232.249
 21
-191.9557
  0
LINE
  8
0
  6
CONTINUOUS
 62
     7
 10
-232.249
 20
-180.2057
 11
-231.749
 21
-180.2057
  0
LINE
  8
0
  6
CONTINUOUS
 62
     7
 10
-232.249
 20
-189.7057
 11
-231.749
 21
-189.7057
  0
LINE
  8
0
  6
CONTINUOUS
 62
     7
 10
-231.749
 20
-191.8557
 11
-229.749
 21
-191.8557
  0
LINE
  8
0
  6
CONTINUOUS
 62
     7
 10
-234.749
 20
-191.9557
 11
-232.249
 21
-191.9557
  0
LINE
  8
0
  6
CONTINUOUS
 62
     7
 10
-234.749
 20
-177.9557
 11
-232.249
 21
-177.9557
  0
LINE
  8
0
  6
CONTINUOUS
 62
     7
 10
-238.249
 20
-177.7057
 11
-238.249
 21
-192.2057
  0
LINE
  8
0
  6
CONTINUOUS
 62
     7
 10
-245.249
 20
-192.2057
 11
-234.749
 21
-192.2057
  0
LINE
  8
0
  6
CONTINUOUS
 62
     7
 10
-251.999
 20
-177.7057
 11
-234.749
 21
-177.7057
  0
LINE
  8
0
  6
CONTINUOUS
 62
     7
 10
-245.249
 20
-199.7057
 11
-245.249
 21
-177.7057
  0
LINE
  8
0
  6
CONTINUOUS
 62
     7
 10
-252.249
 20
-179.4557
 11
-246.999
 21
-179.4557
  0
LINE
  8
0
  6
CONTINUOUS
 62
     7
 10
-245.249
 20
-192.2057
 11
-246.999
 21
-184.9557
  0
LINE
  8
0
  6
CONTINUOUS
 62
     7
 10
-246.999
 20
-190.4557
 11
-248.499
 21
-188.9557
  0
LINE
  8
0
  6
CONTINUOUS
 62
     7
 10
-245.249
 20
-194.1156
 11
-243.3391
 21
-192.2057
  0
LINE
  8
0
  6
CONTINUOUS
 62
     7
 10
-259.2491
 20
-190.4557
 11
-257.749
 21
-188.9557
  0
LINE
  8
0
  6
CONTINUOUS
 62
     7
 10
-257.749
 20
-188.9557
 11
-248.499
 21
-188.9557
  0
LINE
  8
0
  6
CONTINUOUS
 62
     7
 10
-246.999
 20
-179.4557
 11
-245.249
 21
-177.7057
  0
LINE
  8
0
  6
CONTINUOUS
 62
     7
 10
-246.999
 20
-179.4557
 11
-246.999
 21
-190.4557
  0
LINE
  8
0
  6
CONTINUOUS
 62
     7
 10
-248.2076
 20
-159.2793
 11
-247.3416
 21
-157.7793
  0
LINE
  8
0
  6
CONTINUOUS
 62
     7
 10
-247.3416
 20
-146.7793
 11
-248.2076
 21
-145.2793
  0
LINE
  8
0
  6
CONTINUOUS
 62
     7
 10
-248.2076
 20
-145.2793
 11
-256.2905
 21
-145.2793
  0
LINE
  8
0
  6
CONTINUOUS
 62
     7
 10
-256.2906
 20
-145.2793
 11
-260.332
 21
-152.2793
  0
LINE
  8
0
  6
CONTINUOUS
 62
     7
 10
-260.332
 20
-152.2793
 11
-256.2906
 21
-159.2793
  0
LINE
  8
0
  6
CONTINUOUS
 62
     7
 10
-256.2905
 20
-159.2793
 11
-248.2076
 21
-159.2793
  0
LINE
  8
0
  6
CENTER
 62
     2
 10
-252.2491
 20
-161.2793
 11
-252.2491
 21
-143.2793
  0
LINE
  8
0
  6
CENTER
 62
     2
 10
-261.2491
 20
-152.2793
 11
-226.4588
 21
-152.2793
  0
LINE
  8
0
  6
CONTINUOUS
 62
     7
 10
-234.7491
 20
-145.0293
 11
-234.7491
 21
-159.5293
  0
LINE
  8
0
  6
CONTINUOUS
 62
     7
 10
-231.7491
 20
-145.3793
 11
-229.7491
 21
-145.3793
  0
LINE
  8
0
  6
CONTINUOUS
 62
     7
 10
-231.7491
 20
-145.3793
 11
-231.7491
 21
-159.1793
  0
LINE
  8
0
  6
CONTINUOUS
 62
     7
 10
-229.7491
 20
-145.3793
 11
-229.7491
 21
-159.1793
  0
LINE
  8
0
  6
CONTINUOUS
 62
     7
 10
-232.2491
 20
-145.2793
 11
-232.2491
 21
-159.2793
  0
LINE
  8
0
  6
CONTINUOUS
 62
     7
 10
-232.2491
 20
-147.5293
 11
-231.7491
 21
-147.5293
  0
LINE
  8
0
  6
CONTINUOUS
 62
     7
 10
-232.2491
 20
-157.0293
 11
-231.7491
 21
-157.0293
  0
LINE
  8
0
  6
CONTINUOUS
 62
     7
 10
-231.7491
 20
-159.1793
 11
-229.7491
 21
-159.1793
  0
LINE
  8
0
  6
CONTINUOUS
 62
     7
 10
-234.7491
 20
-159.2793
 11
-232.2491
 21
-159.2793
  0
LINE
  8
0
  6
CONTINUOUS
 62
     7
 10
-234.7491
 20
-145.2793
 11
-232.2491
 21
-145.2793
  0
LINE
  8
0
  6
CONTINUOUS
 62
     7
 10
-238.2491
 20
-145.0293
 11
-238.2491
 21
-159.5293
  0
LINE
  8
0
  6
CONTINUOUS
 62
     7
 10
-245.2491
 20
-159.5293
 11
-234.7491
 21
-159.5293
  0
LINE
  8
0
  6
CONTINUOUS
 62
     7
 10
-245.2491
 20
-145.0293
 11
-234.7491
 21
-145.0293
  0
LINE
  8
0
  6
CONTINUOUS
 62
     7
 10
-245.2491
 20
-159.5293
 11
-245.2491
 21
-153.7793
  0
LINE
  8
0
  6
CONTINUOUS
 62
     7
 10
-252.2491
 20
-146.7793
 11
-246.9991
 21
-146.7793
  0
LINE
  8
0
  6
CONTINUOUS
 62
     7
 10
-252.2491
 20
-157.7793
 11
-246.9991
 21
-157.7793
  0
LINE
  8
0
  6
CONTINUOUS
 62
     7
 10
-259.0865
 20
-153.7793
 11
-245.2491
 21
-153.7793
  0
LINE
  8
0
  6
CONTINUOUS
 62
     7
 10
-259.0865
 20
-150.7793
 11
-245.2491
 21
-150.7793
  0
LINE
  8
0
  6
CONTINUOUS
 62
     7
 10
-245.2491
 20
-145.0293
 11
-245.2491
 21
-150.7793
  0
LINE
  8
0
  6
CONTINUOUS
 62
     7
 10
-246.9991
 20
-146.7793
 11
-245.2491
 21
-145.0293
  0
LINE
  8
0
  6
CONTINUOUS
 62
     7
 10
-246.9991
 20
-146.7793
 11
-246.9991
 21
-150.7793
  0
LINE
  8
0
  6
CONTINUOUS
 62
     7
 10
-246.9991
 20
-157.7793
 11
-246.9991
 21
-153.7793
  0
LINE
  8
0
  6
CONTINUOUS
 62
     7
 10
-246.9991
 20
-157.7793
 11
-245.2491
 21
-159.5293
  0
LINE
  8
0
  6
CENTER
 62
     2
 10
-314.0613
 20
-230.5312
 11
-314.0613
 21
-174.3374
  0
LINE
  8
0
  6
CONTINUOUS
 62
     7
 10
-309.904
 20
-228.7057
 11
-309.6526
 21
-220.7057
  0
LINE
  8
0
  6
CONTINUOUS
 62
     7
 10
-309.323
 20
-228.7057
 11
-309.0716
 21
-220.7057
  0
LINE
  8
0
  6
CONTINUOUS
 62
     7
 10
-318.7997
 20
-228.7057
 11
-319.0511
 21
-220.7057
  0
LINE
  8
0
  6
CONTINUOUS
 62
     7
 10
-318.2186
 20
-228.7057
 11
-318.47
 21
-220.7057
  0
LINE
  8
0
  6
CONTINUOUS
 62
     7
 10
-318.7996
 20
-228.7057
 11
-309.323
 21
-228.7057
  0
LINE
  8
0
  6
CONTINUOUS
 62
     7
 10
-321.0613
 20
-220.7057
 11
-307.0613
 21
-220.7057
  0
LINE
  8
0
  6
CONTINUOUS
 62
     7
 10
-314.0613
 20
-220.0805
 11
-314.0613
 21
-200.3309
  0
LINE
  8
0
  6
CONTINUOUS
 62
     7
 10
-321.0613
 20
-220.7057
 11
-321.0613
 21
-190.4557
  0
LINE
  8
0
  6
CONTINUOUS
 62
     7
 10
-321.0613
 20
-199.7057
 11
-307.0613
 21
-199.7057
  0
LINE
  8
0
  6
CONTINUOUS
 62
     7
 10
-307.0613
 20
-220.7057
 11
-307.0613
 21
-190.4557
  0
LINE
  8
0
  6
CONTINUOUS
 62
     7
 10
-312.5613
 20
-190.4557
 11
-307.0613
 21
-190.4557
  0
LINE
  8
0
  6
CENTER
 62
     2
 10
-323.0613
 20
-184.9557
 11
-305.0613
 21
-184.9557
  0
LINE
  8
0
  6
CONTINUOUS
 62
     7
 10
-308.5613
 20
-188.9557
 11
-308.5613
 21
-184.9557
  0
LINE
  8
0
  6
CONTINUOUS
 62
     7
 10
-319.5613
 20
-188.9557
 11
-319.5613
 21
-184.9557
  0
LINE
  8
0
  6
CONTINUOUS
 62
     7
 10
-312.5613
 20
-190.4557
 11
-312.5613
 21
-177.8625
  0
LINE
  8
0
  6
CONTINUOUS
 62
     7
 10
-315.5613
 20
-190.4557
 11
-315.5613
 21
-177.8625
  0
LINE
  8
0
  6
CONTINUOUS
 62
     7
 10
-315.5613
 20
-190.4557
 11
-321.0613
 21
-190.4557
  0
LINE
  8
0
  6
CONTINUOUS
 62
     7
 10
-319.5613
 20
-188.9557
 11
-315.5613
 21
-188.9557
  0
LINE
  8
0
  6
CONTINUOUS
 62
     7
 10
-308.5613
 20
-188.9557
 11
-312.5613
 21
-188.9557
  0
LINE
  8
0
  6
CONTINUOUS
 62
     7
 10
-307.0613
 20
-190.4557
 11
-308.5613
 21
-188.9557
  0
LINE
  8
0
  6
CONTINUOUS
 62
     7
 10
-321.0613
 20
-190.4557
 11
-319.5613
 21
-188.9557
  0
LINE
  8
0
  6
CENTER
 62
     2
 10
-180.4368
 20
-230.5312
 11
-180.4368
 21
-173.8433
  0
LINE
  8
0
  6
CONTINUOUS
 62
     7
 10
-184.5941
 20
-228.7056
 11
-184.8455
 21
-220.7056
  0
LINE
  8
0
  6
CONTINUOUS
 62
     7
 10
-185.1751
 20
-228.7057
 11
-185.4265
 21
-220.7057
  0
LINE
  8
0
  6
CONTINUOUS
 62
     7
 10
-175.6984
 20
-228.7057
 11
-175.447
 21
-220.7057
  0
LINE
  8
0
  6
CONTINUOUS
 62
     7
 10
-176.2795
 20
-228.7056
 11
-176.0281
 21
-220.7056
  0
LINE
  8
0
  6
CONTINUOUS
 62
     7
 10
-175.6985
 20
-228.7056
 11
-185.1751
 21
-228.7056
  0
LINE
  8
0
  6
CONTINUOUS
 62
     7
 10
-173.4368
 20
-220.7056
 11
-187.4368
 21
-220.7056
  0
LINE
  8
0
  6
CONTINUOUS
 62
     7
 10
-180.4368
 20
-220.0804
 11
-180.4368
 21
-200.3309
  0
LINE
  8
0
  6
CONTINUOUS
 62
     7
 10
-173.4368
 20
-220.7056
 11
-173.4368
 21
-190.4556
  0
LINE
  8
0
  6
CONTINUOUS
 62
     7
 10
-173.4368
 20
-199.7056
 11
-187.4368
 21
-199.7056
  0
LINE
  8
0
  6
CONTINUOUS
 62
     7
 10
-187.4368
 20
-220.7056
 11
-187.4368
 21
-190.4556
  0
LINE
  8
0
  6
CONTINUOUS
 62
     7
 10
-185.9368
 20
-190.4556
 11
-187.4368
 21
-190.4556
  0
LINE
  8
0
  6
CENTER
 62
     2
 10
-171.4368
 20
-184.9556
 11
-189.4368
 21
-184.9556
  0
LINE
  8
0
  6
CONTINUOUS
 62
     7
 10
-174.9368
 20
-190.4556
 11
-173.4368
 21
-190.4556
  0
LINE
  8
0
  6
CONTINUOUS
 62
     7
 10
-187.4368
 20
-190.4556
 11
-186.2581
 21
-189.277
  0
LINE
  8
0
  6
CONTINUOUS
 62
     7
 10
-173.4368
 20
-190.4556
 11
-174.6154
 21
-189.277
  0
LINE
  8
0
  6
CONTINUOUS
 62
     7
 10
-185.9368
 20
-190.4556
 11
-185.9368
 21
-189.6793
  0
LINE
  8
0
  6
CONTINUOUS
 62
     7
 10
-174.9368
 20
-190.4556
 11
-174.9368
 21
-189.6793
  0
LINE
  8
0
  6
CONTINUOUS
 62
     7
 10
-181.9368
 20
-194.1155
 11
-178.9368
 21
-194.1155
  0
LINE
  8
0
  6
CONTINUOUS
 62
     7
 10
-181.9368
 20
-194.1155
 11
-181.9368
 21
-192.0488
  0
LINE
  8
0
  6
CONTINUOUS
 62
     7
 10
-178.9368
 20
-194.1155
 11
-178.9368
 21
-192.0488
  0
LINE
  8
0
  6
CENTER
 62
     2
 10
-4.99997
 20
-237.0561
 11
-4.99997
 21
-173.512
  0
LINE
  8
0
  6
CONTINUOUS
 62
     7
 10
-13.08288
 20
-219.0805
 11
-13.08288
 21
-199.3309
  0
LINE
  8
0
  6
CONTINUOUS
 62
     7
 10
-9.04143
 20
-219.0805
 11
-9.04143
 21
-199.3309
  0
LINE
  8
0
  6
CONTINUOUS
 62
     7
 10
-0.95852
 20
-219.0805
 11
-0.95852
 21
-199.3309
  0
LINE
  8
0
  6
CONTINUOUS
 62
     7
 10
3.08294
 20
-219.0805
 11
3.08294
 21
-199.3309
  0
LINE
  8
0
  6
CONTINUOUS
 62
     7
 10
-13.08288
 20
-219.0805
 11
-11.99997
 21
-219.7057
  0
LINE
  8
0
  6
CONTINUOUS
 62
     7
 10
3.08293
 20
-219.0804
 11
2.00003
 21
-219.7057
  0
LINE
  8
0
  6
CONTINUOUS
 62
     7
 10
-11.99995
 20
-198.7057
 11
2.00005
 21
-198.7057
  0
LINE
  8
0
  6
CONTINUOUS
 62
     7
 10
-13.08286
 20
-199.3309
 11
-11.99995
 21
-198.7057
  0
LINE
  8
0
  6
CONTINUOUS
 62
     7
 10
3.08294
 20
-199.3309
 11
2.00003
 21
-198.7057
  0
LINE
  8
0
  6
CONTINUOUS
 62
     7
 10
-11.39096
 20
-230.7057
 11
-11.73473
 21
-219.7057
  0
LINE
  8
0
  6
CONTINUOUS
 62
     7
 10
-10.53496
 20
-230.7057
 11
-10.87873
 21
-219.7057
  0
LINE
  8
0
  6
CONTINUOUS
 62
     7
 10
-11.39096
 20
-230.7057
 11
1.39103
 21
-230.7057
  0
LINE
  8
0
  6
CONTINUOUS
 62
     7
 10
1.39101
 20
-230.7057
 11
1.73478
 21
-219.7057
  0
LINE
  8
0
  6
CONTINUOUS
 62
     7
 10
0.53501
 20
-230.7057
 11
0.87878
 21
-219.7057
  0
LINE
  8
0
  6
CONTINUOUS
 62
     7
 10
-11.99996
 20
-219.7057
 11
2.00003
 21
-219.7057
  0
LINE
  8
0
  6
CENTER
 62
     2
 10
-14.64215
 20
-183.9557
 11
20.74252
 21
-183.9557
  0
LINE
  8
0
  6
CONTINUOUS
 62
     7
 10
-11.99997
 20
-198.7057
 11
-11.99997
 21
-183.9557
  0
LINE
  8
0
  6
CONTINUOUS
 62
     7
 10
-10.49997
 20
-187.9557
 11
-10.49997
 21
-183.9557
  0
LINE
  8
0
  6
CONTINUOUS
 62
     7
 10
-11.89997
 20
-189.4557
 11
0.25003
 21
-189.4557
  0
LINE
  8
0
  6
CONTINUOUS
 62
     7
 10
12.50003
 20
-176.7057
 11
12.50003
 21
-191.2057
  0
LINE
  8
0
  6
CONTINUOUS
 62
     7
 10
15.50003
 20
-177.0557
 11
17.50003
 21
-177.0557
  0
LINE
  8
0
  6
CONTINUOUS
 62
     7
 10
15.50003
 20
-177.0557
 11
15.50003
 21
-190.8557
  0
LINE
  8
0
  6
CONTINUOUS
 62
     7
 10
17.50003
 20
-177.0557
 11
17.50003
 21
-190.8557
  0
LINE
  8
0
  6
CONTINUOUS
 62
     7
 10
15.00003
 20
-176.9557
 11
15.00003
 21
-190.9557
  0
LINE
  8
0
  6
CONTINUOUS
 62
     7
 10
15.00003
 20
-179.2057
 11
15.50003
 21
-179.2057
  0
LINE
  8
0
  6
CONTINUOUS
 62
     7
 10
15.00003
 20
-188.7057
 11
15.50003
 21
-188.7057
  0
LINE
  8
0
  6
CONTINUOUS
 62
     7
 10
15.50003
 20
-190.8557
 11
17.50003
 21
-190.8557
  0
LINE
  8
0
  6
CONTINUOUS
 62
     7
 10
12.50003
 20
-190.9557
 11
15.00003
 21
-190.9557
  0
LINE
  8
0
  6
CONTINUOUS
 62
     7
 10
12.50003
 20
-176.9557
 11
15.00003
 21
-176.9557
  0
LINE
  8
0
  6
CONTINUOUS
 62
     7
 10
9.00003
 20
-176.7057
 11
9.00003
 21
-191.2057
  0
LINE
  8
0
  6
CONTINUOUS
 62
     7
 10
2.00003
 20
-191.2057
 11
12.50003
 21
-191.2057
  0
LINE
  8
0
  6
CONTINUOUS
 62
     7
 10
-4.74997
 20
-176.7057
 11
12.50003
 21
-176.7057
  0
LINE
  8
0
  6
CONTINUOUS
 62
     7
 10
2.00003
 20
-198.7057
 11
2.00003
 21
-176.7057
  0
LINE
  8
0
  6
CONTINUOUS
 62
     7
 10
-4.99997
 20
-178.4557
 11
0.25003
 21
-178.4557
  0
LINE
  8
0
  6
CONTINUOUS
 62
     7
 10
2.00003
 20
-191.2057
 11
0.25003
 21
-183.9557
  0
LINE
  8
0
  6
CONTINUOUS
 62
     7
 10
0.25003
 20
-189.4557
 11
-1.24996
 21
-187.9557
  0
LINE
  8
0
  6
CONTINUOUS
 62
     7
 10
2.00002
 20
-193.1156
 11
3.90992
 21
-191.2057
  0
LINE
  8
0
  6
CONTINUOUS
 62
     7
 10
-11.99997
 20
-189.4557
 11
-10.49997
 21
-187.9557
  0
LINE
  8
0
  6
CONTINUOUS
 62
     7
 10
-10.49997
 20
-187.9557
 11
-1.24997
 21
-187.9557
  0
LINE
  8
0
  6
CONTINUOUS
 62
     7
 10
0.25003
 20
-178.4557
 11
2.00003
 21
-176.7057
  0
LINE
  8
0
  6
CONTINUOUS
 62
     7
 10
0.25003
 20
-178.4557
 11
0.25003
 21
-189.4557
  0
LINE
  8
0
  6
CONTINUOUS
 62
     7
 10
-0.95857
 20
-159.2793
 11
-0.09255
 21
-157.7793
  0
LINE
  8
0
  6
CONTINUOUS
 62
     7
 10
-0.09253
 20
-146.7793
 11
-0.95856
 21
-145.2793
  0
LINE
  8
0
  6
CONTINUOUS
 62
     7
 10
-0.95858
 20
-145.2793
 11
-9.04148
 21
-145.2793
  0
LINE
  8
0
  6
CONTINUOUS
 62
     7
 10
-9.04151
 20
-145.2793
 11
-13.08296
 21
-152.2793
  0
LINE
  8
0
  6
CONTINUOUS
 62
     7
 10
-13.08292
 20
-152.2793
 11
-9.04147
 21
-159.2793
  0
LINE
  8
0
  6
CONTINUOUS
 62
     7
 10
-9.04148
 20
-159.2793
 11
-0.95858
 21
-159.2793
  0
LINE
  8
0
  6
CENTER
 62
     2
 10
-5.00003
 20
-161.2793
 11
-5.00003
 21
-143.2793
  0
LINE
  8
0
  6
CENTER
 62
     2
 10
-14.00003
 20
-152.2793
 11
20.79024
 21
-152.2793
  0
LINE
  8
0
  6
CONTINUOUS
 62
     7
 10
12.49997
 20
-145.0293
 11
12.49997
 21
-159.5293
  0
LINE
  8
0
  6
CONTINUOUS
 62
     7
 10
15.49997
 20
-145.3793
 11
17.49997
 21
-145.3793
  0
LINE
  8
0
  6
CONTINUOUS
 62
     7
 10
15.49997
 20
-145.3793
 11
15.49997
 21
-159.1793
  0
LINE
  8
0
  6
CONTINUOUS
 62
     7
 10
17.49997
 20
-145.3793
 11
17.49997
 21
-159.1793
  0
LINE
  8
0
  6
CONTINUOUS
 62
     7
 10
14.99997
 20
-145.2793
 11
14.99997
 21
-159.2793
  0
LINE
  8
0
  6
CONTINUOUS
 62
     7
 10
14.99997
 20
-147.5293
 11
15.49997
 21
-147.5293
  0
LINE
  8
0
  6
CONTINUOUS
 62
     7
 10
14.99997
 20
-157.0293
 11
15.49997
 21
-157.0293
  0
LINE
  8
0
  6
CONTINUOUS
 62
     7
 10
15.49997
 20
-159.1793
 11
17.49997
 21
-159.1793
  0
LINE
  8
0
  6
CONTINUOUS
 62
     7
 10
12.49997
 20
-159.2793
 11
14.99997
 21
-159.2793
  0
LINE
  8
0
  6
CONTINUOUS
 62
     7
 10
12.49997
 20
-145.2793
 11
14.99997
 21
-145.2793
  0
LINE
  8
0
  6
CONTINUOUS
 62
     7
 10
8.99997
 20
-145.0293
 11
8.99997
 21
-159.5293
  0
LINE
  8
0
  6
CONTINUOUS
 62
     7
 10
1.99997
 20
-159.5293
 11
12.49997
 21
-159.5293
  0
LINE
  8
0
  6
CONTINUOUS
 62
     7
 10
1.99997
 20
-145.0293
 11
12.49997
 21
-145.0293
  0
LINE
  8
0
  6
CONTINUOUS
 62
     7
 10
1.99997
 20
-159.5293
 11
1.99997
 21
-153.7793
  0
LINE
  8
0
  6
CONTINUOUS
 62
     7
 10
-5.00003
 20
-146.7793
 11
0.24997
 21
-146.7793
  0
LINE
  8
0
  6
CONTINUOUS
 62
     7
 10
-5.00003
 20
-157.7793
 11
0.24996
 21
-157.7793
  0
LINE
  8
0
  6
CONTINUOUS
 62
     7
 10
-11.83743
 20
-153.7793
 11
1.99997
 21
-153.7793
  0
LINE
  8
0
  6
CONTINUOUS
 62
     7
 10
-11.83743
 20
-150.7793
 11
1.99997
 21
-150.7793
  0
LINE
  8
0
  6
CONTINUOUS
 62
     7
 10
1.99997
 20
-145.0293
 11
1.99997
 21
-150.7793
  0
LINE
  8
0
  6
CONTINUOUS
 62
     7
 10
0.24996
 20
-146.7793
 11
1.99996
 21
-145.0293
  0
LINE
  8
0
  6
CONTINUOUS
 62
     7
 10
0.24997
 20
-146.7793
 11
0.24997
 21
-150.7793
  0
LINE
  8
0
  6
CONTINUOUS
 62
     7
 10
0.24997
 20
-157.7793
 11
0.24997
 21
-153.7793
  0
LINE
  8
0
  6
CONTINUOUS
 62
     7
 10
0.24997
 20
-157.7793
 11
1.99997
 21
-159.5293
  0
LINE
  8
0
  6
CENTER
 62
     2
 10
-66.81227
 20
-237.0561
 11
-66.81227
 21
-173.6777
  0
LINE
  8
0
  6
CONTINUOUS
 62
     7
 10
-66.81227
 20
-219.0805
 11
-66.81227
 21
-199.3309
  0
LINE
  8
0
  6
CONTINUOUS
 62
     7
 10
-73.81227
 20
-219.7057
 11
-73.81227
 21
-189.4557
  0
LINE
  8
0
  6
CONTINUOUS
 62
     7
 10
-73.81227
 20
-198.7057
 11
-59.81227
 21
-198.7057
  0
LINE
  8
0
  6
CONTINUOUS
 62
     7
 10
-59.81227
 20
-219.7057
 11
-59.81227
 21
-189.4557
  0
LINE
  8
0
  6
CONTINUOUS
 62
     7
 10
-73.20325
 20
-230.7057
 11
-73.54702
 21
-219.7057
  0
LINE
  8
0
  6
CONTINUOUS
 62
     7
 10
-72.34726
 20
-230.7057
 11
-72.69102
 21
-219.7057
  0
LINE
  8
0
  6
CONTINUOUS
 62
     7
 10
-73.20326
 20
-230.7057
 11
-60.42128
 21
-230.7057
  0
LINE
  8
0
  6
CONTINUOUS
 62
     7
 10
-60.42128
 20
-230.7057
 11
-60.07751
 21
-219.7057
  0
LINE
  8
0
  6
CONTINUOUS
 62
     7
 10
-61.27728
 20
-230.7057
 11
-60.93351
 21
-219.7057
  0
LINE
  8
0
  6
CONTINUOUS
 62
     7
 10
-73.81226
 20
-219.7057
 11
-59.81226
 21
-219.7057
  0
LINE
  8
0
  6
CONTINUOUS
 62
     7
 10
-65.31227
 20
-189.4557
 11
-59.81226
 21
-189.4557
  0
LINE
  8
0
  6
CENTER
 62
     2
 10
-75.81227
 20
-183.9557
 11
-57.81227
 21
-183.9557
  0
LINE
  8
0
  6
CONTINUOUS
 62
     7
 10
-61.31227
 20
-187.9557
 11
-61.31227
 21
-183.9557
  0
LINE
  8
0
  6
CONTINUOUS
 62
     7
 10
-72.31227
 20
-187.9557
 11
-72.31227
 21
-183.9557
  0
LINE
  8
0
  6
CONTINUOUS
 62
     7
 10
-65.31227
 20
-189.4557
 11
-65.31227
 21
-176.8625
  0
LINE
  8
0
  6
CONTINUOUS
 62
     7
 10
-68.31227
 20
-189.4557
 11
-68.31227
 21
-176.8625
  0
LINE
  8
0
  6
CONTINUOUS
 62
     7
 10
-68.31227
 20
-189.4557
 11
-73.81228
 21
-189.4557
  0
LINE
  8
0
  6
CONTINUOUS
 62
     7
 10
-72.31227
 20
-187.9557
 11
-68.31227
 21
-187.9557
  0
LINE
  8
0
  6
CONTINUOUS
 62
     7
 10
-61.31227
 20
-187.9557
 11
-65.31227
 21
-187.9557
  0
LINE
  8
0
  6
CONTINUOUS
 62
     7
 10
-59.81228
 20
-189.4557
 11
-61.31229
 21
-187.9557
  0
LINE
  8
0
  6
CONTINUOUS
 62
     7
 10
-73.81227
 20
-189.4557
 11
-72.31227
 21
-187.9557
  0
LINE
  8
0
  6
CONTINUOUS
 62
     7
 10
60.42126
 20
-230.7056
 11
60.07749
 21
-219.7056
  0
LINE
  8
0
  6
CONTINUOUS
 62
     7
 10
61.27725
 20
-230.7057
 11
60.93348
 21
-219.7057
  0
LINE
  8
0
  6
CONTINUOUS
 62
     7
 10
72.34722
 20
-230.7056
 11
72.69099
 21
-219.7056
  0
LINE
  8
0
  6
CONTINUOUS
 62
     7
 10
73.20322
 20
-230.7056
 11
73.54699
 21
-219.7056
  0
LINE
  8
0
  6
CONTINUOUS
 62
     7
 10
60.42126
 20
-230.7056
 11
73.20325
 21
-230.7056
  0
LINE
  8
0
  6
CENTER
 62
     2
 10
66.81226
 20
-237.056
 11
66.81226
 21
-173.6776
  0
LINE
  8
0
  6
CONTINUOUS
 62
     7
 10
73.81226
 20
-219.7056
 11
59.81226
 21
-219.7056
  0
LINE
  8
0
  6
CONTINUOUS
 62
     7
 10
66.81226
 20
-219.0804
 11
66.81226
 21
-199.3309
  0
LINE
  8
0
  6
CONTINUOUS
 62
     7
 10
73.81226
 20
-219.7056
 11
73.81226
 21
-189.4556
  0
LINE
  8
0
  6
CONTINUOUS
 62
     7
 10
73.81226
 20
-198.7056
 11
59.81226
 21
-198.7056
  0
LINE
  8
0
  6
CONTINUOUS
 62
     7
 10
59.81226
 20
-219.7056
 11
59.81226
 21
-189.4556
  0
LINE
  8
0
  6
CONTINUOUS
 62
     7
 10
61.31225
 20
-189.4556
 11
59.81224
 21
-189.4556
  0
LINE
  8
0
  6
CENTER
 62
     2
 10
75.81226
 20
-183.9556
 11
57.81225
 21
-183.9556
  0
LINE
  8
0
  6
CONTINUOUS
 62
     7
 10
72.31226
 20
-189.4556
 11
73.81226
 21
-189.4556
  0
LINE
  8
0
  6
CONTINUOUS
 62
     7
 10
59.81227
 20
-189.4556
 11
60.99091
 21
-188.277
  0
LINE
  8
0
  6
CONTINUOUS
 62
     7
 10
73.81228
 20
-189.4556
 11
72.63364
 21
-188.277
  0
LINE
  8
0
  6
CONTINUOUS
 62
     7
 10
61.31225
 20
-189.4556
 11
61.31225
 21
-188.6793
  0
LINE
  8
0
  6
CONTINUOUS
 62
     7
 10
72.31226
 20
-189.4556
 11
72.31226
 21
-188.6793
  0
LINE
  8
0
  6
CONTINUOUS
 62
     7
 10
65.31226
 20
-193.1155
 11
68.31226
 21
-193.1155
  0
LINE
  8
0
  6
CONTINUOUS
 62
     7
 10
65.31226
 20
-193.1155
 11
65.31226
 21
-191.0488
  0
LINE
  8
0
  6
CONTINUOUS
 62
     7
 10
68.31226
 20
-193.1155
 11
68.31226
 21
-191.0488
  0
LINE
  8
0
  6
CENTER
 62
     2
 10
242.2491
 20
46.57017
 11
242.2491
 21
117.7244
  0
LINE
  8
0
  6
CONTINUOUS
 62
     7
 10
235.8581
 20
50.1035
 11
235.5143
 21
61.1035
  0
LINE
  8
0
  6
CONTINUOUS
 62
     7
 10
236.7141
 20
50.1035
 11
236.3703
 21
61.1035
  0
LINE
  8
0
  6
CONTINUOUS
 62
     7
 10
247.7841
 20
50.1035
 11
248.1278
 21
61.1035
  0
LINE
  8
0
  6
CONTINUOUS
 62
     7
 10
248.64
 20
50.1035
 11
248.9838
 21
61.1035
  0
LINE
  8
0
  6
CONTINUOUS
 62
     7
 10
235.8581
 20
50.1035
 11
248.6401
 21
50.1035
  0
LINE
  8
0
  6
CONTINUOUS
 62
     7
 10
233.7491
 20
61.1035
 11
250.7491
 21
61.1035
  0
LINE
  8
0
  6
CONTINUOUS
 62
     7
 10
237.3416
 20
84.84432
 11
237.3416
 21
61.86269
  0
LINE
  8
0
  6
CONTINUOUS
 62
     7
 10
252.064
 20
84.8443
 11
252.064
 21
61.86269
  0
LINE
  8
0
  6
CONTINUOUS
 62
     7
 10
250.7491
 20
61.1035
 11
252.064
 21
61.86269
  0
LINE
  8
0
  6
CONTINUOUS
 62
     7
 10
233.7491
 20
61.1035
 11
232.4341
 21
61.86269
  0
LINE
  8
0
  6
CONTINUOUS
 62
     7
 10
232.4341
 20
84.84431
 11
232.4341
 21
61.86269
  0
LINE
  8
0
  6
CONTINUOUS
 62
     7
 10
247.1566
 20
84.8443
 11
247.1566
 21
61.86269
  0
LINE
  8
0
  6
CONTINUOUS
 62
     7
 10
250.7491
 20
85.60348
 11
252.064
 21
84.84429
  0
LINE
  8
0
  6
CENTER
 62
     2
 10
229.8029
 20
104.8535
 11
271.3648
 21
104.8535
  0
LINE
  8
0
  6
CONTINUOUS
 62
     7
 10
233.7491
 20
85.6035
 11
250.7491
 21
85.6035
  0
LINE
  8
0
  6
CONTINUOUS
 62
     7
 10
233.7491
 20
85.6035
 11
233.7491
 21
104.8535
  0
LINE
  8
0
  6
CONTINUOUS
 62
     7
 10
233.7491
 20
85.60351
 11
232.4341
 21
84.84432
  0
LINE
  8
0
  6
CONTINUOUS
 62
     7
 10
235.9991
 20
97.8535
 11
235.9991
 21
104.8535
  0
LINE
  8
0
  6
CONTINUOUS
 62
     7
 10
250.7491
 20
91.53675
 11
255.3158
 21
96.10351
  0
LINE
  8
0
  6
CONTINUOUS
 62
     7
 10
233.7491
 20
95.6035
 11
248.2491
 21
95.6035
  0
LINE
  8
0
  6
CONTINUOUS
 62
     7
 10
265.5491
 20
113.2535
 11
267.7491
 21
113.2535
  0
LINE
  8
0
  6
CONTINUOUS
 62
     7
 10
267.7491
 20
113.2535
 11
267.7491
 21
96.45351
  0
LINE
  8
0
  6
CONTINUOUS
 62
     7
 10
264.7491
 20
98.8535
 11
265.5491
 21
98.8535
  0
LINE
  8
0
  6
CONTINUOUS
 62
     7
 10
264.7491
 20
110.8535
 11
265.5491
 21
110.8535
  0
LINE
  8
0
  6
CONTINUOUS
 62
     7
 10
265.5491
 20
113.2535
 11
265.5491
 21
96.45351
  0
LINE
  8
0
  6
CONTINUOUS
 62
     7
 10
265.5491
 20
96.45351
 11
267.7491
 21
96.45351
  0
LINE
  8
0
  6
CONTINUOUS
 62
     7
 10
264.7491
 20
113.3535
 11
264.7491
 21
96.3535
  0
LINE
  8
0
  6
CONTINUOUS
 62
     7
 10
262.7491
 20
96.3535
 11
264.7491
 21
96.3535
  0
LINE
  8
0
  6
CONTINUOUS
 62
     7
 10
262.7491
 20
113.3535
 11
264.7491
 21
113.3535
  0
LINE
  8
0
  6
CONTINUOUS
 62
     7
 10
262.7491
 20
113.6035
 11
262.7491
 21
96.1035
  0
LINE
  8
0
  6
CONTINUOUS
 62
     7
 10
242.4991
 20
113.6035
 11
262.7491
 21
113.6035
  0
LINE
  8
0
  6
CONTINUOUS
 62
     7
 10
260.7491
 20
113.6035
 11
260.7491
 21
96.1035
  0
LINE
  8
0
  6
CONTINUOUS
 62
     7
 10
250.7491
 20
96.1035
 11
262.7491
 21
96.1035
  0
LINE
  8
0
  6
CONTINUOUS
 62
     7
 10
250.7491
 20
85.6035
 11
250.7491
 21
113.6035
  0
LINE
  8
0
  6
CONTINUOUS
 62
     7
 10
242.2491
 20
111.1035
 11
248.2491
 21
111.1035
  0
LINE
  8
0
  6
CONTINUOUS
 62
     7
 10
248.249
 20
104.8535
 11
250.749
 21
96.10349
  0
LINE
  8
0
  6
CONTINUOUS
 62
     7
 10
248.249
 20
95.60349
 11
245.999
 21
97.85349
  0
LINE
  8
0
  6
CONTINUOUS
 62
     7
 10
233.7491
 20
95.60349
 11
235.9991
 21
97.85349
  0
LINE
  8
0
  6
CONTINUOUS
 62
     7
 10
235.9991
 20
97.8535
 11
245.9991
 21
97.8535
  0
LINE
  8
0
  6
CONTINUOUS
 62
     7
 10
250.7491
 20
113.6035
 11
248.2491
 21
111.1035
  0
LINE
  8
0
  6
CONTINUOUS
 62
     7
 10
248.2491
 20
111.1035
 11
248.2491
 21
95.6035
  0
LINE
  8
0
  6
CONTINUOUS
 62
     7
 10
237.3416
 20
140.0301
 11
247.1565
 21
140.0301
  0
LINE
  8
0
  6
CONTINUOUS
 62
     7
 10
247.1565
 20
140.0299
 11
248.3799
 21
142.149
  0
LINE
  8
0
  6
CONTINUOUS
 62
     7
 10
248.38
 20
154.9109
 11
247.1565
 21
157.03
  0
LINE
  8
0
  6
CONTINUOUS
 62
     7
 10
247.1566
 20
157.0302
 11
237.3416
 21
157.0302
  0
LINE
  8
0
  6
CONTINUOUS
 62
     7
 10
237.3414
 20
157.0301
 11
232.4339
 21
148.5301
  0
LINE
  8
0
  6
CONTINUOUS
 62
     7
 10
232.4341
 20
148.53
 11
237.3416
 21
140.03
  0
LINE
  8
0
  6
CENTER
 62
     2
 10
231.249
 20
148.5299
 11
271.5943
 21
148.5299
  0
LINE
  8
0
  6
CENTER
 62
     2
 10
242.249
 20
159.5299
 11
242.249
 21
137.5299
  0
LINE
  8
0
  6
CONTINUOUS
 62
     7
 10
262.749
 20
157.2799
 11
262.749
 21
139.7799
  0
LINE
  8
0
  6
CONTINUOUS
 62
     7
 10
267.749
 20
156.9299
 11
267.749
 21
140.1299
  0
LINE
  8
0
  6
CONTINUOUS
 62
     7
 10
265.549
 20
156.9299
 11
267.749
 21
156.9299
  0
LINE
  8
0
  6
CONTINUOUS
 62
     7
 10
265.549
 20
140.1299
 11
267.749
 21
140.1299
  0
LINE
  8
0
  6
CONTINUOUS
 62
     7
 10
265.549
 20
156.9299
 11
265.549
 21
140.1299
  0
LINE
  8
0
  6
CONTINUOUS
 62
     7
 10
264.749
 20
142.5299
 11
265.549
 21
142.5299
  0
LINE
  8
0
  6
CONTINUOUS
 62
     7
 10
264.749
 20
154.5299
 11
265.549
 21
154.5299
  0
LINE
  8
0
  6
CONTINUOUS
 62
     7
 10
264.749
 20
157.0299
 11
264.749
 21
140.0299
  0
LINE
  8
0
  6
CONTINUOUS
 62
     7
 10
262.749
 20
157.0299
 11
264.749
 21
157.0299
  0
LINE
  8
0
  6
CONTINUOUS
 62
     7
 10
250.749
 20
157.2799
 11
262.749
 21
157.2799
  0
LINE
  8
0
  6
CONTINUOUS
 62
     7
 10
262.749
 20
140.0299
 11
264.749
 21
140.0299
  0
LINE
  8
0
  6
CONTINUOUS
 62
     7
 10
250.749
 20
139.7799
 11
262.749
 21
139.7799
  0
LINE
  8
0
  6
CONTINUOUS
 62
     7
 10
250.749
 20
149.7799
 11
250.749
 21
157.2799
  0
LINE
  8
0
  6
CONTINUOUS
 62
     7
 10
242.249
 20
154.7799
 11
248.249
 21
154.7799
  0
LINE
  8
0
  6
CONTINUOUS
 62
     7
 10
260.749
 20
157.2799
 11
260.749
 21
139.7799
  0
LINE
  8
0
  6
CONTINUOUS
 62
     7
 10
242.249
 20
142.2799
 11
248.249
 21
142.2799
  0
LINE
  8
0
  6
CONTINUOUS
 62
     7
 10
233.8414
 20
149.7799
 11
250.749
 21
149.7799
  0
LINE
  8
0
  6
CONTINUOUS
 62
     7
 10
233.8414
 20
147.2799
 11
250.749
 21
147.2799
  0
LINE
  8
0
  6
CONTINUOUS
 62
     7
 10
250.749
 20
147.2799
 11
250.749
 21
139.7799
  0
LINE
  8
0
  6
CONTINUOUS
 62
     7
 10
250.749
 20
157.2799
 11
248.249
 21
154.7799
  0
LINE
  8
0
  6
CONTINUOUS
 62
     7
 10
248.249
 20
154.7799
 11
248.249
 21
149.7799
  0
LINE
  8
0
  6
CONTINUOUS
 62
     7
 10
248.249
 20
142.2799
 11
248.249
 21
147.2799
  0
LINE
  8
0
  6
CONTINUOUS
 62
     7
 10
250.749
 20
139.7799
 11
248.249
 21
142.2799
  0
LINE
  8
0
  6
CENTER
 62
     2
 10
180.4368
 20
46.70351
 11
180.4368
 21
117.9477
  0
LINE
  8
0
  6
CONTINUOUS
 62
     7
 10
174.0458
 20
50.10351
 11
173.702
 21
61.10351
  0
LINE
  8
0
  6
CONTINUOUS
 62
     7
 10
174.9018
 20
50.10351
 11
174.558
 21
61.10351
  0
LINE
  8
0
  6
CONTINUOUS
 62
     7
 10
185.9718
 20
50.10352
 11
186.3155
 21
61.10353
  0
LINE
  8
0
  6
CONTINUOUS
 62
     7
 10
186.8278
 20
50.10352
 11
187.1715
 21
61.10352
  0
LINE
  8
0
  6
CONTINUOUS
 62
     7
 10
174.0458
 20
50.10352
 11
186.8278
 21
50.10352
  0
LINE
  8
0
  6
CONTINUOUS
 62
     7
 10
171.9368
 20
61.10352
 11
188.9368
 21
61.10352
  0
LINE
  8
0
  6
CONTINUOUS
 62
     7
 10
188.9368
 20
95.60352
 11
188.9368
 21
61.10352
  0
LINE
  8
0
  6
CONTINUOUS
 62
     7
 10
171.9368
 20
95.60352
 11
171.9368
 21
61.10352
  0
LINE
  8
0
  6
CONTINUOUS
 62
     7
 10
180.4368
 20
84.84433
 11
180.4368
 21
61.8627
  0
LINE
  8
0
  6
CONTINUOUS
 62
     7
 10
171.9368
 20
85.60352
 11
188.9368
 21
85.60352
  0
LINE
  8
0
  6
CONTINUOUS
 62
     7
 10
181.6868
 20
95.60352
 11
188.9368
 21
95.60352
  0
LINE
  8
0
  6
CONTINUOUS
 62
     7
 10
174.1868
 20
97.85352
 11
174.1868
 21
104.8535
  0
LINE
  8
0
  6
CENTER
 62
     2
 10
169.4368
 20
104.8535
 11
191.4368
 21
104.8535
  0
LINE
  8
0
  6
CONTINUOUS
 62
     7
 10
181.6868
 20
95.60352
 11
181.6868
 21
113.5138
  0
LINE
  8
0
  6
CONTINUOUS
 62
     7
 10
179.1868
 20
95.60352
 11
179.1868
 21
113.5138
  0
LINE
  8
0
  6
CONTINUOUS
 62
     7
 10
179.1868
 20
95.60352
 11
171.9368
 21
95.60352
  0
LINE
  8
0
  6
CONTINUOUS
 62
     7
 10
174.1868
 20
97.85352
 11
179.1868
 21
97.85352
  0
LINE
  8
0
  6
CONTINUOUS
 62
     7
 10
186.6868
 20
97.85352
 11
181.6868
 21
97.85352
  0
LINE
  8
0
  6
CONTINUOUS
 62
     7
 10
188.9368
 20
95.6035
 11
186.6868
 21
97.8535
  0
LINE
  8
0
  6
CONTINUOUS
 62
     7
 10
186.6868
 20
97.85352
 11
186.6868
 21
104.8535
  0
LINE
  8
0
  6
CONTINUOUS
 62
     7
 10
171.9368
 20
95.60351
 11
174.1868
 21
97.8535
  0
LINE
  8
0
  6
CENTER
 62
     2
 10
314.0613
 20
46.70356
 11
314.0613
 21
117.7245
  0
LINE
  8
0
  6
CONTINUOUS
 62
     7
 10
320.4522
 20
50.10356
 11
320.796
 21
61.10356
  0
LINE
  8
0
  6
CONTINUOUS
 62
     7
 10
319.5962
 20
50.10355
 11
319.94
 21
61.10355
  0
LINE
  8
0
  6
CONTINUOUS
 62
     7
 10
308.5262
 20
50.10355
 11
308.1825
 21
61.10355
  0
LINE
  8
0
  6
CONTINUOUS
 62
     7
 10
307.6703
 20
50.10357
 11
307.3265
 21
61.10356
  0
LINE
  8
0
  6
CONTINUOUS
 62
     7
 10
320.4523
 20
50.10356
 11
307.6703
 21
50.10356
  0
LINE
  8
0
  6
CONTINUOUS
 62
     7
 10
322.5613
 20
61.10356
 11
305.5613
 21
61.10356
  0
LINE
  8
0
  6
CONTINUOUS
 62
     7
 10
305.5613
 20
95.60356
 11
305.5613
 21
61.10356
  0
LINE
  8
0
  6
CONTINUOUS
 62
     7
 10
322.5613
 20
95.60356
 11
322.5613
 21
61.10356
  0
LINE
  8
0
  6
CONTINUOUS
 62
     7
 10
314.0613
 20
84.84438
 11
314.0613
 21
61.86275
  0
LINE
  8
0
  6
CONTINUOUS
 62
     7
 10
322.5613
 20
85.60356
 11
305.5613
 21
85.60356
  0
LINE
  8
0
  6
CONTINUOUS
 62
     7
 10
307.8113
 20
95.60356
 11
305.5613
 21
95.60356
  0
LINE
  8
0
  6
CONTINUOUS
 62
     7
 10
307.8113
 20
95.60356
 11
307.8113
 21
98.72984
  0
LINE
  8
0
  6
CONTINUOUS
 62
     7
 10
320.3113
 20
95.60356
 11
320.3113
 21
98.72984
  0
LINE
  8
0
  6
CENTER
 62
     2
 10
325.0613
 20
104.8536
 11
303.0613
 21
104.8536
  0
LINE
  8
0
  6
CONTINUOUS
 62
     7
 10
320.3113
 20
95.60356
 11
322.5613
 21
95.60356
  0
LINE
  8
0
  6
CONTINUOUS
 62
     7
 10
315.3113
 20
91.5368
 11
315.3113
 21
96.19331
  0
LINE
  8
0
  6
CONTINUOUS
 62
     7
 10
312.8113
 20
91.5368
 11
312.8113
 21
96.19331
  0
LINE
  8
0
  6
CONTINUOUS
 62
     7
 10
312.8113
 20
91.5368
 11
315.3113
 21
91.5368
  0
LINE
  8
0
  6
CONTINUOUS
 62
     7
 10
305.5612
 20
95.60354
 11
307.8113
 21
97.85356
  0
LINE
  8
0
  6
CONTINUOUS
 62
     7
 10
322.5613
 20
95.60354
 11
320.3113
 21
97.85355
  0
LINE
  8
0
  6
CENTER
 62
     2
 10
242.2491
 20
-178.8862
 11
242.2491
 21
-108.2555
  0
LINE
  8
0
  6
CONTINUOUS
 62
     7
 10
233.7462
 20
-164.3529
 11
250.752
 21
-164.3529
  0
LINE
  8
0
  6
CONTINUOUS
 62
     7
 10
237.3416
 20
-140.6121
 11
237.3416
 21
-163.5937
  0
LINE
  8
0
  6
CONTINUOUS
 62
     7
 10
252.064
 20
-140.6121
 11
252.064
 21
-163.5937
  0
LINE
  8
0
  6
CONTINUOUS
 62
     7
 10
250.752
 20
-164.3512
 11
252.064
 21
-163.5937
  0
LINE
  8
0
  6
CONTINUOUS
 62
     7
 10
233.7461
 20
-164.3512
 11
232.4341
 21
-163.5937
  0
LINE
  8
0
  6
CONTINUOUS
 62
     7
 10
232.4341
 20
-140.6121
 11
232.4341
 21
-163.5937
  0
LINE
  8
0
  6
CONTINUOUS
 62
     7
 10
247.1566
 20
-140.6121
 11
247.1566
 21
-163.5937
  0
LINE
  8
0
  6
CONTINUOUS
 62
     7
 10
250.749
 20
-139.8529
 11
252.064
 21
-140.6121
  0
LINE
  8
0
  6
CONTINUOUS
 62
     7
 10
233.7491
 20
-139.8529
 11
250.7491
 21
-139.8529
  0
LINE
  8
0
  6
CONTINUOUS
 62
     7
 10
233.7491
 20
-139.8529
 11
232.4341
 21
-140.6121
  0
LINE
  8
0
  6
CONTINUOUS
 62
     7
 10
234.1212
 20
-176.3529
 11
233.7461
 21
-164.3512
  0
LINE
  8
0
  6
CONTINUOUS
 62
     7
 10
234.9772
 20
-176.3529
 11
234.6022
 21
-164.3529
  0
LINE
  8
0
  6
CONTINUOUS
 62
     7
 10
234.1212
 20
-176.3529
 11
250.3769
 21
-176.3529
  0
LINE
  8
0
  6
CONTINUOUS
 62
     7
 10
249.5209
 20
-176.3529
 11
249.8959
 21
-164.3529
  0
LINE
  8
0
  6
CONTINUOUS
 62
     7
 10
250.3769
 20
-176.3529
 11
250.752
 21
-164.3512
  0
LINE
  8
0
  6
CENTER
 62
     2
 10
229.8029
 20
-120.6029
 11
271.3648
 21
-120.6029
  0
LINE
  8
0
  6
CONTINUOUS
 62
     7
 10
233.7491
 20
-139.8529
 11
233.7491
 21
-120.6029
  0
LINE
  8
0
  6
CONTINUOUS
 62
     7
 10
235.9991
 20
-127.6029
 11
235.9991
 21
-120.6029
  0
LINE
  8
0
  6
CONTINUOUS
 62
     7
 10
250.7491
 20
-133.9196
 11
255.3159
 21
-129.3529
  0
LINE
  8
0
  6
CONTINUOUS
 62
     7
 10
233.7491
 20
-129.8529
 11
248.2491
 21
-129.8529
  0
LINE
  8
0
  6
CONTINUOUS
 62
     7
 10
265.5491
 20
-112.2029
 11
267.7491
 21
-112.2029
  0
LINE
  8
0
  6
CONTINUOUS
 62
     7
 10
267.7491
 20
-112.2029
 11
267.7491
 21
-129.0029
  0
LINE
  8
0
  6
CONTINUOUS
 62
     7
 10
264.7491
 20
-126.6029
 11
265.5491
 21
-126.6029
  0
LINE
  8
0
  6
CONTINUOUS
 62
     7
 10
264.7491
 20
-114.6029
 11
265.5491
 21
-114.6029
  0
LINE
  8
0
  6
CONTINUOUS
 62
     7
 10
265.5491
 20
-112.2029
 11
265.5491
 21
-129.0029
  0
LINE
  8
0
  6
CONTINUOUS
 62
     7
 10
265.5491
 20
-129.0029
 11
267.7491
 21
-129.0029
  0
LINE
  8
0
  6
CONTINUOUS
 62
     7
 10
264.7491
 20
-112.1029
 11
264.7491
 21
-129.1029
  0
LINE
  8
0
  6
CONTINUOUS
 62
     7
 10
262.7491
 20
-129.1029
 11
264.7491
 21
-129.1029
  0
LINE
  8
0
  6
CONTINUOUS
 62
     7
 10
262.7491
 20
-112.1029
 11
264.7491
 21
-112.1029
  0
LINE
  8
0
  6
CONTINUOUS
 62
     7
 10
262.7491
 20
-111.8529
 11
262.7491
 21
-129.3529
  0
LINE
  8
0
  6
CONTINUOUS
 62
     7
 10
242.4991
 20
-111.8529
 11
262.7491
 21
-111.8529
  0
LINE
  8
0
  6
CONTINUOUS
 62
     7
 10
260.7491
 20
-111.8529
 11
260.7491
 21
-129.3529
  0
LINE
  8
0
  6
CONTINUOUS
 62
     7
 10
250.7491
 20
-129.3529
 11
262.7491
 21
-129.3529
  0
LINE
  8
0
  6
CONTINUOUS
 62
     7
 10
250.7491
 20
-139.8529
 11
250.7491
 21
-111.8529
  0
LINE
  8
0
  6
CONTINUOUS
 62
     7
 10
242.2491
 20
-114.3529
 11
248.2491
 21
-114.3529
  0
LINE
  8
0
  6
CONTINUOUS
 62
     7
 10
248.249
 20
-120.6029
 11
250.749
 21
-129.3529
  0
LINE
  8
0
  6
CONTINUOUS
 62
     7
 10
248.249
 20
-129.8529
 11
245.9991
 21
-127.6029
  0
LINE
  8
0
  6
CONTINUOUS
 62
     7
 10
233.7491
 20
-129.8529
 11
235.9991
 21
-127.6029
  0
LINE
  8
0
  6
CONTINUOUS
 62
     7
 10
235.9991
 20
-127.6029
 11
245.9991
 21
-127.6029
  0
LINE
  8
0
  6
CONTINUOUS
 62
     7
 10
250.7491
 20
-111.8529
 11
248.2491
 21
-114.3529
  0
LINE
  8
0
  6
CONTINUOUS
 62
     7
 10
248.2491
 20
-114.3529
 11
248.2491
 21
-129.8529
  0
LINE
  8
0
  6
CONTINUOUS
 62
     7
 10
237.3416
 20
-85.92631
 11
247.1565
 21
-85.92632
  0
LINE
  8
0
  6
CONTINUOUS
 62
     7
 10
247.1565
 20
-85.92648
 11
248.3799
 21
-83.8074
  0
LINE
  8
0
  6
CONTINUOUS
 62
     7
 10
248.38
 20
-71.04552
 11
247.1566
 21
-68.92647
  0
LINE
  8
0
  6
CONTINUOUS
 62
     7
 10
247.1566
 20
-68.92622
 11
237.3416
 21
-68.92622
  0
LINE
  8
0
  6
CONTINUOUS
 62
     7
 10
237.3414
 20
-68.92635
 11
232.4339
 21
-77.42636
  0
LINE
  8
0
  6
CONTINUOUS
 62
     7
 10
232.4341
 20
-77.42648
 11
237.3416
 21
-85.92648
  0
LINE
  8
0
  6
CENTER
 62
     2
 10
231.249
 20
-77.42647
 11
271.5943
 21
-77.42647
  0
LINE
  8
0
  6
CENTER
 62
     2
 10
242.249
 20
-66.42647
 11
242.249
 21
-88.42647
  0
LINE
  8
0
  6
CONTINUOUS
 62
     7
 10
262.749
 20
-68.67647
 11
262.749
 21
-86.17647
  0
LINE
  8
0
  6
CONTINUOUS
 62
     7
 10
267.749
 20
-69.02647
 11
267.749
 21
-85.82647
  0
LINE
  8
0
  6
CONTINUOUS
 62
     7
 10
265.549
 20
-69.02647
 11
267.749
 21
-69.02647
  0
LINE
  8
0
  6
CONTINUOUS
 62
     7
 10
265.549
 20
-85.82647
 11
267.749
 21
-85.82647
  0
LINE
  8
0
  6
CONTINUOUS
 62
     7
 10
265.549
 20
-69.02647
 11
265.549
 21
-85.82647
  0
LINE
  8
0
  6
CONTINUOUS
 62
     7
 10
264.749
 20
-83.42647
 11
265.549
 21
-83.42647
  0
LINE
  8
0
  6
CONTINUOUS
 62
     7
 10
264.749
 20
-71.42647
 11
265.549
 21
-71.42647
  0
LINE
  8
0
  6
CONTINUOUS
 62
     7
 10
264.749
 20
-68.92647
 11
264.749
 21
-85.92647
  0
LINE
  8
0
  6
CONTINUOUS
 62
     7
 10
262.749
 20
-68.92647
 11
264.749
 21
-68.92647
  0
LINE
  8
0
  6
CONTINUOUS
 62
     7
 10
250.749
 20
-68.67647
 11
262.749
 21
-68.67647
  0
LINE
  8
0
  6
CONTINUOUS
 62
     7
 10
262.749
 20
-85.92647
 11
264.749
 21
-85.92647
  0
LINE
  8
0
  6
CONTINUOUS
 62
     7
 10
250.749
 20
-86.17647
 11
262.749
 21
-86.17647
  0
LINE
  8
0
  6
CONTINUOUS
 62
     7
 10
250.749
 20
-76.17647
 11
250.749
 21
-68.67647
  0
LINE
  8
0
  6
CONTINUOUS
 62
     7
 10
242.249
 20
-71.17647
 11
248.249
 21
-71.17647
  0
LINE
  8
0
  6
CONTINUOUS
 62
     7
 10
260.749
 20
-68.67647
 11
260.749
 21
-86.17647
  0
LINE
  8
0
  6
CONTINUOUS
 62
     7
 10
242.249
 20
-83.67647
 11
248.249
 21
-83.67647
  0
LINE
  8
0
  6
CONTINUOUS
 62
     7
 10
233.8414
 20
-76.17647
 11
250.749
 21
-76.17647
  0
LINE
  8
0
  6
CONTINUOUS
 62
     7
 10
233.8414
 20
-78.67647
 11
250.749
 21
-78.67647
  0
LINE
  8
0
  6
CONTINUOUS
 62
     7
 10
250.749
 20
-78.67647
 11
250.749
 21
-86.17647
  0
LINE
  8
0
  6
CONTINUOUS
 62
     7
 10
250.749
 20
-68.67645
 11
248.249
 21
-71.17646
  0
LINE
  8
0
  6
CONTINUOUS
 62
     7
 10
248.249
 20
-71.17648
 11
248.249
 21
-76.17647
  0
LINE
  8
0
  6
CONTINUOUS
 62
     7
 10
248.249
 20
-83.67646
 11
248.249
 21
-78.67647
  0
LINE
  8
0
  6
CONTINUOUS
 62
     7
 10
250.749
 20
-86.17645
 11
248.249
 21
-83.67645
  0
LINE
  8
0
  6
CENTER
 62
     2
 10
180.4368
 20
-178.7529
 11
180.4368
 21
-108.0741
  0
LINE
  8
0
  6
CONTINUOUS
 62
     7
 10
171.9368
 20
-164.3529
 11
188.9368
 21
-164.3529
  0
LINE
  8
0
  6
CONTINUOUS
 62
     7
 10
188.9368
 20
-129.8529
 11
188.9368
 21
-164.4449
  0
LINE
  8
0
  6
CONTINUOUS
 62
     7
 10
171.9368
 20
-129.8529
 11
171.9368
 21
-164.4453
  0
LINE
  8
0
  6
CONTINUOUS
 62
     7
 10
180.4368
 20
-140.6121
 11
180.4368
 21
-163.5937
  0
LINE
  8
0
  6
CONTINUOUS
 62
     7
 10
171.9368
 20
-139.8529
 11
188.9368
 21
-139.8529
  0
LINE
  8
0
  6
CONTINUOUS
 62
     7
 10
172.3089
 20
-176.3529
 11
171.9368
 21
-164.4453
  0
LINE
  8
0
  6
CONTINUOUS
 62
     7
 10
173.1649
 20
-176.3529
 11
172.7899
 21
-164.3529
  0
LINE
  8
0
  6
CONTINUOUS
 62
     7
 10
172.3089
 20
-176.3529
 11
188.5646
 21
-176.3529
  0
LINE
  8
0
  6
CONTINUOUS
 62
     7
 10
187.7086
 20
-176.3529
 11
188.0836
 21
-164.3529
  0
LINE
  8
0
  6
CONTINUOUS
 62
     7
 10
188.5646
 20
-176.3529
 11
188.9368
 21
-164.4449
  0
LINE
  8
0
  6
CONTINUOUS
 62
     7
 10
181.6868
 20
-129.8529
 11
188.9368
 21
-129.8529
  0
LINE
  8
0
  6
CONTINUOUS
 62
     7
 10
174.1868
 20
-127.6029
 11
174.1868
 21
-120.6029
  0
LINE
  8
0
  6
CENTER
 62
     2
 10
169.4368
 20
-120.6029
 11
191.4368
 21
-120.6029
  0
LINE
  8
0
  6
CONTINUOUS
 62
     7
 10
181.6868
 20
-129.8529
 11
181.6868
 21
-111.9426
  0
LINE
  8
0
  6
CONTINUOUS
 62
     7
 10
179.1868
 20
-129.8529
 11
179.1868
 21
-111.9426
  0
LINE
  8
0
  6
CONTINUOUS
 62
     7
 10
179.1868
 20
-129.8529
 11
171.9368
 21
-129.8529
  0
LINE
  8
0
  6
CONTINUOUS
 62
     7
 10
174.1868
 20
-127.6029
 11
179.1868
 21
-127.6029
  0
LINE
  8
0
  6
CONTINUOUS
 62
     7
 10
186.6868
 20
-127.6029
 11
181.6868
 21
-127.6029
  0
LINE
  8
0
  6
CONTINUOUS
 62
     7
 10
188.9368
 20
-129.8529
 11
186.6868
 21
-127.6029
  0
LINE
  8
0
  6
CONTINUOUS
 62
     7
 10
186.6868
 20
-127.6029
 11
186.6868
 21
-120.6029
  0
LINE
  8
0
  6
CONTINUOUS
 62
     7
 10
171.9368
 20
-129.8529
 11
174.1867
 21
-127.6029
  0
LINE
  8
0
  6
CONTINUOUS
 62
     7
 10
305.9334
 20
-176.3528
 11
322.1891
 21
-176.3528
  0
LINE
  8
0
  6
CONTINUOUS
 62
     7
 10
306.7894
 20
-176.3528
 11
306.4144
 21
-164.3528
  0
LINE
  8
0
  6
CONTINUOUS
 62
     7
 10
305.9334
 20
-176.3528
 11
305.5613
 21
-164.4454
  0
LINE
  8
0
  6
CONTINUOUS
 62
     7
 10
321.3331
 20
-176.3528
 11
321.7081
 21
-164.3528
  0
LINE
  8
0
  6
CONTINUOUS
 62
     7
 10
322.1891
 20
-176.3528
 11
322.5613
 21
-164.445
  0
LINE
  8
0
  6
CENTER
 62
     2
 10
314.0613
 20
-178.7528
 11
314.0613
 21
-108.2555
  0
LINE
  8
0
  6
CONTINUOUS
 62
     7
 10
322.5613
 20
-164.3528
 11
305.5613
 21
-164.3528
  0
LINE
  8
0
  6
CONTINUOUS
 62
     7
 10
305.5613
 20
-129.8528
 11
305.5613
 21
-164.4454
  0
LINE
  8
0
  6
CONTINUOUS
 62
     7
 10
322.5613
 20
-129.8528
 11
322.5613
 21
-164.445
  0
LINE
  8
0
  6
CONTINUOUS
 62
     7
 10
314.0613
 20
-140.612
 11
314.0613
 21
-163.5936
  0
LINE
  8
0
  6
CONTINUOUS
 62
     7
 10
322.5613
 20
-139.8528
 11
305.5613
 21
-139.8528
  0
LINE
  8
0
  6
CONTINUOUS
 62
     7
 10
307.8113
 20
-129.8528
 11
305.5613
 21
-129.8528
  0
LINE
  8
0
  6
CONTINUOUS
 62
     7
 10
307.8113
 20
-129.8528
 11
307.8113
 21
-126.7266
  0
LINE
  8
0
  6
CONTINUOUS
 62
     7
 10
320.3113
 20
-129.8528
 11
320.3113
 21
-126.7266
  0
LINE
  8
0
  6
CENTER
 62
     2
 10
325.0613
 20
-120.6028
 11
303.0613
 21
-120.6028
  0
LINE
  8
0
  6
CONTINUOUS
 62
     7
 10
320.3113
 20
-129.8528
 11
322.5613
 21
-129.8528
  0
LINE
  8
0
  6
CONTINUOUS
 62
     7
 10
315.3113
 20
-133.9196
 11
315.3113
 21
-129.2631
  0
LINE
  8
0
  6
CONTINUOUS
 62
     7
 10
312.8113
 20
-133.9196
 11
312.8113
 21
-129.2631
  0
LINE
  8
0
  6
CONTINUOUS
 62
     7
 10
312.8113
 20
-133.9196
 11
315.3113
 21
-133.9196
  0
LINE
  8
0
  6
CONTINUOUS
 62
     7
 10
305.5612
 20
-129.8528
 11
307.8112
 21
-127.6028
  0
LINE
  8
0
  6
CONTINUOUS
 62
     7
 10
322.5613
 20
-129.8528
 11
320.3113
 21
-127.6029
  0
ARC
  8
0
  6
CONTINUOUS
 62
     7
 10
273.0354
 20
-235.0457
 40
2.21188
 50
0.0
 51
89.99999
  0
ARC
  8
0
  6
CONTINUOUS
 62
     7
 10
291.2836
 20
-246.9346
 40
2.2119
 50
270.0
 51
0.0
  0
ARC
  8
0
  6
CONTINUOUS
 62
     7
 10
290.1776
 20
-236.1516
 40
3.31784
 50
0.0
 51
89.99999
  0
ARC
  8
0
  6
CONTINUOUS
 62
     7
 10
310.3611
 20
-236.8128
 40
2.21189
 50
295.0
 51
0.0
  0
ARC
  8
0
  6
CONTINUOUS
 62
     7
 10
310.3611
 20
-235.0457
 40
2.21188
 50
0.0
 51
89.99999
  0
ARC
  8
0
  6
CONTINUOUS
 62
     7
 10
327.5034
 20
-232.8338
 40
3.31784
 50
291.6884
 51
0.0
  0
ARC
  8
0
  6
CONTINUOUS
 62
     7
 10
326.3973
 20
-232.0834
 40
1.10595
 50
291.689
 51
0.0
  0
ARC
  8
0
  6
CONTINUOUS
 62
     7
 10
-247.9189
 20
130.2498
 40
2.55582
 50
89.99999
 51
124.0893
  0
ARC
  8
0
  6
CONTINUOUS
 62
     7
 10
-252.249
 20
123.2522
 40
9.55343
 50
72.41198
 51
107.5878
  0
ARC
  8
0
  6
CONTINUOUS
 62
     7
 10
-247.9189
 20
119.3614
 40
2.55583
 50
235.9104
 51
270.0
  0
ARC
  8
0
  6
CONTINUOUS
 62
     7
 10
-256.5791
 20
130.2498
 40
2.55583
 50
55.91042
 51
89.99999
  0
ARC
  8
0
  6
CONTINUOUS
 62
     7
 10
-256.5791
 20
119.3614
 40
2.55582
 50
270.0
 51
304.0892
  0
ARC
  8
0
  6
CONTINUOUS
 62
     7
 10
-252.249
 20
126.359
 40
9.55342
 50
252.412
 51
287.5878
  0
ARC
  8
0
  6
CONTINUOUS
 62
     7
 10
-252.249
 20
145.8056
 40
5.0
 50
89.99999
 51
180.0
  0
ARC
  8
0
  6
CONTINUOUS
 62
     7
 10
-252.249
 20
145.8056
 40
3.5
 50
89.99999
 51
180.0
  0
ARC
  8
0
  6
CONTINUOUS
 62
     7
 10
-252.2491
 20
177.132
 40
5.0
 50
50.14401
 51
309.856
  0
ARC
  8
0
  6
CONTINUOUS
 62
     7
 10
-252.2491
 20
177.132
 40
3.5
 50
89.99999
 51
163.3984
  0
ARC
  8
0
  6
CONTINUOUS
 62
     7
 10
-252.2491
 20
177.132
 40
3.49999
 50
196.6016
 51
270.0
  0
ARC
  8
0
  6
CONTINUOUS
 62
     7
 10
-311.5613
 20
124.0265
 40
7.22091
 50
249.7439
 51
290.256
  0
ARC
  8
0
  6
CONTINUOUS
 62
     7
 10
-316.5613
 20
124.0265
 40
7.22091
 50
249.7439
 51
290.2558
  0
ARC
  8
0
  6
CONTINUOUS
 62
     7
 10
-311.5613
 20
125.5847
 40
7.2209
 50
69.7439
 51
110.2561
  0
ARC
  8
0
  6
CONTINUOUS
 62
     7
 10
-316.5613
 20
125.5847
 40
7.2209
 50
69.7439
 51
110.2561
  0
ARC
  8
0
  6
CONTINUOUS
 62
     7
 10
-314.0613
 20
145.8056
 40
5.0
 50
320.144
 51
219.856
  0
ARC
  8
0
  6
CONTINUOUS
 62
     7
 10
-314.0613
 20
145.8056
 40
3.5
 50
0.0
 51
73.39842
  0
ARC
  8
0
  6
CONTINUOUS
 62
     7
 10
-314.0613
 20
145.8056
 40
3.49999
 50
106.6016
 51
180.0
  0
ARC
  8
0
  6
CONTINUOUS
 62
     7
 10
-182.9368
 20
124.0266
 40
7.22091
 50
249.7439
 51
290.2561
  0
ARC
  8
0
  6
CONTINUOUS
 62
     7
 10
-177.9368
 20
124.0266
 40
7.22091
 50
249.744
 51
290.2561
  0
ARC
  8
0
  6
CONTINUOUS
 62
     7
 10
-182.9368
 20
125.5848
 40
7.22091
 50
69.74404
 51
110.2561
  0
ARC
  8
0
  6
CONTINUOUS
 62
     7
 10
-177.9368
 20
125.5848
 40
7.22092
 50
69.74393
 51
110.2561
  0
CIRCLE
  8
0
  6
CONTINUOUS
 62
     7
 10
-180.4368
 20
145.8057
 40
5.0
  0
CIRCLE
  8
0
  6
CONTINUOUS
 62
     7
 10
-180.4368
 20
145.8057
 40
2.0
  0
ARC
  8
0
  6
CONTINUOUS
 62
     7
 10
-0.66984
 20
132.1498
 40
2.55582
 50
89.99992
 51
124.0894
  0
ARC
  8
0
  6
CONTINUOUS
 62
     7
 10
-4.99997
 20
125.1522
 40
9.55343
 50
72.41198
 51
107.5879
  0
ARC
  8
0
  6
CONTINUOUS
 62
     7
 10
-0.66984
 20
121.2614
 40
2.55582
 50
235.9105
 51
269.9999
  0
ARC
  8
0
  6
CONTINUOUS
 62
     7
 10
-9.3301
 20
132.1498
 40
2.55582
 50
55.91046
 51
89.99987
  0
ARC
  8
0
  6
CONTINUOUS
 62
     7
 10
-9.3301
 20
121.2614
 40
2.55582
 50
269.9999
 51
304.0893
  0
ARC
  8
0
  6
CONTINUOUS
 62
     7
 10
-4.99997
 20
128.259
 40
9.55342
 50
252.4119
 51
287.5879
  0
ARC
  8
0
  6
CONTINUOUS
 62
     7
 10
-4.99997
 20
147.7056
 40
5.0
 50
89.99998
 51
180.0
  0
ARC
  8
0
  6
CONTINUOUS
 62
     7
 10
-4.99997
 20
147.7056
 40
3.5
 50
89.99998
 51
180.0
  0
ARC
  8
0
  6
CONTINUOUS
 62
     7
 10
-5.00003
 20
177.132
 40
5.0
 50
50.14396
 51
309.856
  0
ARC
  8
0
  6
CONTINUOUS
 62
     7
 10
-5.00003
 20
177.132
 40
3.5
 50
89.99998
 51
163.3985
  0
ARC
  8
0
  6
CONTINUOUS
 62
     7
 10
-5.00003
 20
177.132
 40
3.5
 50
196.6015
 51
270.0
  0
ARC
  8
0
  6
CONTINUOUS
 62
     7
 10
-64.31227
 20
125.9265
 40
7.22091
 50
249.7438
 51
290.256
  0
ARC
  8
0
  6
CONTINUOUS
 62
     7
 10
-69.31227
 20
125.9265
 40
7.22091
 50
249.7438
 51
290.2559
  0
ARC
  8
0
  6
CONTINUOUS
 62
     7
 10
-64.31227
 20
127.4847
 40
7.22091
 50
69.74383
 51
110.256
  0
ARC
  8
0
  6
CONTINUOUS
 62
     7
 10
-69.31227
 20
127.4847
 40
7.22091
 50
69.74385
 51
110.256
  0
ARC
  8
0
  6
CONTINUOUS
 62
     7
 10
-66.81227
 20
147.7056
 40
5.0
 50
320.144
 51
219.856
  0
ARC
  8
0
  6
CONTINUOUS
 62
     7
 10
-66.81227
 20
147.7056
 40
3.5
 50
0.0
 51
73.39842
  0
ARC
  8
0
  6
CONTINUOUS
 62
     7
 10
-66.81227
 20
147.7056
 40
3.49999
 50
106.6016
 51
180.0
  0
ARC
  8
0
  6
CONTINUOUS
 62
     7
 10
64.31226
 20
125.9266
 40
7.22091
 50
249.744
 51
290.2561
  0
ARC
  8
0
  6
CONTINUOUS
 62
     7
 10
69.31226
 20
125.9266
 40
7.22091
 50
249.744
 51
290.2561
  0
ARC
  8
0
  6
CONTINUOUS
 62
     7
 10
64.31226
 20
127.4848
 40
7.22091
 50
69.74397
 51
110.2561
  0
ARC
  8
0
  6
CONTINUOUS
 62
     7
 10
69.31226
 20
127.4848
 40
7.22091
 50
69.74391
 51
110.2561
  0
CIRCLE
  8
0
  6
CONTINUOUS
 62
     7
 10
66.81226
 20
147.7057
 40
5.0
  0
CIRCLE
  8
0
  6
CONTINUOUS
 62
     7
 10
66.81226
 20
147.7057
 40
2.0
  0
ARC
  8
0
  6
CONTINUOUS
 62
     7
 10
-247.0529
 20
-47.93306
 40
3.06699
 50
235.6157
 51
270.0
  0
ARC
  8
0
  6
CONTINUOUS
 62
     7
 10
-257.4452
 20
-47.93306
 40
3.06699
 50
270.0
 51
304.3843
  0
ARC
  8
0
  6
CONTINUOUS
 62
     7
 10
-252.249
 20
-39.53588
 40
11.46417
 50
252.412
 51
287.5878
  0
ARC
  8
0
  6
CONTINUOUS
 62
     7
 10
-247.0529
 20
-35.06704
 40
3.06699
 50
89.99999
 51
124.3843
  0
ARC
  8
0
  6
CONTINUOUS
 62
     7
 10
-252.249
 20
-43.46421
 40
11.46417
 50
72.4121
 51
107.5879
  0
ARC
  8
0
  6
CONTINUOUS
 62
     7
 10
-257.4452
 20
-35.06704
 40
3.06699
 50
55.61568
 51
89.99999
  0
ARC
  8
0
  6
CONTINUOUS
 62
     7
 10
-252.249
 20
-20.75005
 40
4.5
 50
89.99999
 51
180.0
  0
ARC
  8
0
  6
CONTINUOUS
 62
     7
 10
-251.999
 20
-20.75005
 40
6.25
 50
89.99999
 51
180.0
  0
ARC
  8
0
  6
CONTINUOUS
 62
     7
 10
-252.2491
 20
17.42638
 40
4.5
 50
89.99999
 51
163.8724
  0
ARC
  8
0
  6
CONTINUOUS
 62
     7
 10
-252.2491
 20
17.42638
 40
4.49999
 50
196.1276
 51
270.0
  0
ARC
  8
0
  6
CONTINUOUS
 62
     7
 10
-252.2491
 20
17.42638
 40
6.0
 50
48.59037
 51
311.4096
  0
ARC
  8
0
  6
CONTINUOUS
 62
     7
 10
-311.0613
 20
-40.66508
 40
8.66505
 50
69.74382
 51
110.2562
  0
ARC
  8
0
  6
CONTINUOUS
 62
     7
 10
-311.0613
 20
-42.33498
 40
8.66505
 50
249.7438
 51
290.2562
  0
ARC
  8
0
  6
CONTINUOUS
 62
     7
 10
-317.0613
 20
-40.66508
 40
8.66505
 50
69.74382
 51
110.2562
  0
ARC
  8
0
  6
CONTINUOUS
 62
     7
 10
-317.0613
 20
-42.33498
 40
8.66506
 50
249.7438
 51
290.2562
  0
ARC
  8
0
  6
CONTINUOUS
 62
     7
 10
-314.0613
 20
-20.75003
 40
6.25001
 50
326.4195
 51
213.5805
  0
ARC
  8
0
  6
CONTINUOUS
 62
     7
 10
-314.0613
 20
-20.75003
 40
4.5
 50
0.0
 51
73.87238
  0
ARC
  8
0
  6
CONTINUOUS
 62
     7
 10
-314.0613
 20
-20.75003
 40
4.5
 50
106.1276
 51
180.0
  0
ARC
  8
0
  6
CONTINUOUS
 62
     7
 10
-177.4368
 20
-40.66504
 40
8.66505
 50
69.74382
 51
110.2562
  0
ARC
  8
0
  6
CONTINUOUS
 62
     7
 10
-177.4368
 20
-42.33493
 40
8.66506
 50
249.7437
 51
290.2562
  0
ARC
  8
0
  6
CONTINUOUS
 62
     7
 10
-183.4368
 20
-40.66504
 40
8.66505
 50
69.74382
 51
110.2562
  0
ARC
  8
0
  6
CONTINUOUS
 62
     7
 10
-183.4368
 20
-42.33493
 40
8.66505
 50
249.7439
 51
290.2563
  0
CIRCLE
  8
0
  6
CONTINUOUS
 62
     7
 10
-180.4368
 20
-20.74998
 40
6.25
  0
CIRCLE
  8
0
  6
CONTINUOUS
 62
     7
 10
-180.4368
 20
-20.74998
 40
5.9
  0
CIRCLE
  8
0
  6
CONTINUOUS
 62
     7
 10
-180.4368
 20
-20.74998
 40
3.0
  0
ARC
  8
0
  6
CONTINUOUS
 62
     7
 10
-4.99133
 20
-44.3744
 40
13.37476
 50
72.41197
 51
107.588
  0
ARC
  8
0
  6
CONTINUOUS
 62
     7
 10
-11.05351
 20
-34.57779
 40
3.57814
 50
55.78321
 51
124.5522
  0
ARC
  8
0
  6
CONTINUOUS
 62
     7
 10
-11.06215
 20
-46.42191
 40
3.57814
 50
270.0
 51
304.3844
  0
ARC
  8
0
  6
CONTINUOUS
 62
     7
 10
-4.99997
 20
-36.62529
 40
13.37476
 50
252.412
 51
287.588
  0
ARC
  8
0
  6
CONTINUOUS
 62
     7
 10
1.06221
 20
-46.42191
 40
3.57814
 50
235.6156
 51
269.9999
  0
ARC
  8
0
  6
CONTINUOUS
 62
     7
 10
1.05357
 20
-34.57779
 40
3.57814
 50
55.44778
 51
124.2168
  0
ARC
  8
0
  6
CONTINUOUS
 62
     7
 10
-4.99997
 20
-19.75005
 40
4.5
 50
89.99998
 51
180.0
  0
ARC
  8
0
  6
CONTINUOUS
 62
     7
 10
-4.74997
 20
-19.75005
 40
6.25
 50
89.99998
 51
180.0
  0
ARC
  8
0
  6
CONTINUOUS
 62
     7
 10
-5.00003
 20
17.42638
 40
4.5
 50
89.99998
 51
163.8724
  0
ARC
  8
0
  6
CONTINUOUS
 62
     7
 10
-5.00003
 20
17.42638
 40
4.5
 50
196.1275
 51
269.9999
  0
ARC
  8
0
  6
CONTINUOUS
 62
     7
 10
-5.00003
 20
17.42638
 40
6.0
 50
48.59037
 51
311.4096
  0
ARC
  8
0
  6
CONTINUOUS
 62
     7
 10
-70.31227
 20
-39.89083
 40
10.1092
 50
249.7438
 51
290.2562
  0
ARC
  8
0
  6
CONTINUOUS
 62
     7
 10
-63.31227
 20
-39.89083
 40
10.1092
 50
249.7437
 51
290.2562
  0
ARC
  8
0
  6
CONTINUOUS
 62
     7
 10
-70.31227
 20
-41.10923
 40
10.1092
 50
69.74371
 51
110.2562
  0
ARC
  8
0
  6
CONTINUOUS
 62
     7
 10
-63.31227
 20
-41.10923
 40
10.1092
 50
69.74377
 51
110.2562
  0
ARC
  8
0
  6
CONTINUOUS
 62
     7
 10
-66.81227
 20
-19.75003
 40
6.25
 50
326.4195
 51
213.5805
  0
ARC
  8
0
  6
CONTINUOUS
 62
     7
 10
-66.81227
 20
-19.75003
 40
4.5
 50
0.0
 51
73.87238
  0
ARC
  8
0
  6
CONTINUOUS
 62
     7
 10
-66.81227
 20
-19.75003
 40
4.5
 50
106.1276
 51
180.0
  0
ARC
  8
0
  6
CONTINUOUS
 62
     7
 10
63.31225
 20
-39.89079
 40
10.1092
 50
249.7438
 51
290.2563
  0
ARC
  8
0
  6
CONTINUOUS
 62
     7
 10
70.31226
 20
-39.89079
 40
10.1092
 50
249.7437
 51
290.2562
  0
ARC
  8
0
  6
CONTINUOUS
 62
     7
 10
63.31225
 20
-41.10918
 40
10.1092
 50
69.74373
 51
110.2562
  0
ARC
  8
0
  6
CONTINUOUS
 62
     7
 10
70.31226
 20
-41.10918
 40
10.1092
 50
69.74376
 51
110.2562
  0
CIRCLE
  8
0
  6
CONTINUOUS
 62
     7
 10
66.81226
 20
-19.74998
 40
6.25
  0
CIRCLE
  8
0
  6
CONTINUOUS
 62
     7
 10
66.81226
 20
-19.74998
 40
5.9
  0
CIRCLE
  8
0
  6
CONTINUOUS
 62
     7
 10
66.81226
 20
-19.74998
 40
3.0
  0
ARC
  8
0
  6
CONTINUOUS
 62
     7
 10
-258.3112
 20
-217.1276
 40
3.57814
 50
270.0
 51
304.3843
  0
ARC
  8
0
  6
CONTINUOUS
 62
     7
 10
-252.249
 20
-207.3309
 40
13.37476
 50
252.412
 51
287.588
  0
ARC
  8
0
  6
CONTINUOUS
 62
     7
 10
-246.1868
 20
-217.1276
 40
3.57815
 50
235.6155
 51
270.0
  0
ARC
  8
0
  6
CONTINUOUS
 62
     7
 10
-258.3112
 20
-203.2838
 40
3.57814
 50
55.61572
 51
89.99999
  0
ARC
  8
0
  6
CONTINUOUS
 62
     7
 10
-252.249
 20
-213.0805
 40
13.37476
 50
72.41199
 51
107.588
  0
ARC
  8
0
  6
CONTINUOUS
 62
     7
 10
-246.1868
 20
-203.2838
 40
3.57814
 50
89.99999
 51
124.3843
  0
ARC
  8
0
  6
CONTINUOUS
 62
     7
 10
-252.249
 20
-184.9557
 40
5.5
 50
89.99999
 51
180.0
  0
ARC
  8
0
  6
CONTINUOUS
 62
     7
 10
-251.999
 20
-184.9557
 40
7.25
 50
89.99999
 51
180.0
  0
ARC
  8
0
  6
CONTINUOUS
 62
     7
 10
-252.2491
 20
-152.2793
 40
7.0
 50
51.78681
 51
308.2132
  0
ARC
  8
0
  6
CONTINUOUS
 62
     7
 10
-252.2491
 20
-152.2793
 40
5.49999
 50
195.8267
 51
270.0
  0
ARC
  8
0
  6
CONTINUOUS
 62
     7
 10
-252.2491
 20
-152.2793
 40
5.5
 50
89.99999
 51
164.1733
  0
ARC
  8
0
  6
CONTINUOUS
 62
     7
 10
-317.5613
 20
-210.5965
 40
10.1092
 50
249.7437
 51
290.2562
  0
ARC
  8
0
  6
CONTINUOUS
 62
     7
 10
-310.5613
 20
-210.5965
 40
10.1092
 50
249.7437
 51
290.2562
  0
ARC
  8
0
  6
CONTINUOUS
 62
     7
 10
-310.5613
 20
-209.8149
 40
10.1092
 50
69.74374
 51
110.2563
  0
ARC
  8
0
  6
CONTINUOUS
 62
     7
 10
-317.5613
 20
-209.8149
 40
10.1092
 50
69.74374
 51
110.2563
  0
ARC
  8
0
  6
CONTINUOUS
 62
     7
 10
-314.0613
 20
-184.9557
 40
7.24999
 50
323.4124
 51
216.5875
  0
ARC
  8
0
  6
CONTINUOUS
 62
     7
 10
-314.0613
 20
-184.9557
 40
5.5
 50
0.0
 51
74.17338
  0
ARC
  8
0
  6
CONTINUOUS
 62
     7
 10
-314.0613
 20
-184.9557
 40
5.5
 50
105.8266
 51
180.0
  0
ARC
  8
0
  6
CONTINUOUS
 62
     7
 10
-176.9368
 20
-210.5964
 40
10.1092
 50
249.7437
 51
290.2562
  0
ARC
  8
0
  6
CONTINUOUS
 62
     7
 10
-183.9368
 20
-210.5964
 40
10.10921
 50
249.7438
 51
290.2563
  0
ARC
  8
0
  6
CONTINUOUS
 62
     7
 10
-183.9368
 20
-209.8148
 40
10.1092
 50
69.74374
 51
110.2563
  0
ARC
  8
0
  6
CONTINUOUS
 62
     7
 10
-176.9368
 20
-209.8148
 40
10.10921
 50
69.74386
 51
110.2563
  0
CIRCLE
  8
0
  6
CONTINUOUS
 62
     7
 10
-180.4368
 20
-184.9556
 40
7.25
  0
CIRCLE
  8
0
  6
CONTINUOUS
 62
     7
 10
-180.4368
 20
-184.9556
 40
6.9
  0
CIRCLE
  8
0
  6
CONTINUOUS
 62
     7
 10
-180.4368
 20
-184.9556
 40
4.0
  0
ARC
  8
0
  6
CONTINUOUS
 62
     7
 10
-11.06215
 20
-216.1276
 40
3.57814
 50
270.0
 51
304.3844
  0
ARC
  8
0
  6
CONTINUOUS
 62
     7
 10
-4.99997
 20
-206.3309
 40
13.37476
 50
252.412
 51
287.588
  0
ARC
  8
0
  6
CONTINUOUS
 62
     7
 10
1.06221
 20
-216.1276
 40
3.57815
 50
235.6156
 51
269.9999
  0
ARC
  8
0
  6
CONTINUOUS
 62
     7
 10
-11.06215
 20
-202.2838
 40
3.57815
 50
55.61559
 51
89.99992
  0
ARC
  8
0
  6
CONTINUOUS
 62
     7
 10
-4.99997
 20
-212.0805
 40
13.37476
 50
72.41198
 51
107.588
  0
ARC
  8
0
  6
CONTINUOUS
 62
     7
 10
1.06221
 20
-202.2838
 40
3.57814
 50
89.99998
 51
124.3843
  0
ARC
  8
0
  6
CONTINUOUS
 62
     7
 10
-4.99997
 20
-183.9557
 40
5.5
 50
89.99998
 51
180.0
  0
ARC
  8
0
  6
CONTINUOUS
 62
     7
 10
-4.74997
 20
-183.9557
 40
7.25
 50
89.99998
 51
180.0
  0
ARC
  8
0
  6
CONTINUOUS
 62
     7
 10
-5.00003
 20
-152.2793
 40
7.0
 50
51.78679
 51
308.2132
  0
ARC
  8
0
  6
CONTINUOUS
 62
     7
 10
-5.00003
 20
-152.2793
 40
5.5
 50
195.8266
 51
270.0
  0
ARC
  8
0
  6
CONTINUOUS
 62
     7
 10
-5.00003
 20
-152.2793
 40
5.5
 50
89.99992
 51
164.1734
  0
ARC
  8
0
  6
CONTINUOUS
 62
     7
 10
-70.31227
 20
-209.5965
 40
10.1092
 50
249.7437
 51
290.2562
  0
ARC
  8
0
  6
CONTINUOUS
 62
     7
 10
-63.31227
 20
-209.5965
 40
10.1092
 50
249.7437
 51
290.2562
  0
ARC
  8
0
  6
CONTINUOUS
 62
     7
 10
-63.31227
 20
-208.8149
 40
10.10919
 50
69.74377
 51
110.2563
  0
ARC
  8
0
  6
CONTINUOUS
 62
     7
 10
-70.31227
 20
-208.8149
 40
10.1092
 50
69.74371
 51
110.2562
  0
ARC
  8
0
  6
CONTINUOUS
 62
     7
 10
-66.81227
 20
-183.9557
 40
7.25
 50
323.4124
 51
216.5876
  0
ARC
  8
0
  6
CONTINUOUS
 62
     7
 10
-66.81227
 20
-183.9557
 40
5.5
 50
0.0
 51
74.17338
  0
ARC
  8
0
  6
CONTINUOUS
 62
     7
 10
-66.81227
 20
-183.9557
 40
5.5
 50
105.8266
 51
180.0
  0
ARC
  8
0
  6
CONTINUOUS
 62
     7
 10
70.31226
 20
-209.5964
 40
10.10919
 50
249.7438
 51
290.2563
  0
ARC
  8
0
  6
CONTINUOUS
 62
     7
 10
63.31226
 20
-209.5964
 40
10.10921
 50
249.7438
 51
290.2563
  0
ARC
  8
0
  6
CONTINUOUS
 62
     7
 10
63.31226
 20
-208.8148
 40
10.1092
 50
69.74374
 51
110.2563
  0
ARC
  8
0
  6
CONTINUOUS
 62
     7
 10
70.31226
 20
-208.8148
 40
10.10921
 50
69.74382
 51
110.2563
  0
CIRCLE
  8
0
  6
CONTINUOUS
 62
     7
 10
66.81226
 20
-183.9556
 40
7.25
  0
CIRCLE
  8
0
  6
CONTINUOUS
 62
     7
 10
66.81226
 20
-183.9556
 40
6.9
  0
CIRCLE
  8
0
  6
CONTINUOUS
 62
     7
 10
66.81226
 20
-183.9556
 40
4.0
  0
ARC
  8
0
  6
CONTINUOUS
 62
     7
 10
249.6103
 20
65.44839
 40
4.3449
 50
235.6158
 51
270.0
  0
ARC
  8
0
  6
CONTINUOUS
 62
     7
 10
242.2491
 20
77.34439
 40
16.24089
 50
252.412
 51
287.5879
  0
ARC
  8
0
  6
CONTINUOUS
 62
     7
 10
234.8878
 20
65.44839
 40
4.3449
 50
270.0
 51
304.3842
  0
ARC
  8
0
  6
CONTINUOUS
 62
     7
 10
234.8878
 20
81.2586
 40
4.3449
 50
55.61556
 51
89.99999
  0
ARC
  8
0
  6
CONTINUOUS
 62
     7
 10
242.2491
 20
69.36261
 40
16.24088
 50
72.41204
 51
107.5879
  0
ARC
  8
0
  6
CONTINUOUS
 62
     7
 10
249.6103
 20
81.2586
 40
4.34489
 50
89.99999
 51
124.3842
  0
ARC
  8
0
  6
CONTINUOUS
 62
     7
 10
242.2491
 20
104.8535
 40
6.25
 50
89.99999
 51
179.9999
  0
ARC
  8
0
  6
CONTINUOUS
 62
     7
 10
242.4991
 20
104.8535
 40
8.75
 50
89.99999
 51
180.0
  0
ARC
  8
0
  6
CONTINUOUS
 62
     7
 10
242.249
 20
148.5299
 40
8.5
 50
47.33205
 51
312.6679
  0
ARC
  8
0
  6
CONTINUOUS
 62
     7
 10
242.249
 20
148.5299
 40
6.25
 50
89.99999
 51
168.463
  0
ARC
  8
0
  6
CONTINUOUS
 62
     7
 10
242.249
 20
148.5299
 40
6.25001
 50
191.5368
 51
270.0
  0
ARC
  8
0
  6
CONTINUOUS
 62
     7
 10
184.6868
 20
73.37903
 40
12.27551
 50
249.7438
 51
290.2561
  0
ARC
  8
0
  6
CONTINUOUS
 62
     7
 10
176.1868
 20
73.37903
 40
12.27551
 50
249.7438
 51
290.2562
  0
ARC
  8
0
  6
CONTINUOUS
 62
     7
 10
176.1868
 20
73.328
 40
12.27551
 50
69.74377
 51
110.2561
  0
ARC
  8
0
  6
CONTINUOUS
 62
     7
 10
184.6868
 20
73.328
 40
12.27551
 50
69.74377
 51
110.2561
  0
ARC
  8
0
  6
CONTINUOUS
 62
     7
 10
180.4368
 20
104.8535
 40
8.75
 50
315.5847
 51
224.4153
  0
ARC
  8
0
  6
CONTINUOUS
 62
     7
 10
180.4368
 20
104.8535
 40
6.25
 50
0.0
 51
78.46304
  0
ARC
  8
0
  6
CONTINUOUS
 62
     7
 10
180.4368
 20
104.8535
 40
6.25
 50
101.537
 51
180.0
  0
CIRCLE
  8
0
  6
CONTINUOUS
 62
     7
 10
314.0613
 20
104.8536
 40
5.0
  0
ARC
  8
0
  6
CONTINUOUS
 62
     7
 10
309.8113
 20
73.37907
 40
12.27551
 50
249.7438
 51
290.2561
  0
ARC
  8
0
  6
CONTINUOUS
 62
     7
 10
318.3113
 20
73.37907
 40
12.27551
 50
249.7438
 51
290.2561
  0
ARC
  8
0
  6
CONTINUOUS
 62
     7
 10
318.3113
 20
73.32805
 40
12.27552
 50
69.74386
 51
110.2561
  0
ARC
  8
0
  6
CONTINUOUS
 62
     7
 10
309.8113
 20
73.32805
 40
12.27551
 50
69.74384
 51
110.2561
  0
CIRCLE
  8
0
  6
CONTINUOUS
 62
     7
 10
314.0613
 20
104.8536
 40
8.75
  0
CIRCLE
  8
0
  6
CONTINUOUS
 62
     7
 10
314.0613
 20
104.8536
 40
8.4
  0
ARC
  8
0
  6
CONTINUOUS
 62
     7
 10
249.6103
 20
-160.008
 40
4.3449
 50
235.6158
 51
270.0
  0
ARC
  8
0
  6
CONTINUOUS
 62
     7
 10
242.2491
 20
-148.112
 40
16.24088
 50
252.412
 51
287.5879
  0
ARC
  8
0
  6
CONTINUOUS
 62
     7
 10
234.8878
 20
-160.008
 40
4.34489
 50
270.0
 51
304.3842
  0
ARC
  8
0
  6
CONTINUOUS
 62
     7
 10
234.8878
 20
-144.1978
 40
4.3449
 50
55.61562
 51
89.99999
  0
ARC
  8
0
  6
CONTINUOUS
 62
     7
 10
242.2491
 20
-156.0938
 40
16.24088
 50
72.41204
 51
107.5879
  0
ARC
  8
0
  6
CONTINUOUS
 62
     7
 10
249.6103
 20
-144.1978
 40
4.34489
 50
89.99999
 51
124.3842
  0
ARC
  8
0
  6
CONTINUOUS
 62
     7
 10
242.2491
 20
-120.6029
 40
6.25
 50
89.99999
 51
179.9999
  0
ARC
  8
0
  6
CONTINUOUS
 62
     7
 10
242.4991
 20
-120.6029
 40
8.75
 50
89.99999
 51
180.0
  0
ARC
  8
0
  6
CONTINUOUS
 62
     7
 10
242.249
 20
-77.42647
 40
8.5
 50
47.33205
 51
312.6679
  0
ARC
  8
0
  6
CONTINUOUS
 62
     7
 10
242.249
 20
-77.42647
 40
6.25
 50
89.99999
 51
168.463
  0
ARC
  8
0
  6
CONTINUOUS
 62
     7
 10
242.249
 20
-77.42647
 40
6.25001
 50
191.5369
 51
270.0
  0
ARC
  8
0
  6
CONTINUOUS
 62
     7
 10
184.6868
 20
-152.0774
 40
12.27552
 50
249.7438
 51
290.2561
  0
ARC
  8
0
  6
CONTINUOUS
 62
     7
 10
176.1868
 20
-152.0774
 40
12.27552
 50
249.7438
 51
290.2562
  0
ARC
  8
0
  6
CONTINUOUS
 62
     7
 10
176.1868
 20
-152.1284
 40
12.27551
 50
69.74377
 51
110.2561
  0
ARC
  8
0
  6
CONTINUOUS
 62
     7
 10
184.6868
 20
-152.1284
 40
12.27551
 50
69.74377
 51
110.2561
  0
ARC
  8
0
  6
CONTINUOUS
 62
     7
 10
180.4368
 20
-120.6029
 40
8.75
 50
315.5847
 51
224.4153
  0
ARC
  8
0
  6
CONTINUOUS
 62
     7
 10
180.4368
 20
-120.6029
 40
6.25
 50
0.0
 51
78.46304
  0
ARC
  8
0
  6
CONTINUOUS
 62
     7
 10
180.4368
 20
-120.6029
 40
6.25
 50
101.537
 51
180.0
  0
ARC
  8
0
  6
CONTINUOUS
 62
     7
 10
309.8113
 20
-152.0773
 40
12.27552
 50
249.7438
 51
290.2561
  0
ARC
  8
0
  6
CONTINUOUS
 62
     7
 10
318.3113
 20
-152.0773
 40
12.2755
 50
249.7438
 51
290.2561
  0
ARC
  8
0
  6
CONTINUOUS
 62
     7
 10
318.3113
 20
-152.1283
 40
12.27552
 50
69.74386
 51
110.2562
  0
ARC
  8
0
  6
CONTINUOUS
 62
     7
 10
309.8113
 20
-152.1283
 40
12.27552
 50
69.74386
 51
110.2561
  0
CIRCLE
  8
0
  6
CONTINUOUS
 62
     7
 10
314.0613
 20
-120.6028
 40
8.75
  0
CIRCLE
  8
0
  6
CONTINUOUS
 62
     7
 10
314.0613
 20
-120.6028
 40
8.4
  0
CIRCLE
  8
0
  6
CONTINUOUS
 62
     7
 10
314.0613
 20
-120.6028
 40
5.0
  0
TEXT
  8
0
  6
CONTINUOUS
 62
     7
 10
229.0661
 20
236.2625
 40
8.5
  1
DATE : SEP ,1988
 41
0.8
  7
STANDARD
  0
TEXT
  8
0
  6
CONTINUOUS
 62
     7
 10
-364.3979
 20
235.5575
 40
10.0
  1
QUICK FITTING,TLL
 41
0.67009
  7
STANDARD
  0
TEXT
  8
0
  6
CONTINUOUS
 62
     7
 10
131.4742
 20
-12.79002
 40
7.0
  1
MODEL : TLL10-03
 41
0.8
  7
STANDARD
  0
TEXT
  8
0
  6
CONTINUOUS
 62
     7
 10
-115.7748
 20
213.1664
 40
7.0
  1
MODEL : TLL4-01
 41
0.8
  7
STANDARD
  0
TEXT
  8
0
  6
CONTINUOUS
 62
     7
 10
-363.0238
 20
213.1664
 40
7.0
  1
MODEL : TLL4-M5
 41
0.8
  7
STANDARD
  0
TEXT
  8
0
  6
CONTINUOUS
 62
     7
 10
-363.0238
 20
72.06283
 40
7.0
  1
MODEL : TLL6-01
 41
0.8
  7
STANDARD
  0
TEXT
  8
0
  6
CONTINUOUS
 62
     7
 10
-363.0238
 20
-97.64283
 40
7.0
  1
MODEL : TLL8-01
 41
0.8
  7
STANDARD
  0
TEXT
  8
0
  6
CONTINUOUS
 62
     7
 10
-115.7748
 20
72.06283
 40
7.0
  1
MODEL : TLL6-02
 41
0.8
  7
STANDARD
  0
TEXT
  8
0
  6
CONTINUOUS
 62
     7
 10
-115.7748
 20
-97.64283
 40
7.0
  1
MODEL : TLL8-02
 41
0.8
  7
STANDARD
  0
TEXT
  8
0
  6
CONTINUOUS
 62
     7
 10
131.4742
 20
213.1664
 40
7.0
  1
MODEL : TLL10-02
 41
0.8
  7
STANDARD
  0
ENDSEC
  0
EOF
