  0
SECTION
  2
HEADER
  0
ENDSEC
  0
SECTION
  2
TABLES
  0
TABLE
  2
LTYPE
 70
     4
  0
LTYPE
  2
CONTINUOUS
 70
    64
  3
Solid line
 72
    65
 73
     0
 40
0.000000
  0
LTYPE
  2
DASHED
 70
    64
  3
__ __ __ __ __ __ __ __ __ __ __ __ __ __ __
 72
    65
 73
     2
 40
3.500000
 49
2.000000
 49
-1.500000
  0
LTYPE
  2
CENTER
 70
    64
  3
____ _ ____ _ ____ _ ____ _ ____ _ ____ _ ____
 72
    65
 73
     4
 40
17.500000
 49
13.000000
 49
-1.500000
 49
1.500000
 49
-1.500000
  0
LTYPE
  2
PHANTOM
 70
    64
  3
_____ _ _ _____ _ _ _____ _ _ _____ _ _ ____  
 72
    65
 73
     6
 40
15.500000
 49
8.000000
 49
-1.500000
 49
1.500000
 49
-1.500000
 49
1.500000
 49
-1.500000
  0
LTYPE
  2
DASHED1
 70
    64
  3
__ __ __ __ __ __ __ __ __ __ __ __ __ __ __
 72
    65
 73
     2
 40
1.500000
 49
1.000000
 49
-0.500000
  0
LTYPE
  2
DASHED2
 70
    64
  3
__ __ __ __ __ __ __ __ __ __ __ __ __ __ __
 72
    65
 73
     2
 40
3.500000
 49
2.500000
 49
-1.000000
  0
LTYPE
  2
DASHED3
 70
    64
  3
__ __ __ __ __ __ __ __ __ __ __ __ __ __ __
 72
    65
 73
     2
 40
6.000000
 49
4.000000
 49
-2.000000
  0
LTYPE
  2
DASHED4
 70
    64
  3
__ __ __ __ __ __ __ __ __ __ __ __ __ __ __
 72
    65
 73
     2
 40
12.000000
 49
10.000000
 49
-2.000000
  0
LTYPE
  2
DASHED5
 70
    64
  3
__ __ __ __ __ __ __ __ __ __ __ __ __ __ __
 72
    65
 73
     2
 40
17.000000
 49
15.000000
 49
-2.000000
  0
LTYPE
  2
DASHED6
 70
    64
  3
__ __ __ __ __ __ __ __ __ __ __ __ __ __ __
 72
    65
 73
     2
 40
29.000000
 49
27.000000
 49
-2.000000
  0
LTYPE
  2
PHANTOM1
 70
    64
  3
_____ _ _ _____ _ _ _____ _ _ _____ _ _ ____  
 72
    65
 73
     6
 40
31.000000
 49
25.000000
 49
-1.500000
 49
1.000000
 49
-1.000000
 49
1.000000
 49
-1.500000
  0
LTYPE
  2
PHANTOM2
 70
    64
  3
_____ _ _ _____ _ _ _____ _ _ _____ _ _ ____  
 72
    65
 73
     6
 40
36.000000
 49
27.000000
 49
-1.500000
 49
2.500000
 49
-1.000000
 49
2.500000
 49
-1.500000
  0
LTYPE
  2
PHANTOM3
 70
    64
  3
_____ _ _ _____ _ _ _____ _ _ _____ _ _ ____  
 72
    65
 73
     6
 40
78.000000
 49
64.000000
 49
-2.000000
 49
4.000000
 49
-2.000000
 49
4.000000
 49
-2.000000
  0
LTYPE
  2
CENTER1
 70
    64
  3
____ _ ____ _ ____ _ ____ _ ____ _ ____ _ ____
 72
    65
 73
     4
 40
19.000000
 49
14.000000
 49
-1.000000
 49
3.000000
 49
-1.000000
  0
LTYPE
  2
CENTER2
 70
    64
  3
____ _ ____ _ ____ _ ____ _ ____ _ ____ _ ____
 72
    65
 73
     4
 40
28.500000
 49
25.000000
 49
-1.000000
 49
1.500000
 49
-1.000000
  0
LTYPE
  2
CENTER3
 70
    64
  3
____ _ ____ _ ____ _ ____ _ ____ _ ____ _ ____
 72
    65
 73
     4
 40
31.500000
 49
27.000000
 49
-1.000000
 49
2.500000
 49
-1.000000
  0
LTYPE
  2
CENTER4
 70
    64
  3
____ _ ____ _ ____ _ ____ _ ____ _ ____ _ ____
 72
    65
 73
     4
 40
50.000000
 49
45.000000
 49
-1.000000
 49
3.000000
 49
-1.000000
  0
LTYPE
  2
CENTER5
 70
    64
  3
____ _ ____ _ ____ _ ____ _ ____ _ ____ _ ____
 72
    65
 73
     4
 40
100.000000
 49
92.000000
 49
-2.000000
 49
4.000000
 49
-2.000000
  0
LTYPE
  2
SBK1
 70
    64
  3
______ _ _ _ ______ _ _ _ ______ _ _ _ _____  
 72
    65
 73
     8
 40
60.500000
 49
45.000000
 49
-2.000000
 49
2.500000
 49
-2.000000
 49
2.500000
 49
-2.000000
 49
2.500000
 49
-2.000000
  0
LTYPE
  2
SBK2
 70
    64
  3
______ _ _ _ ______ _ _ _ ______ _ _ _ _____  
 72
    65
 73
     8
 40
84.000000
 49
64.000000
 49
-2.000000
 49
4.000000
 49
-2.000000
 49
4.000000
 49
-2.000000
 49
4.000000
 49
-2.000000
  0
LTYPE
  2
STCH
 70
    64
  3
__ __ __ __ __ __ __ __ __ __ __ __ __ __ __
 72
    65
 73
     2
 40
3.000000
 49
1.000000
 49
-2.000000
  0
LTYPE
  2
MTCH
 70
    64
  3
_____ _ _ _____ _ _ _____ _ _ _____ _ _ ____  
 72
    65
 73
     6
 40
80.000000
 49
66.000000
 49
-2.000000
 49
4.000000
 49
-2.000000
 49
4.000000
 49
-2.000000
  0
ENDTAB
  0
TABLE
  2
LAYER
 70
     1
  0
LAYER
  2
0
 70
     0
 62
     7
  6
CONTINUOUS
  0
ENDTAB
  0
TABLE
  2
STYLE
 70
     1
  0
STYLE
  2
STANDARD
 70
     0
 40
0.000000
 41
1.000000
 50
0.000000
 71
     0
 42
0.200000
  3
txt
  4
BIGFONT
  0
ENDTAB
  0
TABLE
  2
VIEW
 70
     0
  0
ENDTAB
  0
ENDSEC
  0
SECTION
  2
BLOCKS
  0
ENDSEC
  0
SECTION
  2
ENTITIES
  0
LINE
  8
0
 10
-94.250000
 20
132.600006
 11
-94.250000
 21
117.600006
  0
LINE
  8
0
 10
-194.250000
 20
117.600006
 11
-94.250000
 21
117.600006
  0
LINE
  8
0
 10
94.800003
 20
132.600006
 11
94.800003
 21
117.600006
  0
LINE
  8
0
 10
94.800003
 20
117.600006
 11
194.800003
 21
117.600006
  0
LINE
  8
0
 10
94.800003
 20
-113.500000
 11
94.800003
 21
-133.500000
  0
LINE
  8
0
 10
65.116669
 20
-113.500000
 11
194.800003
 21
-113.500000
  0
LINE
  8
0
 10
-194.250000
 20
-123.500000
 11
65.116669
 21
-123.500000
  0
LINE
  8
0
 10
210.000000
 20
148.500000
 11
210.000000
 21
-148.500000
  0
LINE
  8
0
 10
-210.000000
 20
148.500000
 11
-210.000000
 21
-148.500000
  0
LINE
  8
0
 10
-210.000000
 20
148.500000
 11
210.000000
 21
148.500000
  0
LINE
  8
0
 10
-210.000000
 20
-148.500000
 11
210.000000
 21
-148.500000
  0
LINE
  8
0
 10
-194.250000
 20
132.600006
 11
194.800003
 21
132.600006
  0
LINE
  8
0
 10
194.800003
 20
132.600006
 11
194.800003
 21
-133.500000
  0
LINE
  8
0
 10
-194.250000
 20
132.600006
 11
-194.250000
 21
-133.500000
  0
LINE
  8
0
 10
-194.250000
 20
-133.500000
 11
194.800003
 21
-133.500000
  0
LINE
  8
0
 10
0.274994
 20
-0.449997
 11
0.274994
 21
132.600006
  0
LINE
  8
0
 10
-194.250000
 20
-0.449997
 11
194.800003
 21
-0.449997
  0
LINE
  8
0
 10
-194.250000
 20
9.550003
 11
194.800003
 21
9.550003
  0
LINE
  8
0
 10
-64.566666
 20
-0.449997
 11
-64.566666
 21
-133.500000
  0
LINE
  8
0
 10
65.116669
 20
-0.449997
 11
65.116669
 21
-133.500000
  0
LINE
  8
0
 10
65.116669
 20
-103.500000
 11
194.800003
 21
-103.500000
  0
TEXT
  8
0
 10
-194.128311
 20
120.880005
 40
5.800000
  1
QUICK FITTING,SLM
 50
0.000000
 41
1.052632
 51
0.000000
  7
STANDARD
  0
TEXT
  8
0
 10
100.721687
 20
120.880005
 40
5.800000
  1
DATE: MAY ,1992
 50
0.000000
 41
1.052632
 51
0.000000
  7
STANDARD
  0
TEXT
  8
0
 10
90.700897
 20
-128.800003
 40
7.000000
  1
ＫＯＧＡＮＥＩ，ＣＯＲＰ．
 50
0.000000
 41
0.902367
 51
15.000000
  7
STANDARD
  0
TEXT
  8
0
 10
70.366669
 20
-110.500000
 40
5.000000
  1
MODEL:SLM6-02
 50
0.000000
 41
1.052632
 51
0.000000
  7
STANDARD
  0
TEXT
  8
0
 10
-189.000000
 20
2.550003
 40
5.000000
  1
MODEL:SLM4-M5
 50
0.000000
 41
1.052632
 51
0.000000
  7
STANDARD
  0
TEXT
  8
0
 10
5.250000
 20
3.000000
 40
5.000000
  1
MODEL:SLM4-01
 50
0.000000
 41
1.052632
 51
0.000000
  7
STANDARD
  0
TEXT
  8
0
 10
-189.000000
 20
-130.500000
 40
5.000000
  1
MODEL:SLM6-M5
 50
0.000000
 41
1.052632
 51
0.000000
  7
STANDARD
  0
TEXT
  8
0
 10
-59.316666
 20
-130.500000
 40
5.000000
  1
MODEL:SLM6-01
 50
0.000000
 41
1.052632
 51
0.000000
  7
STANDARD
  0
POINT
  8
0
 10
-139.750000
 20
39.750000
  0
POINT
  8
0
 10
-137.250000
 20
39.750000
  0
LINE
  8
0
 10
-131.750000
 20
46.150002
 11
-131.750000
 21
41.649998
  0
LINE
  8
0
 10
-133.250000
 20
46.150002
 11
-133.250000
 21
43.149998
  0
LINE
  8
0
  6
CENTER
 10
-149.955475
 20
46.650002
 11
-113.552444
 21
46.650002
  0
LINE
  8
0
  6
CENTER
 10
-139.750000
 20
61.894318
 11
-139.750000
 21
30.281006
  0
LINE
  8
0
 10
-142.250000
 20
39.750000
 11
-142.250000
 21
36.849998
  0
LINE
  8
0
 10
-137.250000
 20
39.750000
 11
-137.250000
 21
36.849998
  0
LINE
  8
0
 10
-143.649994
 20
40.349998
 11
-143.649994
 21
39.750000
  0
LINE
  8
0
 10
-137.699997
 20
39.750000
 11
-137.699997
 21
36.849998
  0
LINE
  8
0
 10
-141.800003
 20
39.750000
 11
-141.800003
 21
36.849998
  0
LINE
  8
0
 10
-143.649994
 20
40.349998
 11
-135.850006
 21
40.349998
  0
LINE
  8
0
 10
-142.250000
 20
36.849998
 11
-137.250000
 21
36.849998
  0
LINE
  8
0
 10
-143.649994
 20
39.750000
 11
-135.850006
 21
39.750000
  0
LINE
  8
0
 10
-135.850006
 20
40.349998
 11
-135.850006
 21
39.750000
  0
LINE
  8
0
 10
-142.050003
 20
57.049999
 11
-142.050003
 21
51.049999
  0
LINE
  8
0
 10
-144.649994
 20
41.049999
 11
-134.850006
 21
41.049999
  0
LINE
  8
0
 10
-144.649994
 20
51.049999
 11
-134.850006
 21
51.049999
  0
LINE
  8
0
 10
-134.850006
 20
51.049999
 11
-134.850006
 21
41.049999
  0
LINE
  8
0
 10
-144.649994
 20
51.049999
 11
-144.649994
 21
41.049999
  0
LINE
  8
0
 10
-131.750000
 20
51.649998
 11
-131.750000
 21
47.150002
  0
LINE
  8
0
 10
-133.250000
 20
50.149998
 11
-133.250000
 21
47.150002
  0
LINE
  8
0
 10
-134.850006
 20
50.150002
 11
-133.250000
 21
50.150002
  0
LINE
  8
0
 10
-134.850006
 20
43.149998
 11
-133.250000
 21
43.149998
  0
LINE
  8
0
 10
-133.250031
 20
50.150024
 11
-131.750031
 21
51.650024
  0
LINE
  8
0
 10
-133.250015
 20
43.149994
 11
-131.750015
 21
41.649994
  0
LINE
  8
0
 10
-131.750000
 20
51.649998
 11
-121.350006
 21
51.649998
  0
LINE
  8
0
 10
-131.750000
 20
41.650002
 11
-121.350006
 21
41.650002
  0
LINE
  8
0
 10
-143.649994
 20
57.049999
 11
-135.850006
 21
57.049999
  0
LINE
  8
0
 10
-144.365997
 20
56.858124
 11
-143.649994
 21
57.049980
  0
LINE
  8
0
 10
-135.850006
 20
57.049999
 11
-135.133987
 21
56.858143
  0
LINE
  8
0
 10
-135.134003
 20
56.858150
 11
-135.134003
 21
51.049999
  0
LINE
  8
0
 10
-144.365997
 20
56.858143
 11
-144.365997
 21
51.049999
  0
LINE
  8
0
 10
-137.449997
 20
57.049999
 11
-137.449997
 21
51.049999
  0
LINE
  8
0
 10
-121.350006
 20
51.649998
 11
-121.350006
 21
41.649998
  0
LINE
  8
0
 10
-118.550003
 20
51.649998
 11
-118.550003
 21
41.649998
  0
LINE
  8
0
 10
-120.149994
 20
51.649998
 11
-120.149994
 21
41.649998
  0
LINE
  8
0
 10
-121.350006
 20
43.950001
 11
-120.149994
 21
43.950001
  0
LINE
  8
0
 10
-121.350006
 20
49.349995
 11
-120.149994
 21
49.349995
  0
LINE
  8
0
 10
-120.149994
 20
41.650002
 11
-118.550003
 21
41.650002
  0
LINE
  8
0
 10
-120.149994
 20
51.649998
 11
-118.550003
 21
51.649998
  0
LINE
  8
0
  6
DASHED
 10
-137.250000
 20
57.049999
 11
-137.250000
 21
52.049999
  0
LINE
  8
0
  6
DASHED
 10
-142.250000
 20
57.049999
 11
-142.250000
 21
52.049999
  0
LINE
  8
0
  6
DASHED
 10
-137.699997
 20
57.049999
 11
-137.699997
 21
52.049999
  0
LINE
  8
0
  6
DASHED
 10
-141.800003
 20
57.049999
 11
-141.800003
 21
52.049999
  0
LINE
  8
0
 10
-136.000000
 20
41.049999
 11
-136.000000
 21
40.349998
  0
LINE
  8
0
 10
-143.500000
 20
41.049999
 11
-143.500000
 21
40.349998
  0
LINE
  8
0
  6
DASHED
 10
-142.250000
 20
52.049999
 11
-137.250000
 21
52.049999
  0
LINE
  8
0
 10
-134.850006
 20
46.149998
 11
-131.750000
 21
46.149998
  0
LINE
  8
0
 10
-134.850006
 20
47.149998
 11
-131.750000
 21
47.149998
  0
POINT
  8
0
 10
-47.750000
 20
39.750000
  0
POINT
  8
0
 10
-45.250000
 20
39.750000
  0
LINE
  8
0
  6
CENTER
 10
-47.750000
 20
66.909882
 11
-47.750000
 21
31.756882
  0
LINE
  8
0
  6
CENTER
 10
-65.160919
 20
46.650002
 11
-31.261177
 21
46.650002
  0
LINE
  8
0
 10
-51.649994
 20
40.349998
 11
-43.850006
 21
40.349998
  0
LINE
  8
0
 10
-50.250000
 20
36.849998
 11
-45.250000
 21
36.849998
  0
LINE
  8
0
 10
-51.649994
 20
39.750000
 11
-43.850006
 21
39.750000
  0
LINE
  8
0
 10
-50.250000
 20
39.750000
 11
-50.250000
 21
36.849998
  0
LINE
  8
0
 10
-45.250000
 20
39.750000
 11
-45.250000
 21
36.849998
  0
LINE
  8
0
 10
-45.699997
 20
39.750000
 11
-45.699997
 21
36.849998
  0
LINE
  8
0
 10
-51.750000
 20
57.049999
 11
-43.750000
 21
57.049999
  0
LINE
  8
0
 10
-43.750000
 20
57.049999
 11
-43.750000
 21
51.049999
  0
LINE
  8
0
 10
-51.750000
 20
57.049999
 11
-51.750000
 21
51.049999
  0
LINE
  8
0
 10
-47.750000
 20
57.049999
 11
-47.750000
 21
51.650002
  0
LINE
  8
0
 10
-42.849998
 20
45.655022
 11
-42.849998
 21
41.049999
  0
LINE
  8
0
 10
-49.800003
 20
39.750000
 11
-49.800003
 21
36.849998
  0
LINE
  8
0
 10
-52.650002
 20
51.049999
 11
-52.650002
 21
47.644981
  0
LINE
  8
0
 10
-52.650002
 20
51.049999
 11
-50.124866
 21
51.049999
  0
LINE
  8
0
 10
-44.000000
 20
41.049999
 11
-44.000000
 21
40.349998
  0
LINE
  8
0
 10
-51.500000
 20
41.049999
 11
-51.500000
 21
40.349998
  0
LINE
  8
0
 10
-43.850006
 20
40.349998
 11
-43.850006
 21
39.750000
  0
LINE
  8
0
 10
-51.649994
 20
40.349998
 11
-51.649994
 21
39.750000
  0
LINE
  8
0
 10
-52.650002
 20
41.049999
 11
-42.849998
 21
41.049999
  0
LINE
  8
0
 10
-52.650002
 20
45.655022
 11
-52.650002
 21
41.049999
  0
LINE
  8
0
 10
-42.849998
 20
51.049999
 11
-42.849998
 21
47.644981
  0
LINE
  8
0
 10
-45.375134
 20
51.049999
 11
-42.849998
 21
51.049999
  0
CIRCLE
  8
0
 10
-47.750000
 20
46.650002
 40
2.100000
  0
CIRCLE
  8
0
 10
-47.750000
 20
46.650002
 40
5.000000
  0
POINT
  8
0
 10
-139.750000
 20
92.000000
  0
POINT
  8
0
 10
-118.550003
 20
92.000000
  0
LINE
  8
0
 10
-121.350006
 20
94.699997
 11
-120.149994
 21
94.699997
  0
LINE
  8
0
 10
-121.350006
 20
89.300003
 11
-120.149994
 21
89.300003
  0
LINE
  8
0
 10
-120.149994
 20
97.000000
 11
-120.149994
 21
87.000000
  0
LINE
  8
0
 10
-118.550003
 20
97.000000
 11
-118.550003
 21
87.000000
  0
LINE
  8
0
 10
-121.350006
 20
97.000000
 11
-121.350006
 21
87.000000
  0
LINE
  8
0
 10
-120.149994
 20
97.000000
 11
-118.550003
 21
97.000000
  0
LINE
  8
0
 10
-133.250015
 20
88.500000
 11
-131.750015
 21
87.000000
  0
LINE
  8
0
 10
-133.250031
 20
95.500038
 11
-131.750031
 21
97.000038
  0
LINE
  8
0
 10
-136.320709
 20
95.500000
 11
-133.250000
 21
95.500000
  0
LINE
  8
0
 10
-136.320709
 20
88.500000
 11
-133.250000
 21
88.500000
  0
LINE
  8
0
 10
-133.250000
 20
95.500000
 11
-133.250000
 21
88.500000
  0
LINE
  8
0
 10
-131.750000
 20
97.000000
 11
-131.750000
 21
87.000000
  0
LINE
  8
0
 10
-139.750000
 20
87.000000
 11
-121.350006
 21
87.000000
  0
LINE
  8
0
 10
-139.750000
 20
97.000000
 11
-121.350006
 21
97.000000
  0
LINE
  8
0
 10
-137.440598
 20
96.000000
 11
-135.131195
 21
92.000000
  0
LINE
  8
0
 10
-144.368805
 20
92.000008
 11
-142.059387
 21
88.000000
  0
LINE
  8
0
 10
-137.440598
 20
88.000000
 11
-135.131195
 21
92.000000
  0
LINE
  8
0
 10
-144.368835
 20
92.000000
 11
-142.059433
 21
96.000000
  0
LINE
  8
0
 10
-120.149994
 20
87.000000
 11
-118.550003
 21
87.000000
  0
LINE
  8
0
 10
-142.059402
 20
96.000000
 11
-137.440598
 21
96.000000
  0
LINE
  8
0
 10
-142.059402
 20
88.000000
 11
-137.440598
 21
88.000000
  0
LINE
  8
0
  6
CENTER
 10
-139.750000
 20
104.651459
 11
-139.750000
 21
81.545830
  0
LINE
  8
0
  6
CENTER
 10
-153.561478
 20
92.000000
 11
-110.103729
 21
92.000000
  0
CIRCLE
  8
0
 10
-139.750000
 20
92.000000
 40
4.900000
  0
CIRCLE
  8
0
 10
-139.750000
 20
92.000000
 40
0.900000
  0
CIRCLE
  8
0
 10
-139.750000
 20
92.000000
 40
2.500000
  0
CIRCLE
  8
0
 10
-139.750000
 20
92.000000
 40
3.900000
  0
CIRCLE
  8
0
 10
-139.750000
 20
92.000000
 40
2.050000
  0
POINT
  8
0
 10
51.619022
 20
33.970001
  0
POINT
  8
0
 10
46.750000
 20
33.970001
  0
LINE
  8
0
 10
66.150002
 20
42.370003
 11
67.350006
 21
42.370003
  0
LINE
  8
0
 10
67.350006
 20
50.070000
 11
67.350006
 21
40.070000
  0
LINE
  8
0
  6
CENTER
 10
21.950001
 20
45.070000
 11
78.448273
 21
45.070000
  0
LINE
  8
0
  6
CENTER
 10
46.750000
 20
70.000000
 11
46.750000
 21
19.556051
  0
LINE
  8
0
 10
39.300007
 20
39.000000
 11
54.199993
 21
39.000000
  0
LINE
  8
0
 10
38.849998
 20
53.000000
 11
54.650002
 21
53.000000
  0
LINE
  8
0
 10
38.849998
 20
52.220558
 11
54.650002
 21
52.220558
  0
LINE
  8
0
 10
38.849998
 20
39.779434
 11
54.650002
 21
39.779434
  0
LINE
  8
0
 10
54.650002
 20
50.070000
 11
66.150002
 21
50.070000
  0
LINE
  8
0
 10
54.650002
 20
40.070000
 11
66.150002
 21
40.070000
  0
LINE
  8
0
 10
38.849998
 20
62.500000
 11
54.650002
 21
62.500000
  0
LINE
  8
0
 10
50.750000
 20
62.500000
 11
50.750000
 21
53.000000
  0
LINE
  8
0
 10
42.750000
 20
62.500000
 11
42.750000
 21
53.000000
  0
LINE
  8
0
  6
DASHED
 10
42.150002
 20
54.500000
 11
51.349998
 21
54.500000
  0
LINE
  8
0
  6
DASHED
 10
41.900002
 20
62.500000
 11
42.150002
 21
54.499996
  0
LINE
  8
0
  6
DASHED
 10
51.599998
 20
62.500000
 11
51.349998
 21
54.499996
  0
LINE
  8
0
  6
DASHED
 10
42.499702
 20
62.518742
 11
42.749706
 21
54.518742
  0
LINE
  8
0
  6
DASHED
 10
51.000294
 20
62.518738
 11
50.750294
 21
54.518738
  0
LINE
  8
0
 10
51.150326
 20
38.019489
 11
50.890324
 21
30.019491
  0
LINE
  8
0
 10
41.150002
 20
38.000000
 11
52.349998
 21
38.000000
  0
LINE
  8
0
 10
42.010002
 20
30.000000
 11
51.489998
 21
30.000000
  0
LINE
  8
0
 10
52.349998
 20
39.000000
 11
52.349998
 21
38.000000
  0
LINE
  8
0
 10
41.150002
 20
39.000000
 11
41.150002
 21
38.000000
  0
LINE
  8
0
 10
41.750004
 20
38.000000
 11
42.010006
 21
30.000002
  0
LINE
  8
0
 10
51.750008
 20
38.000000
 11
51.490005
 21
30.000002
  0
LINE
  8
0
  6
CENTER
 10
39.500000
 20
33.970001
 11
54.000000
 21
33.970001
  0
LINE
  8
0
 10
42.349686
 20
38.019493
 11
42.609688
 21
30.019491
  0
LINE
  8
0
 10
67.350006
 20
40.070000
 11
68.949997
 21
40.070000
  0
LINE
  8
0
 10
67.350006
 20
50.070000
 11
68.949997
 21
50.070000
  0
LINE
  8
0
 10
66.150002
 20
47.769997
 11
67.350006
 21
47.769997
  0
LINE
  8
0
 10
66.150002
 20
50.070000
 11
66.150002
 21
40.070000
  0
LINE
  8
0
 10
68.949997
 20
50.070000
 11
68.949997
 21
40.070000
  0
LINE
  8
0
 10
54.650002
 20
62.500000
 11
54.650002
 21
53.000000
  0
LINE
  8
0
 10
38.849998
 20
62.500000
 11
38.849998
 21
53.000000
  0
LINE
  8
0
 10
54.650002
 20
52.220558
 11
54.650002
 21
39.779434
  0
LINE
  8
0
 10
38.849998
 20
52.220558
 11
38.849998
 21
39.779434
  0
LINE
  8
0
 10
38.900002
 20
39.692825
 11
39.300007
 21
39.000000
  0
LINE
  8
0
 10
54.199993
 20
39.000000
 11
54.599995
 21
39.692822
  0
LINE
  8
0
 10
38.900009
 20
52.307175
 11
39.300011
 21
53.000000
  0
LINE
  8
0
 10
54.199989
 20
53.000000
 11
54.599991
 21
52.307182
  0
POINT
  8
0
 10
150.119019
 20
33.970001
  0
POINT
  8
0
 10
145.250000
 20
33.970001
  0
LINE
  8
0
  6
CENTER
 10
124.052231
 20
45.070000
 11
165.872604
 21
45.070000
  0
LINE
  8
0
 10
139.649994
 20
38.000000
 11
150.850006
 21
38.000000
  0
LINE
  8
0
 10
140.510010
 20
30.000000
 11
149.989990
 21
30.000000
  0
LINE
  8
0
 10
150.850006
 20
39.000000
 11
150.850006
 21
38.000000
  0
LINE
  8
0
 10
139.649994
 20
39.000000
 11
139.649994
 21
38.000000
  0
LINE
  8
0
 10
140.250031
 20
38.000000
 11
140.510025
 21
30.000002
  0
LINE
  8
0
 10
150.250015
 20
37.999996
 11
149.990021
 21
29.999998
  0
LINE
  8
0
  6
CENTER
 10
138.000000
 20
33.970001
 11
152.500000
 21
33.970001
  0
LINE
  8
0
 10
140.849686
 20
38.019489
 11
141.109680
 21
30.019491
  0
LINE
  8
0
 10
149.650360
 20
38.019485
 11
149.390366
 21
30.019485
  0
LINE
  8
0
 10
137.800079
 20
39.000000
 11
152.699921
 21
39.000000
  0
LINE
  8
0
 10
137.799911
 20
53.000000
 11
152.700089
 21
53.000000
  0
LINE
  8
0
 10
137.350006
 20
52.220726
 11
153.149994
 21
52.220726
  0
LINE
  8
0
 10
137.350006
 20
39.779572
 11
153.149994
 21
39.779572
  0
LINE
  8
0
 10
138.250000
 20
62.500000
 11
152.250000
 21
62.500000
  0
LINE
  8
0
 10
138.250000
 20
62.500000
 11
138.250000
 21
53.000000
  0
LINE
  8
0
 10
152.250000
 20
62.500000
 11
152.250000
 21
53.000000
  0
LINE
  8
0
  6
CENTER
 10
145.250000
 20
69.554070
 11
145.250000
 21
22.616617
  0
LINE
  8
0
 10
145.250000
 20
62.500000
 11
145.250000
 21
53.000000
  0
LINE
  8
0
 10
153.149994
 20
52.220726
 11
153.149994
 21
39.779572
  0
LINE
  8
0
 10
137.350006
 20
52.220726
 11
137.350006
 21
39.779572
  0
LINE
  8
0
 10
137.399948
 20
52.307228
 11
137.799911
 21
53.000000
  0
LINE
  8
0
 10
152.700089
 20
53.000000
 11
153.100067
 21
52.307213
  0
LINE
  8
0
 10
152.699921
 20
39.000000
 11
153.099930
 21
39.692848
  0
LINE
  8
0
 10
137.400070
 20
39.692856
 11
137.800079
 21
39.000000
  0
CIRCLE
  8
0
 10
145.250000
 20
45.070000
 40
2.100000
  0
CIRCLE
  8
0
 10
145.250000
 20
45.070000
 40
5.000000
  0
POINT
  8
0
 10
46.750000
 20
92.000000
  0
POINT
  8
0
 10
68.949997
 20
92.000000
  0
LINE
  8
0
  6
CENTER
 10
46.750000
 20
105.305748
 11
46.750000
 21
77.274567
  0
LINE
  8
0
  6
CENTER
 10
33.071156
 20
92.000000
 11
75.364670
 21
92.000000
  0
LINE
  8
0
 10
66.150002
 20
97.000000
 11
66.150002
 21
87.000000
  0
LINE
  8
0
 10
68.949997
 20
97.000000
 11
68.949997
 21
87.000000
  0
LINE
  8
0
 10
67.350006
 20
97.000000
 11
67.350006
 21
87.000000
  0
LINE
  8
0
 10
66.150002
 20
89.300003
 11
67.350006
 21
89.300003
  0
LINE
  8
0
 10
66.150002
 20
94.699997
 11
67.350006
 21
94.699997
  0
LINE
  8
0
 10
67.350006
 20
87.000000
 11
68.949997
 21
87.000000
  0
LINE
  8
0
 10
67.350006
 20
97.000000
 11
68.949997
 21
97.000000
  0
LINE
  8
0
 10
42.708549
 20
99.000000
 11
50.791447
 21
99.000000
  0
LINE
  8
0
 10
42.708546
 20
85.000000
 11
50.791451
 21
85.000000
  0
LINE
  8
0
 10
38.667095
 20
92.000000
 11
42.708546
 21
85.000000
  0
LINE
  8
0
 10
50.791447
 20
99.000008
 11
54.832897
 21
92.000008
  0
LINE
  8
0
 10
38.667091
 20
92.000000
 11
42.708546
 21
99.000000
  0
LINE
  8
0
 10
50.791447
 20
84.999992
 11
54.832901
 21
92.000000
  0
LINE
  8
0
 10
52.605766
 20
97.000000
 11
66.150002
 21
97.000000
  0
LINE
  8
0
 10
52.605766
 20
87.000000
 11
66.150002
 21
87.000000
  0
ARC
  8
0
 10
46.750000
 20
92.000000
 40
7.699999
 50
65.380028
 51
114.619995
  0
ARC
  8
0
 10
46.750000
 20
92.000000
 40
7.699998
 50
305.380005
 51
354.619965
  0
CIRCLE
  8
0
 10
46.750000
 20
92.000000
 40
4.850000
  0
CIRCLE
  8
0
 10
46.750000
 20
92.000000
 40
2.750000
  0
CIRCLE
  8
0
 10
46.750000
 20
92.000000
 40
4.250000
  0
ARC
  8
0
 10
46.750000
 20
92.000000
 40
7.700000
 50
5.379972
 51
54.620060
  0
ARC
  8
0
 10
46.750000
 20
92.000000
 40
7.700001
 50
245.380005
 51
294.619965
  0
ARC
  8
0
 10
46.750000
 20
92.000000
 40
7.699998
 50
185.380081
 51
234.619873
  0
ARC
  8
0
 10
46.750000
 20
92.000000
 40
7.700001
 50
125.380043
 51
174.619965
  0
POINT
  8
0
 10
-154.081924
 20
-85.746407
  0
POINT
  8
0
 10
-151.581924
 20
-85.746407
  0
LINE
  8
0
 10
-145.381927
 20
-79.596405
 11
-145.381927
 21
-85.096405
  0
LINE
  8
0
 10
-147.131927
 20
-79.596405
 11
-147.131927
 21
-83.346405
  0
LINE
  8
0
  6
CENTER
 10
-173.464752
 20
-78.846405
 11
-122.966637
 21
-78.846405
  0
LINE
  8
0
  6
CENTER
 10
-154.081924
 20
-63.117233
 11
-154.081924
 21
-98.892464
  0
LINE
  8
0
 10
-145.381927
 20
-72.596405
 11
-132.181931
 21
-72.596405
  0
LINE
  8
0
 10
-158.981918
 20
-84.496407
 11
-149.181931
 21
-84.496407
  0
LINE
  8
0
 10
-145.381927
 20
-72.596405
 11
-145.381927
 21
-78.096405
  0
LINE
  8
0
 10
-147.131927
 20
-74.346405
 11
-147.131927
 21
-78.096405
  0
LINE
  8
0
 10
-149.181931
 20
-83.346405
 11
-147.131927
 21
-83.346405
  0
LINE
  8
0
 10
-149.181931
 20
-74.346405
 11
-147.131927
 21
-74.346405
  0
LINE
  8
0
 10
-145.381927
 20
-72.596413
 11
-147.131927
 21
-74.346413
  0
LINE
  8
0
 10
-147.131912
 20
-83.346405
 11
-145.381912
 21
-85.096405
  0
LINE
  8
0
 10
-158.981918
 20
-74.496407
 11
-158.981918
 21
-84.496407
  0
LINE
  8
0
 10
-149.181931
 20
-74.346405
 11
-149.181931
 21
-84.496407
  0
LINE
  8
0
 10
-158.981918
 20
-74.496407
 11
-149.181931
 21
-74.496407
  0
LINE
  8
0
 10
-145.381927
 20
-85.096405
 11
-132.181931
 21
-85.096405
  0
LINE
  8
0
 10
-157.981918
 20
-68.496407
 11
-150.181931
 21
-68.496407
  0
LINE
  8
0
 10
-156.381927
 20
-68.496407
 11
-156.381927
 21
-74.496407
  0
LINE
  8
0
 10
-151.781921
 20
-68.496407
 11
-151.781921
 21
-74.496407
  0
LINE
  8
0
 10
-158.531921
 20
-68.643776
 11
-157.981934
 21
-68.496407
  0
LINE
  8
0
 10
-150.181931
 20
-68.496399
 11
-149.631927
 21
-68.643776
  0
LINE
  8
0
 10
-157.981918
 20
-85.146408
 11
-150.181931
 21
-85.146408
  0
LINE
  8
0
 10
-156.131927
 20
-85.746407
 11
-156.131927
 21
-88.646408
  0
LINE
  8
0
 10
-156.581924
 20
-88.646408
 11
-151.581924
 21
-88.646408
  0
LINE
  8
0
 10
-157.981918
 20
-85.146408
 11
-157.981918
 21
-85.746407
  0
LINE
  8
0
 10
-150.181931
 20
-85.146408
 11
-150.181931
 21
-85.746407
  0
LINE
  8
0
 10
-151.581924
 20
-85.746407
 11
-151.581924
 21
-88.646408
  0
LINE
  8
0
 10
-156.581924
 20
-85.746407
 11
-156.581924
 21
-88.646408
  0
LINE
  8
0
 10
-152.031921
 20
-85.746407
 11
-152.031921
 21
-88.646408
  0
LINE
  8
0
 10
-157.981918
 20
-85.746407
 11
-150.181931
 21
-85.746407
  0
LINE
  8
0
 10
-157.831924
 20
-84.496407
 11
-157.831924
 21
-85.146408
  0
LINE
  8
0
 10
-150.331924
 20
-84.496407
 11
-150.331924
 21
-85.146408
  0
LINE
  8
0
  6
DASHED
 10
-151.581924
 20
-68.496407
 11
-151.581924
 21
-73.496407
  0
LINE
  8
0
  6
DASHED
 10
-156.581924
 20
-68.496407
 11
-156.581924
 21
-73.496407
  0
LINE
  8
0
  6
DASHED
 10
-152.031921
 20
-68.496407
 11
-152.031921
 21
-73.496407
  0
LINE
  8
0
  6
DASHED
 10
-156.131927
 20
-68.496407
 11
-156.131927
 21
-73.496407
  0
LINE
  8
0
  6
DASHED
 10
-156.581924
 20
-73.496407
 11
-151.581924
 21
-73.496407
  0
LINE
  8
0
 10
-130.981934
 20
-84.746407
 11
-129.181931
 21
-84.746407
  0
LINE
  8
0
 10
-130.981934
 20
-72.946404
 11
-129.181931
 21
-72.946404
  0
LINE
  8
0
 10
-132.181931
 20
-82.896408
 11
-130.981934
 21
-82.896408
  0
LINE
  8
0
 10
-132.181915
 20
-72.596405
 11
-132.181915
 21
-85.096405
  0
LINE
  8
0
 10
-129.181915
 20
-72.946404
 11
-129.181915
 21
-84.746407
  0
LINE
  8
0
 10
-130.981934
 20
-72.946404
 11
-130.981934
 21
-84.746407
  0
LINE
  8
0
 10
-132.181931
 20
-74.796410
 11
-130.981934
 21
-74.796410
  0
LINE
  8
0
 10
-149.181931
 20
-79.596405
 11
-145.381927
 21
-79.596405
  0
LINE
  8
0
 10
-149.181931
 20
-78.096405
 11
-145.381927
 21
-78.096405
  0
LINE
  8
0
 10
-158.531921
 20
-68.643776
 11
-158.531921
 21
-74.496407
  0
LINE
  8
0
 10
-149.631927
 20
-68.643776
 11
-149.631927
 21
-74.496407
  0
POINT
  8
0
 10
-95.948578
 20
-85.746407
  0
POINT
  8
0
 10
-93.448578
 20
-85.746407
  0
LINE
  8
0
  6
CENTER
 10
-115.281914
 20
-78.846405
 11
-79.619202
 21
-78.846405
  0
LINE
  8
0
  6
CENTER
 10
-95.948578
 20
-58.605225
 11
-95.948578
 21
-95.912010
  0
LINE
  8
0
 10
-99.848572
 20
-85.146408
 11
-92.048584
 21
-85.146408
  0
LINE
  8
0
 10
-92.198578
 20
-84.496407
 11
-92.198578
 21
-85.146408
  0
LINE
  8
0
 10
-99.698578
 20
-84.496407
 11
-99.698578
 21
-85.146408
  0
LINE
  8
0
 10
-99.848572
 20
-85.746407
 11
-92.048584
 21
-85.746407
  0
LINE
  8
0
 10
-98.448578
 20
-88.646408
 11
-93.448578
 21
-88.646408
  0
LINE
  8
0
 10
-99.848572
 20
-85.146408
 11
-99.848572
 21
-85.746407
  0
LINE
  8
0
 10
-92.048584
 20
-85.146408
 11
-92.048584
 21
-85.746407
  0
LINE
  8
0
 10
-93.448578
 20
-85.746407
 11
-93.448578
 21
-88.646408
  0
LINE
  8
0
 10
-98.448578
 20
-85.746407
 11
-98.448578
 21
-88.646408
  0
LINE
  8
0
 10
-93.898575
 20
-85.746407
 11
-93.898575
 21
-88.646408
  0
LINE
  8
0
 10
-97.998581
 20
-85.746407
 11
-97.998581
 21
-88.646408
  0
LINE
  8
0
 10
-91.048576
 20
-82.726158
 11
-91.048576
 21
-84.496407
  0
LINE
  8
0
 10
-100.848579
 20
-82.726158
 11
-100.848579
 21
-84.496407
  0
LINE
  8
0
 10
-100.848579
 20
-84.496407
 11
-98.620659
 21
-84.496407
  0
LINE
  8
0
 10
-99.948578
 20
-68.496407
 11
-91.948578
 21
-68.496407
  0
LINE
  8
0
 10
-91.948578
 20
-68.496407
 11
-91.948578
 21
-74.044067
  0
LINE
  8
0
 10
-99.948578
 20
-68.496407
 11
-99.948578
 21
-74.044067
  0
LINE
  8
0
 10
-95.948578
 20
-68.496407
 11
-95.948578
 21
-72.596405
  0
LINE
  8
0
 10
-93.276497
 20
-84.496407
 11
-91.048576
 21
-84.496407
  0
CIRCLE
  8
0
 10
-95.948578
 20
-78.846405
 40
5.900000
  0
CIRCLE
  8
0
 10
-95.948578
 20
-78.846405
 40
6.250000
  0
CIRCLE
  8
0
 10
-95.948578
 20
-78.846405
 40
3.100000
  0
POINT
  8
0
 10
-154.081924
 20
-33.113075
  0
POINT
  8
0
 10
-129.181931
 20
-33.113075
  0
LINE
  8
0
  6
CENTER
 10
-154.081924
 20
-18.402637
 11
-154.081924
 21
-49.646412
  0
LINE
  8
0
  6
CENTER
 10
-168.910355
 20
-33.113075
 11
-119.754105
 21
-33.113075
  0
LINE
  8
0
 10
-132.181931
 20
-26.863077
 11
-132.181931
 21
-39.363075
  0
LINE
  8
0
 10
-129.181931
 20
-27.213076
 11
-129.181931
 21
-39.013077
  0
LINE
  8
0
 10
-130.981934
 20
-27.213076
 11
-130.981934
 21
-39.013077
  0
LINE
  8
0
 10
-132.181931
 20
-29.063078
 11
-130.981934
 21
-29.063078
  0
LINE
  8
0
 10
-132.181931
 20
-37.163078
 11
-130.981934
 21
-37.163078
  0
LINE
  8
0
 10
-130.981934
 20
-27.213076
 11
-129.181931
 21
-27.213076
  0
LINE
  8
0
 10
-130.981934
 20
-39.013077
 11
-129.181931
 21
-39.013077
  0
LINE
  8
0
 10
-156.391327
 20
-37.113075
 11
-151.772522
 21
-37.113075
  0
LINE
  8
0
 10
-156.391327
 20
-29.113075
 11
-151.772522
 21
-29.113075
  0
LINE
  8
0
 10
-158.700729
 20
-33.113075
 11
-156.391327
 21
-29.113073
  0
LINE
  8
0
 10
-151.772537
 20
-37.113068
 11
-149.463135
 21
-33.113068
  0
LINE
  8
0
 10
-158.700729
 20
-33.113075
 11
-156.391327
 21
-37.113075
  0
LINE
  8
0
 10
-151.772537
 20
-29.113081
 11
-149.463135
 21
-33.113083
  0
LINE
  8
0
 10
-145.381927
 20
-39.363075
 11
-132.181931
 21
-39.363075
  0
LINE
  8
0
 10
-145.381927
 20
-26.863075
 11
-132.181931
 21
-26.863075
  0
LINE
  8
0
 10
-152.142853
 20
-28.613075
 11
-147.131927
 21
-28.613075
  0
LINE
  8
0
 10
-152.142853
 20
-37.613075
 11
-147.131927
 21
-37.613075
  0
LINE
  8
0
 10
-147.131927
 20
-28.613075
 11
-147.131927
 21
-37.613075
  0
LINE
  8
0
 10
-145.381927
 20
-26.863075
 11
-145.381927
 21
-39.363075
  0
LINE
  8
0
 10
-147.131927
 20
-28.613075
 11
-145.381927
 21
-26.863075
  0
LINE
  8
0
 10
-147.131927
 20
-37.613075
 11
-145.381927
 21
-39.363075
  0
LINE
  8
0
 10
-145.381927
 20
-26.863075
 11
-154.803848
 21
-28.266548
  0
LINE
  8
0
 10
-145.381927
 20
-39.363075
 11
-154.803848
 21
-37.959602
  0
CIRCLE
  8
0
 10
-154.081924
 20
-33.113075
 40
3.900000
  0
CIRCLE
  8
0
 10
-154.081924
 20
-33.113075
 40
4.900000
  0
CIRCLE
  8
0
 10
-154.081924
 20
-33.113075
 40
0.900000
  0
CIRCLE
  8
0
 10
-154.081924
 20
-33.113075
 40
2.050000
  0
CIRCLE
  8
0
 10
-154.081924
 20
-33.113075
 40
2.500000
  0
POINT
  8
0
 10
-21.833042
 20
-90.276405
  0
POINT
  8
0
 10
-26.681915
 20
-90.276405
  0
LINE
  8
0
 10
-16.781914
 20
-80.026405
 11
-16.781914
 21
-85.526405
  0
LINE
  8
0
 10
-18.531914
 20
-80.026405
 11
-18.531914
 21
-83.776405
  0
LINE
  8
0
  6
CENTER
 10
-38.398533
 20
-79.276405
 11
6.257256
 21
-79.276405
  0
LINE
  8
0
  6
CENTER
 10
-26.681915
 20
-56.246410
 11
-26.681915
 21
-101.329819
  0
LINE
  8
0
 10
-33.931915
 20
-85.246407
 11
-19.431911
 21
-85.246407
  0
LINE
  8
0
 10
-34.681915
 20
-71.246407
 11
-18.681915
 21
-71.246407
  0
LINE
  8
0
 10
-18.981915
 20
-72.025833
 11
-18.981915
 21
-84.466988
  0
LINE
  8
0
 10
-34.381916
 20
-72.025833
 11
-34.381916
 21
-84.466980
  0
LINE
  8
0
 10
-34.381912
 20
-72.025833
 11
-33.931911
 21
-71.246407
  0
LINE
  8
0
 10
-19.431900
 20
-85.246414
 11
-18.981901
 21
-84.466995
  0
LINE
  8
0
 10
-19.431915
 20
-71.246407
 11
-18.981915
 21
-72.025833
  0
LINE
  8
0
 10
-34.381912
 20
-84.466988
 11
-33.931915
 21
-85.246407
  0
LINE
  8
0
 10
-34.381916
 20
-72.025833
 11
-18.981915
 21
-72.025833
  0
LINE
  8
0
 10
-34.381916
 20
-84.466980
 11
-18.981915
 21
-84.466980
  0
LINE
  8
0
 10
-16.781914
 20
-73.026405
 11
-16.781914
 21
-78.526405
  0
LINE
  8
0
 10
-18.531914
 20
-74.776405
 11
-18.531914
 21
-78.526405
  0
LINE
  8
0
 10
-18.981915
 20
-74.776405
 11
-18.531914
 21
-74.776405
  0
LINE
  8
0
 10
-18.981915
 20
-83.776405
 11
-18.531914
 21
-83.776405
  0
LINE
  8
0
 10
-18.531914
 20
-83.776405
 11
-16.781912
 21
-85.526405
  0
LINE
  8
0
 10
-18.531921
 20
-74.776398
 11
-16.781921
 21
-73.026398
  0
LINE
  8
0
 10
-16.781914
 20
-73.026405
 11
-4.781914
 21
-73.026405
  0
LINE
  8
0
 10
-16.781914
 20
-85.526405
 11
-4.781914
 21
-85.526405
  0
LINE
  8
0
 10
-34.681915
 20
-61.746407
 11
-18.681915
 21
-61.746407
  0
LINE
  8
0
 10
-18.681915
 20
-61.746407
 11
-18.681915
 21
-71.246407
  0
LINE
  8
0
 10
-34.681915
 20
-61.746407
 11
-34.681915
 21
-71.246407
  0
LINE
  8
0
 10
-30.681915
 20
-61.746407
 11
-30.681915
 21
-71.246407
  0
LINE
  8
0
 10
-22.681915
 20
-61.746407
 11
-22.681915
 21
-71.246407
  0
LINE
  8
0
  6
DASHED
 10
-31.222546
 20
-69.746407
 11
-22.162060
 21
-69.746407
  0
LINE
  8
0
  6
DASHED
 10
-31.531906
 20
-61.746407
 11
-31.220501
 21
-69.799103
  0
LINE
  8
0
  6
DASHED
 10
-21.831915
 20
-61.746414
 11
-22.158854
 21
-69.668732
  0
LINE
  8
0
  6
DASHED
 10
-30.932354
 20
-61.723221
 11
-30.620949
 21
-69.775917
  0
LINE
  8
0
  6
DASHED
 10
-22.431402
 20
-61.721664
 11
-22.758341
 21
-69.643982
  0
LINE
  8
0
 10
-22.281494
 20
-86.223923
 11
-22.581491
 21
-94.223923
  0
LINE
  8
0
 10
-32.281914
 20
-86.246407
 11
-21.081917
 21
-86.246407
  0
LINE
  8
0
 10
-21.081917
 20
-85.246407
 11
-21.081917
 21
-86.246407
  0
LINE
  8
0
 10
-32.281914
 20
-85.246407
 11
-32.281914
 21
-86.246407
  0
LINE
  8
0
 10
-31.381916
 20
-94.246407
 11
-21.981915
 21
-94.246407
  0
LINE
  8
0
 10
-31.681915
 20
-86.246407
 11
-31.381916
 21
-94.246407
  0
LINE
  8
0
 10
-21.681919
 20
-86.246407
 11
-21.981916
 21
-94.246407
  0
LINE
  8
0
  6
CENTER
 10
-34.610477
 20
-90.276405
 11
-19.355610
 21
-90.276405
  0
LINE
  8
0
 10
-31.082336
 20
-86.223923
 11
-30.782337
 21
-94.223923
  0
LINE
  8
0
 10
-3.581917
 20
-85.176407
 11
-1.781914
 21
-85.176407
  0
LINE
  8
0
 10
-3.581917
 20
-73.376404
 11
-1.781914
 21
-73.376404
  0
LINE
  8
0
 10
-4.781914
 20
-75.226410
 11
-3.581917
 21
-75.226410
  0
LINE
  8
0
 10
-4.781914
 20
-73.026405
 11
-4.781914
 21
-85.526405
  0
LINE
  8
0
 10
-1.781914
 20
-73.376404
 11
-1.781914
 21
-85.176407
  0
LINE
  8
0
 10
-3.581917
 20
-73.376404
 11
-3.581917
 21
-85.176407
  0
LINE
  8
0
 10
-4.781914
 20
-83.326401
 11
-3.581917
 21
-83.326401
  0
LINE
  8
0
 10
-18.981915
 20
-80.026405
 11
-16.781914
 21
-80.026405
  0
LINE
  8
0
 10
-18.981915
 20
-78.526405
 11
-16.781914
 21
-78.526405
  0
POINT
  8
0
 10
38.518097
 20
-90.276405
  0
POINT
  8
0
 10
43.366974
 20
-90.276405
  0
LINE
  8
0
  6
CENTER
 10
19.788921
 20
-79.276405
 11
57.370522
 21
-79.276405
  0
LINE
  8
0
 10
32.918091
 20
-86.246407
 11
44.118103
 21
-86.246407
  0
LINE
  8
0
 10
44.118103
 20
-85.246407
 11
44.118103
 21
-86.246407
  0
LINE
  8
0
 10
32.918091
 20
-85.246407
 11
32.918091
 21
-86.246407
  0
LINE
  8
0
 10
33.818100
 20
-94.246407
 11
43.218094
 21
-94.246407
  0
LINE
  8
0
 10
33.518093
 20
-86.246414
 11
33.818092
 21
-94.246414
  0
LINE
  8
0
 10
43.518093
 20
-86.246407
 11
43.218094
 21
-94.246407
  0
LINE
  8
0
  6
CENTER
 10
30.589539
 20
-90.276405
 11
45.844406
 21
-90.276405
  0
LINE
  8
0
 10
34.117687
 20
-86.223930
 11
34.417686
 21
-94.223930
  0
LINE
  8
0
 10
42.918526
 20
-86.223930
 11
42.618530
 21
-94.223923
  0
LINE
  8
0
 10
31.268097
 20
-85.246407
 11
36.668343
 21
-85.246407
  0
LINE
  8
0
 10
31.268097
 20
-71.246407
 11
45.768097
 21
-71.246407
  0
LINE
  8
0
 10
30.818100
 20
-72.025833
 11
30.818100
 21
-84.466995
  0
LINE
  8
0
 10
46.218094
 20
-72.025818
 11
46.218094
 21
-84.466980
  0
LINE
  8
0
 10
30.818096
 20
-72.025841
 11
31.268099
 21
-71.246414
  0
LINE
  8
0
 10
45.768120
 20
-85.246407
 11
46.218121
 21
-84.466988
  0
LINE
  8
0
 10
45.768112
 20
-71.246407
 11
46.218109
 21
-72.025826
  0
LINE
  8
0
 10
30.818113
 20
-84.466995
 11
31.268106
 21
-85.246407
  0
LINE
  8
0
 10
30.818100
 20
-84.467133
 11
35.036888
 21
-84.467133
  0
LINE
  8
0
 10
30.818100
 20
-72.025978
 11
46.218094
 21
-72.025978
  0
LINE
  8
0
 10
31.518097
 20
-61.746407
 11
45.518097
 21
-61.746407
  0
LINE
  8
0
 10
45.518097
 20
-61.746407
 11
45.518097
 21
-71.246407
  0
LINE
  8
0
 10
31.518097
 20
-61.746407
 11
31.518097
 21
-71.246407
  0
LINE
  8
0
  6
CENTER
 10
38.518097
 20
-51.548622
 11
38.518097
 21
-104.626282
  0
LINE
  8
0
 10
38.518097
 20
-61.746407
 11
38.518097
 21
-71.246407
  0
LINE
  8
0
 10
40.367851
 20
-85.246407
 11
45.768097
 21
-85.246407
  0
LINE
  8
0
 10
41.999306
 20
-84.467133
 11
46.218094
 21
-84.467133
  0
CIRCLE
  8
0
 10
38.518097
 20
-79.276405
 40
5.900000
  0
CIRCLE
  8
0
 10
38.518097
 20
-79.276405
 40
6.250000
  0
CIRCLE
  8
0
 10
38.518097
 20
-79.276405
 40
3.100000
  0
POINT
  8
0
 10
-26.681915
 20
-33.113075
  0
POINT
  8
0
 10
-1.781914
 20
-33.113075
  0
LINE
  8
0
  6
CENTER
 10
-26.681915
 20
-17.631763
 11
-26.681915
 21
-50.046410
  0
LINE
  8
0
  6
CENTER
 10
-43.675919
 20
-33.113075
 11
7.459629
 21
-33.113075
  0
LINE
  8
0
 10
-4.781914
 20
-26.863077
 11
-4.781914
 21
-39.363075
  0
LINE
  8
0
 10
-1.781914
 20
-27.213076
 11
-1.781914
 21
-39.013077
  0
LINE
  8
0
 10
-3.581917
 20
-27.213076
 11
-3.581917
 21
-39.013077
  0
LINE
  8
0
 10
-4.781914
 20
-37.163078
 11
-3.581917
 21
-37.163078
  0
LINE
  8
0
 10
-4.781914
 20
-29.063078
 11
-3.581917
 21
-29.063078
  0
LINE
  8
0
 10
-3.581917
 20
-39.013077
 11
-1.781914
 21
-39.013077
  0
LINE
  8
0
 10
-3.581917
 20
-27.213076
 11
-1.781914
 21
-27.213076
  0
LINE
  8
0
 10
-30.723366
 20
-26.113075
 11
-22.640465
 21
-26.113075
  0
LINE
  8
0
 10
-30.723366
 20
-40.113075
 11
-22.640461
 21
-40.113075
  0
LINE
  8
0
 10
-34.764820
 20
-33.113071
 11
-30.723366
 21
-40.113075
  0
LINE
  8
0
 10
-22.640463
 20
-26.113071
 11
-18.599010
 21
-33.113071
  0
LINE
  8
0
 10
-34.764816
 20
-33.113075
 11
-30.723362
 21
-26.113075
  0
LINE
  8
0
 10
-22.640457
 20
-40.113079
 11
-18.599007
 21
-33.113079
  0
LINE
  8
0
 10
-22.207451
 20
-26.863075
 11
-4.781914
 21
-26.863075
  0
LINE
  8
0
 10
-22.207451
 20
-39.363075
 11
-4.781914
 21
-39.363075
  0
LINE
  8
0
 10
-16.781914
 20
-26.863075
 11
-16.781914
 21
-39.363075
  0
LINE
  8
0
 10
-18.531914
 20
-28.613075
 11
-18.531914
 21
-37.613075
  0
LINE
  8
0
 10
-20.433716
 20
-37.613075
 11
-18.531914
 21
-37.613075
  0
LINE
  8
0
 10
-20.433716
 20
-28.613075
 11
-18.531914
 21
-28.613075
  0
LINE
  8
0
 10
-18.531914
 20
-37.613079
 11
-16.781914
 21
-39.363075
  0
LINE
  8
0
 10
-18.531918
 20
-28.613070
 11
-16.781918
 21
-26.863070
  0
ARC
  8
0
 10
-26.681915
 20
-33.113075
 40
7.700001
 50
185.380005
 51
234.619965
  0
ARC
  8
0
 10
-26.681915
 20
-33.113075
 40
7.700001
 50
305.380035
 51
354.619965
  0
CIRCLE
  8
0
 10
-26.681915
 20
-33.113075
 40
2.750000
  0
CIRCLE
  8
0
 10
-26.681915
 20
-33.113075
 40
4.850000
  0
CIRCLE
  8
0
 10
-26.681915
 20
-33.113075
 40
4.250000
  0
ARC
  8
0
 10
-26.681915
 20
-33.113075
 40
7.699999
 50
5.380030
 51
54.619961
  0
ARC
  8
0
 10
-26.681915
 20
-33.113075
 40
7.700000
 50
245.380020
 51
294.619965
  0
ARC
  8
0
 10
-26.681915
 20
-33.113075
 40
7.699999
 50
125.380028
 51
174.619995
  0
ARC
  8
0
 10
-26.681915
 20
-33.113075
 40
7.699999
 50
65.380028
 51
114.619980
  0
POINT
  8
0
 10
110.813904
 20
-81.323341
  0
POINT
  8
0
 10
104.250000
 20
-81.323341
  0
LINE
  8
0
 10
117.250000
 20
-70.323341
 11
117.250000
 21
-75.073341
  0
LINE
  8
0
 10
115.500000
 20
-70.323341
 11
115.500000
 21
-73.323341
  0
LINE
  8
0
  6
CENTER
 10
81.459755
 20
-68.823341
 11
145.084381
 21
-68.823341
  0
LINE
  8
0
  6
CENTER
 10
104.250000
 20
-42.437904
 11
104.250000
 21
-95.482147
  0
LINE
  8
0
 10
95.500000
 20
-75.333344
 11
113.000000
 21
-75.333344
  0
LINE
  8
0
 10
94.849998
 20
-60.333344
 11
113.650002
 21
-60.333344
  0
LINE
  8
0
 10
94.449997
 20
-62.152016
 11
94.449997
 21
-73.514694
  0
LINE
  8
0
 10
114.050003
 20
-62.152000
 11
114.050003
 21
-73.514694
  0
LINE
  8
0
 10
117.250000
 20
-75.073341
 11
127.650002
 21
-75.073341
  0
LINE
  8
0
 10
117.250000
 20
-62.573341
 11
127.650002
 21
-62.573341
  0
LINE
  8
0
 10
94.449997
 20
-62.152016
 11
95.500008
 21
-60.333344
  0
LINE
  8
0
 10
112.999992
 20
-75.333344
 11
114.049995
 21
-73.514687
  0
LINE
  8
0
 10
94.449997
 20
-73.514702
 11
95.499992
 21
-75.333344
  0
LINE
  8
0
 10
113.000008
 20
-60.333347
 11
114.050011
 21
-62.152008
  0
LINE
  8
0
 10
94.449997
 20
-62.151894
 11
114.050003
 21
-62.151894
  0
LINE
  8
0
 10
114.050003
 20
-73.514694
 11
94.449997
 21
-73.514694
  0
LINE
  8
0
 10
117.250000
 20
-62.573341
 11
117.250000
 21
-67.323341
  0
LINE
  8
0
 10
115.500000
 20
-64.323341
 11
115.500000
 21
-67.323341
  0
LINE
  8
0
 10
114.050003
 20
-73.323341
 11
115.500000
 21
-73.323341
  0
LINE
  8
0
 10
114.050003
 20
-64.323341
 11
115.500000
 21
-64.323341
  0
LINE
  8
0
 10
115.500000
 20
-64.323349
 11
117.250000
 21
-62.573341
  0
LINE
  8
0
 10
115.500000
 20
-73.323349
 11
117.250000
 21
-75.073341
  0
LINE
  8
0
 10
94.849998
 20
-48.833344
 11
113.650002
 21
-48.833344
  0
LINE
  8
0
 10
96.850006
 20
-76.333344
 11
111.649994
 21
-76.333344
  0
LINE
  8
0
 10
111.649994
 20
-75.333344
 11
111.649994
 21
-76.333344
  0
LINE
  8
0
 10
96.850006
 20
-75.333344
 11
96.850006
 21
-76.333344
  0
LINE
  8
0
 10
128.849991
 20
-74.723343
 11
130.649994
 21
-74.723343
  0
LINE
  8
0
 10
127.650002
 20
-64.773338
 11
128.849991
 21
-64.773338
  0
LINE
  8
0
 10
128.849991
 20
-62.923340
 11
130.649994
 21
-62.923340
  0
LINE
  8
0
 10
127.650002
 20
-62.573341
 11
127.650002
 21
-75.073341
  0
LINE
  8
0
 10
130.649994
 20
-62.923340
 11
130.649994
 21
-74.723343
  0
LINE
  8
0
 10
128.849991
 20
-62.923340
 11
128.849991
 21
-74.723343
  0
LINE
  8
0
 10
127.650002
 20
-72.873344
 11
128.849991
 21
-72.873344
  0
LINE
  8
0
 10
110.150284
 20
-76.311531
 11
109.850281
 21
-87.311531
  0
LINE
  8
0
  6
CENTER
 10
93.410767
 20
-81.323341
 11
113.574478
 21
-81.323341
  0
LINE
  8
0
 10
97.850006
 20
-87.333344
 11
110.649994
 21
-87.333344
  0
LINE
  8
0
 10
97.550003
 20
-76.333344
 11
97.850006
 21
-87.333344
  0
LINE
  8
0
 10
110.949997
 20
-76.333344
 11
110.649994
 21
-87.333344
  0
LINE
  8
0
 10
98.349716
 20
-76.311539
 11
98.649719
 21
-87.311539
  0
LINE
  8
0
  6
DASHED
 10
98.498688
 20
-48.786980
 11
99.134232
 21
-59.733887
  0
LINE
  8
0
  6
DASHED
 10
110.001900
 20
-48.778652
 11
109.245399
 21
-59.818481
  0
LINE
  8
0
  6
DASHED
 10
110.800011
 20
-48.833347
 11
110.043510
 21
-59.873177
  0
LINE
  8
0
 10
109.149994
 20
-48.833344
 11
109.149994
 21
-60.333344
  0
LINE
  8
0
 10
99.350006
 20
-48.833344
 11
99.350006
 21
-60.333344
  0
LINE
  8
0
  6
DASHED
 10
98.338623
 20
-59.833344
 11
110.046234
 21
-59.833344
  0
LINE
  8
0
  6
DASHED
 10
97.700027
 20
-48.833340
 11
98.335571
 21
-59.780243
  0
LINE
  8
0
 10
114.050003
 20
-70.323341
 11
117.250000
 21
-70.323341
  0
LINE
  8
0
 10
114.050003
 20
-67.323341
 11
117.250000
 21
-67.323341
  0
LINE
  8
0
 10
113.650002
 20
-48.833344
 11
113.650002
 21
-60.333344
  0
LINE
  8
0
 10
94.849998
 20
-48.833344
 11
94.849998
 21
-60.333344
  0
POINT
  8
0
 10
170.897247
 20
-81.323341
  0
POINT
  8
0
 10
164.333344
 20
-81.323341
  0
LINE
  8
0
  6
CENTER
 10
150.129852
 20
-68.823341
 11
178.536835
 21
-68.823341
  0
LINE
  8
0
 10
156.933350
 20
-76.333344
 11
171.733337
 21
-76.333344
  0
LINE
  8
0
 10
171.733337
 20
-75.333344
 11
171.733337
 21
-76.333344
  0
LINE
  8
0
 10
156.933350
 20
-75.333344
 11
156.933350
 21
-76.333344
  0
LINE
  8
0
 10
157.933350
 20
-87.333344
 11
170.733337
 21
-87.333344
  0
LINE
  8
0
 10
157.633347
 20
-76.333344
 11
157.933350
 21
-87.333344
  0
LINE
  8
0
 10
171.033340
 20
-76.333351
 11
170.733337
 21
-87.333351
  0
LINE
  8
0
 10
158.433060
 20
-76.311539
 11
158.733063
 21
-87.311539
  0
LINE
  8
0
 10
170.233627
 20
-76.311531
 11
169.933624
 21
-87.311531
  0
LINE
  8
0
  6
CENTER
 10
153.494110
 20
-81.323341
 11
173.657822
 21
-81.323341
  0
LINE
  8
0
 10
155.583344
 20
-75.333344
 11
173.083344
 21
-75.333344
  0
LINE
  8
0
 10
155.583344
 20
-60.333344
 11
173.083344
 21
-60.333344
  0
LINE
  8
0
 10
174.133347
 20
-62.151993
 11
174.133347
 21
-73.514694
  0
LINE
  8
0
 10
154.533340
 20
-62.151993
 11
154.533340
 21
-73.514694
  0
LINE
  8
0
 10
154.533340
 20
-62.151993
 11
155.583344
 21
-60.333344
  0
LINE
  8
0
 10
173.083344
 20
-75.333344
 11
174.133347
 21
-73.514687
  0
LINE
  8
0
 10
173.083344
 20
-60.333344
 11
174.133347
 21
-62.151993
  0
LINE
  8
0
 10
154.533340
 20
-73.514694
 11
155.583344
 21
-75.333351
  0
LINE
  8
0
 10
154.533340
 20
-62.151993
 11
174.133347
 21
-62.151993
  0
LINE
  8
0
 10
154.533340
 20
-73.514694
 11
160.203720
 21
-73.514694
  0
LINE
  8
0
 10
168.462967
 20
-73.514694
 11
174.133347
 21
-73.514694
  0
LINE
  8
0
 10
155.833344
 20
-48.833344
 11
172.833344
 21
-48.833344
  0
LINE
  8
0
 10
172.833344
 20
-48.833344
 11
172.833344
 21
-60.333344
  0
LINE
  8
0
 10
155.833344
 20
-48.833344
 11
155.833344
 21
-60.333344
  0
LINE
  8
0
  6
CENTER
 10
164.333344
 20
-43.832146
 11
164.333344
 21
-90.792336
  0
LINE
  8
0
 10
164.333344
 20
-48.833344
 11
164.333344
 21
-60.333344
  0
CIRCLE
  8
0
 10
164.333344
 20
-68.823341
 40
5.900000
  0
CIRCLE
  8
0
 10
164.333344
 20
-68.823341
 40
6.250000
  0
CIRCLE
  8
0
 10
164.333344
 20
-68.823341
 40
3.100000
  0
POINT
  8
0
 10
104.250000
 20
-21.833344
  0
POINT
  8
0
 10
130.649994
 20
-21.833344
  0
LINE
  8
0
  6
CENTER
 10
104.250000
 20
-5.841265
 11
104.250000
 21
-34.879513
  0
LINE
  8
0
  6
CENTER
 10
90.888199
 20
-21.833344
 11
134.445572
 21
-21.833344
  0
LINE
  8
0
 10
127.650002
 20
-15.583344
 11
127.650002
 21
-28.083344
  0
LINE
  8
0
 10
130.649994
 20
-15.933342
 11
130.649994
 21
-27.733345
  0
LINE
  8
0
 10
128.849991
 20
-15.933342
 11
128.849991
 21
-27.733345
  0
LINE
  8
0
 10
127.650002
 20
-25.883347
 11
128.849991
 21
-25.883347
  0
LINE
  8
0
 10
127.650002
 20
-17.783340
 11
128.849991
 21
-17.783340
  0
LINE
  8
0
 10
128.849991
 20
-27.733345
 11
130.649994
 21
-27.733345
  0
LINE
  8
0
 10
128.849991
 20
-15.933342
 11
130.649994
 21
-15.933342
  0
LINE
  8
0
 10
99.342529
 20
-13.333344
 11
109.157471
 21
-13.333344
  0
LINE
  8
0
 10
99.342529
 20
-30.333344
 11
109.157471
 21
-30.333344
  0
LINE
  8
0
 10
94.435036
 20
-21.833347
 11
99.342514
 21
-13.333344
  0
LINE
  8
0
 10
109.157448
 20
-30.333342
 11
114.064926
 21
-21.833338
  0
LINE
  8
0
 10
94.435043
 20
-21.833353
 11
99.342522
 21
-30.333355
  0
LINE
  8
0
 10
109.157478
 20
-13.333350
 11
114.064957
 21
-21.833351
  0
LINE
  8
0
 10
111.798340
 20
-15.583344
 11
127.650002
 21
-15.583344
  0
LINE
  8
0
 10
111.798340
 20
-28.083344
 11
127.650002
 21
-28.083344
  0
LINE
  8
0
 10
117.250000
 20
-15.583344
 11
117.250000
 21
-28.083344
  0
LINE
  8
0
 10
115.500000
 20
-17.333344
 11
115.500000
 21
-26.333344
  0
LINE
  8
0
 10
112.955750
 20
-26.333344
 11
115.500000
 21
-26.333344
  0
LINE
  8
0
 10
112.955750
 20
-17.333344
 11
115.500000
 21
-17.333344
  0
LINE
  8
0
 10
115.500000
 20
-26.333344
 11
117.250000
 21
-28.083340
  0
LINE
  8
0
 10
115.500000
 20
-17.333344
 11
117.250000
 21
-15.583344
  0
CIRCLE
  8
0
 10
104.250000
 20
-21.833344
 40
5.700000
  0
CIRCLE
  8
0
 10
104.250000
 20
-21.833344
 40
9.800000
  0
CIRCLE
  8
0
 10
104.250000
 20
-21.833344
 40
6.550000
  0
ENDSEC
  0
EOF
