  0
SECTION
  2
HEADER
  0
ENDSEC
  0
SECTION
  2
TABLES
  0
TABLE
  2
LTYPE
 70
     4
  0
LTYPE
  2
CONTINUOUS
 70
    64
  3
Solid line
 72
    65
 73
     0
 40
0.000000
  0
LTYPE
  2
DASHED
 70
    64
  3
__ __ __ __ __ __ __ __ __ __ __ __ __ __ __
 72
    65
 73
     2
 40
3.500000
 49
2.000000
 49
-1.500000
  0
LTYPE
  2
CENTER
 70
    64
  3
____ _ ____ _ ____ _ ____ _ ____ _ ____ _ ____
 72
    65
 73
     4
 40
17.500000
 49
13.000000
 49
-1.500000
 49
1.500000
 49
-1.500000
  0
LTYPE
  2
PHANTOM
 70
    64
  3
_____ _ _ _____ _ _ _____ _ _ _____ _ _ ____  
 72
    65
 73
     6
 40
15.500000
 49
8.000000
 49
-1.500000
 49
1.500000
 49
-1.500000
 49
1.500000
 49
-1.500000
  0
LTYPE
  2
DASHED1
 70
    64
  3
__ __ __ __ __ __ __ __ __ __ __ __ __ __ __
 72
    65
 73
     2
 40
1.500000
 49
1.000000
 49
-0.500000
  0
LTYPE
  2
DASHED2
 70
    64
  3
__ __ __ __ __ __ __ __ __ __ __ __ __ __ __
 72
    65
 73
     2
 40
3.500000
 49
2.500000
 49
-1.000000
  0
LTYPE
  2
DASHED3
 70
    64
  3
__ __ __ __ __ __ __ __ __ __ __ __ __ __ __
 72
    65
 73
     2
 40
6.000000
 49
4.000000
 49
-2.000000
  0
LTYPE
  2
DASHED4
 70
    64
  3
__ __ __ __ __ __ __ __ __ __ __ __ __ __ __
 72
    65
 73
     2
 40
12.000000
 49
10.000000
 49
-2.000000
  0
LTYPE
  2
DASHED5
 70
    64
  3
__ __ __ __ __ __ __ __ __ __ __ __ __ __ __
 72
    65
 73
     2
 40
17.000000
 49
15.000000
 49
-2.000000
  0
LTYPE
  2
DASHED6
 70
    64
  3
__ __ __ __ __ __ __ __ __ __ __ __ __ __ __
 72
    65
 73
     2
 40
29.000000
 49
27.000000
 49
-2.000000
  0
LTYPE
  2
PHANTOM1
 70
    64
  3
_____ _ _ _____ _ _ _____ _ _ _____ _ _ ____  
 72
    65
 73
     6
 40
31.000000
 49
25.000000
 49
-1.500000
 49
1.000000
 49
-1.000000
 49
1.000000
 49
-1.500000
  0
LTYPE
  2
PHANTOM2
 70
    64
  3
_____ _ _ _____ _ _ _____ _ _ _____ _ _ ____  
 72
    65
 73
     6
 40
36.000000
 49
27.000000
 49
-1.500000
 49
2.500000
 49
-1.000000
 49
2.500000
 49
-1.500000
  0
LTYPE
  2
PHANTOM3
 70
    64
  3
_____ _ _ _____ _ _ _____ _ _ _____ _ _ ____  
 72
    65
 73
     6
 40
78.000000
 49
64.000000
 49
-2.000000
 49
4.000000
 49
-2.000000
 49
4.000000
 49
-2.000000
  0
LTYPE
  2
CENTER1
 70
    64
  3
____ _ ____ _ ____ _ ____ _ ____ _ ____ _ ____
 72
    65
 73
     4
 40
19.000000
 49
14.000000
 49
-1.000000
 49
3.000000
 49
-1.000000
  0
LTYPE
  2
CENTER2
 70
    64
  3
____ _ ____ _ ____ _ ____ _ ____ _ ____ _ ____
 72
    65
 73
     4
 40
28.500000
 49
25.000000
 49
-1.000000
 49
1.500000
 49
-1.000000
  0
LTYPE
  2
CENTER3
 70
    64
  3
____ _ ____ _ ____ _ ____ _ ____ _ ____ _ ____
 72
    65
 73
     4
 40
31.500000
 49
27.000000
 49
-1.000000
 49
2.500000
 49
-1.000000
  0
LTYPE
  2
CENTER4
 70
    64
  3
____ _ ____ _ ____ _ ____ _ ____ _ ____ _ ____
 72
    65
 73
     4
 40
50.000000
 49
45.000000
 49
-1.000000
 49
3.000000
 49
-1.000000
  0
LTYPE
  2
CENTER5
 70
    64
  3
____ _ ____ _ ____ _ ____ _ ____ _ ____ _ ____
 72
    65
 73
     4
 40
100.000000
 49
92.000000
 49
-2.000000
 49
4.000000
 49
-2.000000
  0
LTYPE
  2
SBK1
 70
    64
  3
______ _ _ _ ______ _ _ _ ______ _ _ _ _____  
 72
    65
 73
     8
 40
60.500000
 49
45.000000
 49
-2.000000
 49
2.500000
 49
-2.000000
 49
2.500000
 49
-2.000000
 49
2.500000
 49
-2.000000
  0
LTYPE
  2
SBK2
 70
    64
  3
______ _ _ _ ______ _ _ _ ______ _ _ _ _____  
 72
    65
 73
     8
 40
84.000000
 49
64.000000
 49
-2.000000
 49
4.000000
 49
-2.000000
 49
4.000000
 49
-2.000000
 49
4.000000
 49
-2.000000
  0
LTYPE
  2
STCH
 70
    64
  3
__ __ __ __ __ __ __ __ __ __ __ __ __ __ __
 72
    65
 73
     2
 40
3.000000
 49
1.000000
 49
-2.000000
  0
LTYPE
  2
MTCH
 70
    64
  3
_____ _ _ _____ _ _ _____ _ _ _____ _ _ ____  
 72
    65
 73
     6
 40
80.000000
 49
66.000000
 49
-2.000000
 49
4.000000
 49
-2.000000
 49
4.000000
 49
-2.000000
  0
ENDTAB
  0
TABLE
  2
LAYER
 70
     1
  0
LAYER
  2
0
 70
     0
 62
     7
  6
CONTINUOUS
  0
ENDTAB
  0
TABLE
  2
STYLE
 70
     1
  0
STYLE
  2
STANDARD
 70
     0
 40
0.000000
 41
1.000000
 50
0.000000
 71
     0
 42
0.200000
  3
txt
  4
BIGFONT
  0
ENDTAB
  0
TABLE
  2
VIEW
 70
     0
  0
ENDTAB
  0
ENDSEC
  0
SECTION
  2
BLOCKS
  0
ENDSEC
  0
SECTION
  2
ENTITIES
  0
LINE
  8
0
 10
-94.250000
 20
132.600006
 11
-94.250000
 21
117.600006
  0
LINE
  8
0
 10
-194.250000
 20
117.600006
 11
-94.250000
 21
117.600006
  0
LINE
  8
0
 10
94.800003
 20
132.600006
 11
94.800003
 21
117.600006
  0
LINE
  8
0
 10
94.800003
 20
117.600006
 11
194.800003
 21
117.600006
  0
LINE
  8
0
 10
94.800003
 20
-113.500000
 11
94.800003
 21
-133.500000
  0
LINE
  8
0
 10
94.800003
 20
-113.500000
 11
194.800003
 21
-113.500000
  0
LINE
  8
0
 10
-194.250000
 20
-123.500000
 11
94.800003
 21
-123.500000
  0
LINE
  8
0
 10
-194.250000
 20
-0.449997
 11
194.800003
 21
-0.449997
  0
LINE
  8
0
 10
0.275002
 20
132.600006
 11
0.275002
 21
-133.500000
  0
LINE
  8
0
 10
-194.250000
 20
9.550003
 11
194.800003
 21
9.550003
  0
LINE
  8
0
 10
210.000000
 20
148.500000
 11
210.000000
 21
-148.500000
  0
LINE
  8
0
 10
-210.000000
 20
148.500000
 11
-210.000000
 21
-148.500000
  0
LINE
  8
0
 10
-210.000000
 20
148.500000
 11
210.000000
 21
148.500000
  0
LINE
  8
0
 10
-210.000000
 20
-148.500000
 11
210.000000
 21
-148.500000
  0
LINE
  8
0
 10
-194.250000
 20
132.600006
 11
194.800003
 21
132.600006
  0
LINE
  8
0
 10
194.800003
 20
132.600006
 11
194.800003
 21
-133.500000
  0
LINE
  8
0
 10
-194.250000
 20
132.600006
 11
-194.250000
 21
-133.500000
  0
LINE
  8
0
 10
-194.250000
 20
-133.500000
 11
194.800003
 21
-133.500000
  0
TEXT
  8
0
 10
-194.128311
 20
120.880005
 40
5.800000
  1
QUICK FITTING,SLH
 50
0.000000
 41
1.052632
 51
0.000000
  7
STANDARD
  0
TEXT
  8
0
 10
100.721687
 20
120.880005
 40
5.800000
  1
DATE: MAY ,1992
 50
0.000000
 41
1.052632
 51
0.000000
  7
STANDARD
  0
TEXT
  8
0
 10
90.700897
 20
-128.800003
 40
7.000000
  1
ＫＯＧＡＮＥＩ，ＣＯＲＰ．
 50
0.000000
 41
0.902367
 51
15.000000
  7
STANDARD
  0
TEXT
  8
0
 10
5.524994
 20
2.550003
 40
5.000000
  1
MODEL:SLH10-03
 50
0.000000
 41
1.052632
 51
0.000000
  7
STANDARD
  0
TEXT
  8
0
 10
-189.000000
 20
-130.500000
 40
5.000000
  1
MODEL:SLH12-03
 50
0.000000
 41
1.052632
 51
0.000000
  7
STANDARD
  0
TEXT
  8
0
 10
5.524994
 20
-130.500000
 40
5.000000
  1
MODEL:SLH12-04
 50
0.000000
 41
1.052632
 51
0.000000
  7
STANDARD
  0
TEXT
  8
0
 10
-189.000000
 20
2.550003
 40
5.000000
  1
MODEL:SLH10-02
 50
0.000000
 41
1.052632
 51
0.000000
  7
STANDARD
  0
POINT
  8
0
 10
-136.374527
 20
28.676666
  0
POINT
  8
0
 10
-129.796021
 20
28.676666
  0
LINE
  8
0
 10
-124.500000
 20
41.166668
 11
-124.500000
 21
35.144783
  0
LINE
  8
0
 10
-123.000000
 20
41.166668
 11
-123.000000
 21
33.666668
  0
LINE
  8
0
  6
CENTER
 10
-157.674530
 20
42.666668
 11
-99.188522
 21
42.666668
  0
LINE
  8
0
 10
-142.765213
 20
22.666668
 11
-129.983841
 21
22.666668
  0
LINE
  8
0
  6
CENTER
 10
-151.435349
 20
28.676666
 11
-119.999756
 21
28.676666
  0
LINE
  8
0
  6
CENTER
 10
-136.374527
 20
63.931858
 11
-136.374527
 21
14.868214
  0
LINE
  8
0
 10
-107.384521
 20
51.066666
 11
-105.674530
 21
51.066666
  0
LINE
  8
0
 10
-109.074524
 20
48.666668
 11
-107.384521
 21
48.666668
  0
LINE
  8
0
 10
-109.074524
 20
36.666668
 11
-107.384521
 21
36.666668
  0
LINE
  8
0
 10
-107.384521
 20
34.266670
 11
-105.674530
 21
34.266670
  0
LINE
  8
0
 10
-107.384521
 20
51.066666
 11
-107.384521
 21
34.266670
  0
LINE
  8
0
 10
-105.674530
 20
51.066666
 11
-105.674530
 21
34.266670
  0
LINE
  8
0
 10
-109.074524
 20
51.666672
 11
-109.074524
 21
33.666668
  0
LINE
  8
0
 10
-123.000000
 20
51.666672
 11
-123.000000
 21
44.166668
  0
LINE
  8
0
 10
-124.500000
 20
50.166668
 11
-124.500000
 21
44.166668
  0
LINE
  8
0
 10
-125.849998
 20
50.166668
 11
-124.500000
 21
50.166668
  0
LINE
  8
0
 10
-123.021881
 20
51.666672
 11
-124.500008
 21
50.188549
  0
LINE
  8
0
 10
-123.021889
 20
51.666672
 11
-109.074524
 21
51.666672
  0
LINE
  8
0
 10
-123.021896
 20
33.666668
 11
-109.074524
 21
33.666668
  0
LINE
  8
0
 10
-125.849998
 20
35.166668
 11
-124.500000
 21
35.166668
  0
LINE
  8
0
 10
-123.021896
 20
33.666668
 11
-124.500008
 21
35.144779
  0
LINE
  8
0
 10
-143.938629
 20
56.666668
 11
-128.810425
 21
56.666668
  0
LINE
  8
0
 10
-144.474533
 20
54.666668
 11
-128.274521
 21
54.666668
  0
LINE
  8
0
 10
-146.874527
 20
51.666672
 11
-125.874527
 21
51.666672
  0
LINE
  8
0
 10
-146.874527
 20
33.666668
 11
-125.874527
 21
33.666668
  0
LINE
  8
0
 10
-129.470749
 20
44.166668
 11
-123.000000
 21
44.166668
  0
LINE
  8
0
 10
-129.233765
 20
41.166668
 11
-123.000000
 21
41.166668
  0
LINE
  8
0
 10
-130.496094
 20
33.666668
 11
-130.839844
 21
22.666668
  0
LINE
  8
0
 10
-129.640091
 20
33.666668
 11
-129.983841
 21
22.666668
  0
LINE
  8
0
 10
-142.252960
 20
33.666668
 11
-141.909210
 21
22.666668
  0
LINE
  8
0
 10
-143.108963
 20
33.666668
 11
-142.765213
 21
22.666668
  0
LINE
  8
0
 10
-144.474533
 20
54.666668
 11
-144.474533
 21
51.666672
  0
LINE
  8
0
 10
-128.274521
 20
54.666668
 11
-128.274521
 21
51.666672
  0
LINE
  8
0
 10
-144.478439
 20
54.652092
 11
-143.938629
 21
56.666668
  0
LINE
  8
0
 10
-128.287430
 20
54.714832
 11
-128.810425
 21
56.666668
  0
LINE
  8
0
 10
-125.874527
 20
51.666672
 11
-125.874527
 21
44.166668
  0
LINE
  8
0
 10
-146.874527
 20
51.666672
 11
-146.874527
 21
33.666668
  0
LINE
  8
0
 10
-125.874527
 20
41.166668
 11
-125.874527
 21
33.666668
  0
POINT
  8
0
 10
-59.829838
 20
28.676666
  0
POINT
  8
0
 10
-53.252872
 20
28.676666
  0
LINE
  8
0
 10
-66.209991
 20
22.666668
 11
-53.456680
 21
22.666668
  0
LINE
  8
0
  6
CENTER
 10
-74.768677
 20
28.676666
 11
-43.333084
 21
28.676666
  0
LINE
  8
0
 10
-67.393936
 20
56.676666
 11
-52.265739
 21
56.676666
  0
LINE
  8
0
 10
-67.933334
 20
54.425858
 11
-67.933334
 21
51.757328
  0
LINE
  8
0
 10
-67.929840
 20
54.676666
 11
-51.729836
 21
54.676666
  0
LINE
  8
0
 10
-51.733322
 20
54.425858
 11
-51.733322
 21
51.757328
  0
LINE
  8
0
 10
-70.483322
 20
51.676666
 11
-70.483322
 21
33.676666
  0
LINE
  8
0
 10
-49.183327
 20
51.676666
 11
-49.183327
 21
33.676666
  0
LINE
  8
0
  6
CENTER
 10
-59.829838
 20
63.116779
 11
-59.829838
 21
16.958696
  0
LINE
  8
0
  6
CENTER
 10
-75.967819
 20
42.676666
 11
-43.249718
 21
42.676666
  0
LINE
  8
0
 10
-66.220528
 20
22.666668
 11
-53.439152
 21
22.666668
  0
LINE
  8
0
 10
-53.953903
 20
33.676666
 11
-54.295151
 21
22.666668
  0
LINE
  8
0
 10
-53.097900
 20
33.676666
 11
-53.439148
 21
22.666668
  0
LINE
  8
0
 10
-65.705765
 20
33.676666
 11
-65.364517
 21
22.666668
  0
LINE
  8
0
 10
-66.561760
 20
33.676666
 11
-66.220512
 21
22.666668
  0
LINE
  8
0
 10
-70.483322
 20
33.676666
 11
-49.183327
 21
33.676666
  0
LINE
  8
0
 10
-70.483322
 20
51.676666
 11
-49.183327
 21
51.676666
  0
LINE
  8
0
 10
-67.929840
 20
54.676666
 11
-67.929840
 21
51.676666
  0
LINE
  8
0
 10
-51.729836
 20
54.676666
 11
-51.729836
 21
51.676666
  0
LINE
  8
0
 10
-67.925568
 20
54.692596
 11
-67.393936
 21
56.676666
  0
LINE
  8
0
 10
-51.734573
 20
54.694336
 11
-52.265739
 21
56.676666
  0
CIRCLE
  8
0
 10
-59.829838
 20
42.676666
 40
5.100000
  0
CIRCLE
  8
0
 10
-59.829838
 20
42.676666
 40
9.000000
  0
CIRCLE
  8
0
 10
-59.829838
 20
42.676666
 40
8.400000
  0
POINT
  8
0
 10
-136.374527
 20
95.584076
  0
POINT
  8
0
 10
-105.674530
 20
95.584068
  0
LINE
  8
0
 10
-105.674522
 20
103.984055
 11
-105.674530
 21
87.184074
  0
LINE
  8
0
 10
-130.680450
 20
104.584076
 11
-123.000000
 21
104.584068
  0
LINE
  8
0
 10
-130.680450
 20
86.584076
 11
-123.000000
 21
86.584076
  0
LINE
  8
0
 10
-107.384521
 20
103.984062
 11
-105.674522
 21
103.984055
  0
LINE
  8
0
 10
-109.074524
 20
101.584068
 11
-107.384521
 21
101.584068
  0
LINE
  8
0
 10
-109.074532
 20
89.584068
 11
-107.384529
 21
89.584068
  0
LINE
  8
0
 10
-107.384529
 20
87.184074
 11
-105.674530
 21
87.184074
  0
LINE
  8
0
 10
-107.384521
 20
103.984062
 11
-107.384529
 21
87.184074
  0
LINE
  8
0
 10
-109.074524
 20
104.584068
 11
-109.074532
 21
86.584068
  0
LINE
  8
0
 10
-123.000000
 20
104.584068
 11
-123.000000
 21
86.584076
  0
LINE
  8
0
 10
-124.500000
 20
103.084068
 11
-124.500000
 21
88.062195
  0
LINE
  8
0
 10
-128.813278
 20
103.084076
 11
-124.500000
 21
103.084068
  0
LINE
  8
0
 10
-123.021896
 20
104.584099
 11
-124.500023
 21
103.105972
  0
LINE
  8
0
 10
-123.000000
 20
104.584068
 11
-109.074524
 21
104.584068
  0
LINE
  8
0
 10
-123.000000
 20
86.584076
 11
-109.074532
 21
86.584068
  0
LINE
  8
0
 10
-128.813278
 20
88.084076
 11
-124.500000
 21
88.084076
  0
LINE
  8
0
 10
-123.021896
 20
86.584068
 11
-124.500023
 21
88.062187
  0
LINE
  8
0
  6
CENTER
 10
-161.374527
 20
95.584084
 11
-96.579651
 21
95.584061
  0
LINE
  8
0
 10
-139.432617
 20
100.580017
 11
-133.567383
 21
100.580017
  0
LINE
  8
0
 10
-142.317032
 20
95.584076
 11
-139.432617
 21
100.580017
  0
LINE
  8
0
 10
-130.682968
 20
95.584068
 11
-133.567383
 21
100.580017
  0
LINE
  8
0
 10
-142.317032
 20
95.584076
 11
-139.432632
 21
90.588135
  0
LINE
  8
0
 10
-139.432617
 20
90.588135
 11
-133.567383
 21
90.588135
  0
LINE
  8
0
 10
-130.682968
 20
95.584076
 11
-133.567383
 21
90.588135
  0
LINE
  8
0
  6
CENTER
 10
-136.374527
 20
115.584076
 11
-136.374527
 21
75.584076
  0
CIRCLE
  8
0
 10
-136.374527
 20
95.584076
 40
7.600000
  0
CIRCLE
  8
0
 10
-136.374527
 20
95.584076
 40
10.650000
  0
CIRCLE
  8
0
 10
-136.374527
 20
95.584076
 40
8.100000
  0
POINT
  8
0
 10
62.383694
 20
28.884880
  0
POINT
  8
0
 10
54.125473
 20
28.884880
  0
LINE
  8
0
 10
67.625473
 20
41.884880
 11
67.625473
 21
34.384880
  0
LINE
  8
0
 10
66.125473
 20
41.884880
 11
66.125473
 21
35.862995
  0
LINE
  8
0
 10
83.115479
 20
51.784874
 11
84.825470
 21
51.784874
  0
LINE
  8
0
 10
81.425476
 20
49.384880
 11
83.115479
 21
49.384880
  0
LINE
  8
0
 10
81.425476
 20
37.384880
 11
83.115479
 21
37.384880
  0
LINE
  8
0
 10
83.115479
 20
34.984882
 11
84.825470
 21
34.984882
  0
LINE
  8
0
 10
83.115479
 20
51.784874
 11
83.115479
 21
34.984882
  0
LINE
  8
0
 10
84.825470
 20
51.784874
 11
84.825470
 21
34.984882
  0
LINE
  8
0
 10
81.425476
 20
52.384880
 11
81.425476
 21
34.384880
  0
LINE
  8
0
 10
67.625473
 20
52.384880
 11
67.625473
 21
44.884880
  0
LINE
  8
0
 10
66.125473
 20
50.884880
 11
66.125473
 21
44.884880
  0
LINE
  8
0
 10
64.625473
 20
50.884880
 11
66.125473
 21
50.884880
  0
LINE
  8
0
 10
67.603592
 20
52.384895
 11
66.125465
 21
50.906769
  0
LINE
  8
0
 10
67.625473
 20
52.384880
 11
81.425476
 21
52.384880
  0
LINE
  8
0
 10
67.625473
 20
34.384880
 11
81.425476
 21
34.384880
  0
LINE
  8
0
 10
64.625473
 20
35.884880
 11
66.125473
 21
35.884880
  0
LINE
  8
0
 10
67.603607
 20
34.384888
 11
66.125481
 21
35.863010
  0
LINE
  8
0
 10
46.561363
 20
57.534882
 11
61.689575
 21
57.534882
  0
LINE
  8
0
 10
46.025467
 20
55.534882
 11
46.025467
 21
52.384880
  0
LINE
  8
0
 10
46.025467
 20
55.534882
 11
62.225479
 21
55.534882
  0
LINE
  8
0
 10
62.225479
 20
55.534882
 11
62.225479
 21
52.384880
  0
LINE
  8
0
 10
43.625473
 20
52.384880
 11
64.625473
 21
52.384880
  0
LINE
  8
0
 10
43.625473
 20
34.384880
 11
64.625473
 21
34.384880
  0
LINE
  8
0
  6
CENTER
 10
37.458801
 20
43.384880
 11
94.912277
 21
43.384880
  0
LINE
  8
0
  6
CENTER
 10
54.125473
 20
67.088745
 11
54.125473
 21
16.201546
  0
LINE
  8
0
 10
61.528427
 20
34.384880
 11
61.219284
 21
22.637650
  0
LINE
  8
0
 10
46.722523
 20
34.384880
 11
47.031662
 21
22.637650
  0
LINE
  8
0
  6
CENTER
 10
39.258163
 20
28.884880
 11
68.475471
 21
28.884880
  0
LINE
  8
0
 10
46.034019
 20
22.534882
 11
62.216927
 21
22.534882
  0
LINE
  8
0
 10
45.722179
 20
34.384880
 11
46.032009
 21
22.611343
  0
LINE
  8
0
 10
62.528770
 20
34.384880
 11
62.218941
 21
22.611341
  0
LINE
  8
0
 10
61.024345
 20
44.884880
 11
67.625473
 21
44.884880
  0
LINE
  8
0
 10
61.102516
 20
41.884880
 11
67.625473
 21
41.884880
  0
LINE
  8
0
 10
62.220978
 20
55.551682
 11
61.689575
 21
57.534882
  0
LINE
  8
0
 10
46.029968
 20
55.551682
 11
46.561367
 21
57.534882
  0
LINE
  8
0
 10
43.625473
 20
52.384880
 11
43.625473
 21
34.384880
  0
LINE
  8
0
 10
64.625473
 20
52.384880
 11
64.625473
 21
44.884880
  0
LINE
  8
0
 10
64.625473
 20
41.884880
 11
64.625473
 21
34.384880
  0
POINT
  8
0
 10
139.050369
 20
28.884880
  0
POINT
  8
0
 10
130.792145
 20
28.884880
  0
LINE
  8
0
 10
123.228035
 20
57.534882
 11
138.356247
 21
57.534882
  0
LINE
  8
0
 10
122.692139
 20
55.534882
 11
122.692139
 21
52.384880
  0
LINE
  8
0
 10
122.692139
 20
55.534882
 11
138.892151
 21
55.534882
  0
LINE
  8
0
 10
138.892151
 20
55.534882
 11
138.892151
 21
52.384880
  0
LINE
  8
0
  6
CENTER
 10
130.792145
 20
63.371529
 11
130.792145
 21
19.658049
  0
LINE
  8
0
 10
120.292145
 20
52.384880
 11
141.292145
 21
52.384880
  0
LINE
  8
0
 10
120.292145
 20
34.384880
 11
141.292145
 21
34.384880
  0
LINE
  8
0
 10
122.700691
 20
22.534882
 11
138.883606
 21
22.534882
  0
LINE
  8
0
  6
CENTER
 10
115.924835
 20
28.884880
 11
145.142151
 21
28.884880
  0
LINE
  8
0
 10
122.388855
 20
34.384880
 11
122.698685
 21
22.611343
  0
LINE
  8
0
 10
123.389206
 20
34.384880
 11
123.698341
 21
22.637651
  0
LINE
  8
0
 10
138.195099
 20
34.384880
 11
137.885971
 21
22.637648
  0
LINE
  8
0
 10
139.195465
 20
34.384880
 11
138.885635
 21
22.611341
  0
LINE
  8
0
  6
CENTER
 10
110.792145
 20
43.384880
 11
150.792145
 21
43.384880
  0
LINE
  8
0
 10
122.696640
 20
55.551689
 11
123.228035
 21
57.534882
  0
LINE
  8
0
 10
138.887650
 20
55.551682
 11
138.356247
 21
57.534882
  0
LINE
  8
0
 10
120.292145
 20
52.384880
 11
120.292145
 21
34.384880
  0
LINE
  8
0
 10
141.292145
 20
52.384880
 11
141.292145
 21
34.384880
  0
CIRCLE
  8
0
 10
130.792145
 20
43.384880
 40
5.100000
  0
CIRCLE
  8
0
 10
130.792145
 20
43.384880
 40
9.000000
  0
CIRCLE
  8
0
 10
130.792145
 20
43.384880
 40
8.400000
  0
POINT
  8
0
 10
54.125473
 20
96.452286
  0
POINT
  8
0
 10
84.825424
 20
96.399467
  0
LINE
  8
0
 10
84.839882
 20
104.799454
 11
84.810974
 21
87.999489
  0
LINE
  8
0
 10
59.549274
 20
105.442970
 11
67.640938
 21
105.429047
  0
LINE
  8
0
 10
59.518307
 20
87.442993
 11
67.609970
 21
87.429077
  0
LINE
  8
0
 10
83.129883
 20
104.802391
 11
84.839882
 21
104.799454
  0
LINE
  8
0
 10
81.435753
 20
102.405312
 11
83.125755
 21
102.402405
  0
LINE
  8
0
 10
81.415108
 20
90.405327
 11
83.105110
 21
90.402420
  0
LINE
  8
0
 10
83.100983
 20
88.002426
 11
84.810974
 21
87.999489
  0
LINE
  8
0
 10
83.129883
 20
104.802391
 11
83.100983
 21
88.002426
  0
LINE
  8
0
 10
81.440918
 20
105.405304
 11
81.409950
 21
87.405334
  0
LINE
  8
0
 10
67.640938
 20
105.429047
 11
67.609970
 21
87.429077
  0
LINE
  8
0
 10
66.138359
 20
103.931633
 11
66.112518
 21
88.909775
  0
LINE
  8
0
 10
61.486835
 20
103.939636
 11
66.138359
 21
103.931633
  0
LINE
  8
0
 10
67.619034
 20
105.429123
 11
66.138374
 21
103.953545
  0
LINE
  8
0
 10
67.640938
 20
105.429047
 11
81.440918
 21
105.405304
  0
LINE
  8
0
 10
67.609970
 20
87.429077
 11
81.409950
 21
87.405334
  0
LINE
  8
0
 10
61.461029
 20
88.939651
 11
66.112549
 21
88.931656
  0
LINE
  8
0
 10
67.588097
 20
87.429131
 11
66.112518
 21
88.909790
  0
LINE
  8
0
  6
CENTER
 10
35.483181
 20
96.484360
 11
93.745766
 21
96.384125
  0
LINE
  8
0
 10
51.201454
 20
101.453262
 11
57.066696
 21
101.443176
  0
LINE
  8
0
 10
48.308449
 20
96.462303
 11
51.201450
 21
101.453278
  0
LINE
  8
0
 10
59.942505
 20
96.442284
 11
57.066696
 21
101.443176
  0
LINE
  8
0
 10
48.308441
 20
96.462296
 11
51.184254
 21
91.461403
  0
LINE
  8
0
 10
51.184265
 20
91.461395
 11
57.049484
 21
91.451309
  0
LINE
  8
0
 10
59.942505
 20
96.442284
 11
57.049484
 21
91.451309
  0
LINE
  8
0
  6
CENTER
 10
54.151245
 20
111.431580
 11
54.098000
 21
80.482071
  0
CIRCLE
  8
0
 10
54.125473
 20
96.452286
 40
7.600000
  0
CIRCLE
  8
0
 10
54.125473
 20
96.452286
 40
8.100000
  0
CIRCLE
  8
0
 10
54.125473
 20
96.452286
 40
10.500000
  0
POINT
  8
0
 10
-145.102463
 20
-96.325279
  0
POINT
  8
0
 10
-136.681000
 20
-96.325279
  0
LINE
  8
0
 10
-129.102463
 20
-81.825272
 11
-129.102463
 21
-89.325272
  0
LINE
  8
0
 10
-127.602463
 20
-81.825272
 11
-127.602463
 21
-90.825272
  0
LINE
  8
0
  6
CENTER
 10
-145.102463
 20
-56.992641
 11
-145.102463
 21
-112.880432
  0
LINE
  8
0
  6
CENTER
 10
-165.219666
 20
-80.325279
 11
-102.194160
 21
-80.325279
  0
LINE
  8
0
 10
-153.324677
 20
-102.675278
 11
-136.880264
 21
-102.675278
  0
LINE
  8
0
  6
CENTER
 10
-159.954239
 20
-96.325279
 11
-126.165894
 21
-96.325279
  0
LINE
  8
0
 10
-154.602463
 20
-63.675278
 11
-154.602463
 21
-66.275276
  0
LINE
  8
0
 10
-155.202469
 20
-67.275276
 11
-155.202469
 21
-69.825279
  0
LINE
  8
0
 10
-108.702461
 20
-70.425278
 11
-108.702461
 21
-90.225281
  0
LINE
  8
0
 10
-112.502464
 20
-69.825279
 11
-112.502464
 21
-90.825272
  0
LINE
  8
0
 10
-110.902458
 20
-70.425278
 11
-110.902458
 21
-90.225281
  0
LINE
  8
0
 10
-110.902458
 20
-70.425278
 11
-108.702461
 21
-70.425278
  0
LINE
  8
0
 10
-112.502464
 20
-72.825279
 11
-110.902458
 21
-72.825279
  0
LINE
  8
0
 10
-112.502464
 20
-87.825272
 11
-110.902458
 21
-87.825272
  0
LINE
  8
0
 10
-110.902458
 20
-90.225281
 11
-108.702461
 21
-90.225281
  0
LINE
  8
0
 10
-127.602463
 20
-69.825279
 11
-127.602463
 21
-78.825279
  0
LINE
  8
0
 10
-129.102463
 20
-71.325279
 11
-129.102463
 21
-78.825279
  0
LINE
  8
0
 10
-131.952454
 20
-71.325279
 11
-129.102463
 21
-71.325279
  0
LINE
  8
0
 10
-131.952454
 20
-89.325272
 11
-129.102463
 21
-89.325272
  0
LINE
  8
0
 10
-127.602470
 20
-90.825279
 11
-129.102463
 21
-89.325279
  0
LINE
  8
0
 10
-127.602463
 20
-90.825272
 11
-112.502464
 21
-90.825272
  0
LINE
  8
0
 10
-127.602463
 20
-69.825279
 11
-112.502464
 21
-69.825279
  0
LINE
  8
0
 10
-135.602463
 20
-63.675278
 11
-135.602463
 21
-66.275276
  0
LINE
  8
0
 10
-158.252457
 20
-90.825272
 11
-131.952454
 21
-90.825272
  0
LINE
  8
0
 10
-158.252457
 20
-69.825279
 11
-131.952454
 21
-69.825279
  0
LINE
  8
0
 10
-158.252457
 20
-69.825279
 11
-158.252457
 21
-90.825272
  0
LINE
  8
0
 10
-135.002457
 20
-67.275276
 11
-135.002457
 21
-69.825279
  0
LINE
  8
0
 10
-131.952454
 20
-69.825279
 11
-131.952454
 21
-78.825279
  0
LINE
  8
0
 10
-154.602463
 20
-63.675278
 11
-135.602463
 21
-63.675278
  0
LINE
  8
0
 10
-155.202469
 20
-67.275276
 11
-135.002457
 21
-67.275276
  0
LINE
  8
0
 10
-137.144775
 20
-78.825279
 11
-127.602463
 21
-78.825279
  0
LINE
  8
0
 10
-137.260315
 20
-81.825272
 11
-127.602463
 21
-81.825272
  0
LINE
  8
0
 10
-131.952454
 20
-81.959732
 11
-131.952454
 21
-90.825272
  0
LINE
  8
0
 10
-136.880493
 20
-102.709190
 11
-136.509109
 21
-90.825272
  0
LINE
  8
0
 10
-137.880447
 20
-102.702049
 11
-137.509293
 21
-90.825272
  0
LINE
  8
0
 10
-152.324478
 20
-102.702049
 11
-152.695633
 21
-90.825272
  0
LINE
  8
0
 10
-153.324432
 20
-102.709190
 11
-153.695801
 21
-90.825272
  0
LINE
  8
0
 10
-127.602463
 20
-69.825279
 11
-129.102463
 21
-71.325279
  0
LINE
  8
0
 10
-135.002457
 20
-67.275276
 11
-135.602463
 21
-66.236031
  0
LINE
  8
0
 10
-154.602463
 20
-66.236038
 11
-155.209686
 21
-67.287773
  0
LINE
  8
0
 10
-154.602463
 20
-66.275276
 11
-135.602463
 21
-66.275276
  0
POINT
  8
0
 10
-60.435795
 20
-96.325279
  0
POINT
  8
0
 10
-52.014320
 20
-96.325279
  0
LINE
  8
0
  6
CENTER
 10
-60.435795
 20
-55.972313
 11
-60.435795
 21
-113.325279
  0
LINE
  8
0
 10
-73.585785
 20
-90.825279
 11
-47.285782
 21
-90.825279
  0
LINE
  8
0
 10
-68.658005
 20
-102.675278
 11
-52.213593
 21
-102.675278
  0
LINE
  8
0
  6
CENTER
 10
-75.287567
 20
-96.325279
 11
-41.499222
 21
-96.325279
  0
LINE
  8
0
 10
-73.585785
 20
-69.825279
 11
-47.285782
 21
-69.825279
  0
LINE
  8
0
 10
-73.585785
 20
-69.825279
 11
-73.585785
 21
-90.825279
  0
LINE
  8
0
 10
-47.285782
 20
-69.825279
 11
-47.285782
 21
-90.825279
  0
LINE
  8
0
 10
-69.935791
 20
-63.675278
 11
-50.935791
 21
-63.675278
  0
LINE
  8
0
 10
-70.535797
 20
-67.275276
 11
-50.335785
 21
-67.275276
  0
LINE
  8
0
 10
-69.935791
 20
-63.675278
 11
-69.935791
 21
-66.236031
  0
LINE
  8
0
 10
-70.535797
 20
-67.275276
 11
-70.535797
 21
-69.825279
  0
LINE
  8
0
 10
-50.335785
 20
-67.275276
 11
-50.335785
 21
-69.825279
  0
LINE
  8
0
 10
-50.935791
 20
-63.675278
 11
-50.935791
 21
-66.236031
  0
LINE
  8
0
 10
-52.213821
 20
-102.709190
 11
-51.842445
 21
-90.825279
  0
LINE
  8
0
 10
-53.213779
 20
-102.702049
 11
-52.842628
 21
-90.825279
  0
LINE
  8
0
 10
-67.657806
 20
-102.702049
 11
-68.028961
 21
-90.825279
  0
LINE
  8
0
 10
-68.657768
 20
-102.709190
 11
-69.029144
 21
-90.825279
  0
LINE
  8
0
  6
CENTER
 10
-80.443680
 20
-80.325279
 11
-40.443684
 21
-80.325279
  0
LINE
  8
0
 10
-69.935791
 20
-66.236031
 11
-70.543015
 21
-67.287781
  0
LINE
  8
0
 10
-69.935791
 20
-66.236031
 11
-50.935791
 21
-66.236031
  0
LINE
  8
0
 10
-50.935791
 20
-66.236038
 11
-50.335785
 21
-67.275276
  0
CIRCLE
  8
0
 10
-60.435795
 20
-80.325279
 40
6.100000
  0
CIRCLE
  8
0
 10
-60.435795
 20
-80.325279
 40
10.500000
  0
CIRCLE
  8
0
 10
-60.435795
 20
-80.325279
 40
9.900000
  0
POINT
  8
0
 10
-145.102463
 20
-27.341949
  0
POINT
  8
0
 10
-108.702461
 20
-27.341963
  0
LINE
  8
0
  6
CENTER
 10
-171.475616
 20
-27.341940
 11
-100.350670
 21
-27.341965
  0
LINE
  8
0
 10
-108.702454
 20
-17.402142
 11
-108.702469
 21
-37.202137
  0
LINE
  8
0
 10
-112.502457
 20
-16.802135
 11
-112.502472
 21
-37.802132
  0
LINE
  8
0
 10
-110.902451
 20
-17.402140
 11
-110.902466
 21
-37.202133
  0
LINE
  8
0
 10
-110.902451
 20
-17.402140
 11
-108.702454
 21
-17.402142
  0
LINE
  8
0
 10
-112.502457
 20
-19.802135
 11
-110.902451
 21
-19.802137
  0
LINE
  8
0
 10
-112.502472
 20
-34.802132
 11
-110.902466
 21
-34.802132
  0
LINE
  8
0
 10
-110.902466
 20
-37.202133
 11
-108.702469
 21
-37.202137
  0
LINE
  8
0
 10
-127.594070
 20
-16.802132
 11
-127.594070
 21
-37.802128
  0
LINE
  8
0
 10
-129.094070
 20
-18.302132
 11
-129.094070
 21
-36.302128
  0
LINE
  8
0
 10
-135.552383
 20
-18.302128
 11
-129.094070
 21
-18.302132
  0
LINE
  8
0
 10
-127.450516
 20
-16.802113
 11
-129.094070
 21
-18.445663
  0
LINE
  8
0
 10
-135.477615
 20
-36.302124
 11
-129.094070
 21
-36.302128
  0
LINE
  8
0
 10
-127.450523
 20
-37.802124
 11
-129.094070
 21
-36.158562
  0
LINE
  8
0
 10
-137.133316
 20
-37.802124
 11
-112.502472
 21
-37.802132
  0
LINE
  8
0
 10
-127.594070
 20
-16.802132
 11
-112.502457
 21
-16.802135
  0
LINE
  8
0
 10
-137.238968
 20
-16.802128
 11
-127.450516
 21
-16.802132
  0
LINE
  8
0
 10
-148.616119
 20
-21.388466
 11
-141.572006
 21
-21.388470
  0
LINE
  8
0
 10
-152.030380
 20
-27.302118
 11
-148.616119
 21
-21.388458
  0
LINE
  8
0
 10
-152.030380
 20
-27.302126
 11
-148.616135
 21
-33.215782
  0
LINE
  8
0
 10
-148.616119
 20
-33.215782
 11
-141.572006
 21
-33.215782
  0
LINE
  8
0
 10
-138.157761
 20
-27.302137
 11
-141.572006
 21
-33.215790
  0
LINE
  8
0
 10
-138.157761
 20
-27.302122
 11
-141.572006
 21
-21.388470
  0
LINE
  8
0
  6
CENTER
 10
-145.102463
 20
-7.341951
 11
-145.102463
 21
-47.341949
  0
CIRCLE
  8
0
 10
-145.102463
 20
-27.341949
 40
10.100000
  0
CIRCLE
  8
0
 10
-145.102463
 20
-27.341949
 40
13.150000
  0
CIRCLE
  8
0
 10
-145.102463
 20
-27.341949
 40
9.500000
  0
POINT
  8
0
 10
62.402664
 20
-92.937103
  0
POINT
  8
0
 10
51.930302
 20
-92.937103
  0
LINE
  8
0
  6
CENTER
 10
36.412518
 20
-92.937103
 11
70.042648
 21
-92.937103
  0
LINE
  8
0
 10
42.430298
 20
-59.097099
 11
42.430298
 21
-61.697098
  0
LINE
  8
0
 10
41.830292
 20
-62.482769
 11
41.830292
 21
-64.932777
  0
LINE
  8
0
 10
42.378777
 20
-61.697098
 11
41.801430
 21
-62.697094
  0
LINE
  8
0
 10
88.530304
 20
-65.532776
 11
88.530304
 21
-85.332779
  0
LINE
  8
0
 10
84.730301
 20
-64.932777
 11
84.730301
 21
-85.932770
  0
LINE
  8
0
 10
86.330307
 20
-65.532776
 11
86.330307
 21
-85.332779
  0
LINE
  8
0
 10
86.330307
 20
-65.532776
 11
88.530304
 21
-65.532776
  0
LINE
  8
0
 10
84.730301
 20
-67.932777
 11
86.330307
 21
-67.932777
  0
LINE
  8
0
 10
84.730301
 20
-82.932770
 11
86.330307
 21
-82.932770
  0
LINE
  8
0
 10
86.330307
 20
-85.332779
 11
88.530304
 21
-85.332779
  0
LINE
  8
0
 10
69.430298
 20
-64.932777
 11
69.430298
 21
-73.932777
  0
LINE
  8
0
 10
67.930298
 20
-66.432777
 11
67.930298
 21
-73.932777
  0
LINE
  8
0
 10
65.080307
 20
-66.432777
 11
67.930298
 21
-66.432777
  0
LINE
  8
0
 10
69.573853
 20
-64.932777
 11
68.073860
 21
-66.432770
  0
LINE
  8
0
 10
65.080307
 20
-84.432770
 11
67.930298
 21
-84.432770
  0
LINE
  8
0
 10
69.573845
 20
-85.932762
 11
68.073860
 21
-84.432770
  0
LINE
  8
0
 10
69.430298
 20
-85.932770
 11
84.730301
 21
-85.932770
  0
LINE
  8
0
 10
69.430298
 20
-64.932777
 11
84.730301
 21
-64.932777
  0
LINE
  8
0
 10
61.481823
 20
-61.697105
 11
62.059170
 21
-62.697098
  0
LINE
  8
0
 10
61.430298
 20
-59.097099
 11
61.430298
 21
-61.697098
  0
LINE
  8
0
 10
38.780304
 20
-85.932770
 11
65.080307
 21
-85.932770
  0
LINE
  8
0
 10
38.780304
 20
-64.932777
 11
65.080307
 21
-64.932777
  0
LINE
  8
0
 10
38.780304
 20
-64.932777
 11
38.780304
 21
-85.932770
  0
LINE
  8
0
 10
62.030304
 20
-62.482769
 11
62.030304
 21
-64.932777
  0
LINE
  8
0
 10
65.080307
 20
-64.932777
 11
65.080307
 21
-73.932777
  0
LINE
  8
0
 10
42.430298
 20
-61.697098
 11
61.481827
 21
-61.697098
  0
LINE
  8
0
 10
42.430298
 20
-59.097099
 11
61.430298
 21
-59.097099
  0
LINE
  8
0
 10
41.830292
 20
-62.697098
 11
62.030304
 21
-62.697098
  0
LINE
  8
0
  6
CENTER
 10
32.691048
 20
-75.432777
 11
100.914146
 21
-75.432777
  0
LINE
  8
0
 10
59.887985
 20
-73.932777
 11
69.430298
 21
-73.932777
  0
LINE
  8
0
 10
59.772446
 20
-76.932770
 11
69.430298
 21
-76.932770
  0
LINE
  8
0
 10
65.080307
 20
-77.067230
 11
65.080307
 21
-85.932770
  0
LINE
  8
0
 10
67.930298
 20
-76.932770
 11
67.930298
 21
-84.432770
  0
LINE
  8
0
 10
69.430298
 20
-76.932770
 11
69.430298
 21
-85.932770
  0
LINE
  8
0
  6
CENTER
 10
51.930302
 20
-48.734192
 11
51.930302
 21
-113.628548
  0
LINE
  8
0
 10
41.741783
 20
-101.097099
 11
62.147663
 21
-101.097099
  0
LINE
  8
0
 10
40.430302
 20
-86.097099
 11
63.430302
 21
-86.097099
  0
LINE
  8
0
 10
40.430302
 20
-85.932770
 11
40.430302
 21
-86.097099
  0
LINE
  8
0
 10
63.430302
 20
-85.932770
 11
63.430302
 21
-86.097099
  0
LINE
  8
0
 10
62.616413
 20
-86.097099
 11
62.147663
 21
-101.097099
  0
LINE
  8
0
 10
61.459553
 20
-86.097099
 11
60.990803
 21
-101.097099
  0
LINE
  8
0
 10
42.401051
 20
-86.097099
 11
42.869801
 21
-101.097099
  0
LINE
  8
0
 10
41.244190
 20
-86.097099
 11
41.712940
 21
-101.097099
  0
POINT
  8
0
 10
136.596970
 20
-92.937103
  0
POINT
  8
0
 10
147.069336
 20
-92.937103
  0
LINE
  8
0
  6
CENTER
 10
136.596970
 20
-38.608093
 11
136.596970
 21
-108.437103
  0
LINE
  8
0
 10
123.446976
 20
-85.937103
 11
149.746979
 21
-85.937103
  0
LINE
  8
0
 10
125.096970
 20
-86.097099
 11
148.096970
 21
-86.097099
  0
LINE
  8
0
 10
125.096970
 20
-85.937103
 11
125.096970
 21
-86.097099
  0
LINE
  8
0
 10
148.096970
 20
-85.937103
 11
148.096970
 21
-86.097099
  0
LINE
  8
0
 10
123.446976
 20
-64.937103
 11
149.746979
 21
-64.937103
  0
LINE
  8
0
 10
123.446976
 20
-64.937103
 11
123.446976
 21
-85.937103
  0
LINE
  8
0
 10
149.746979
 20
-64.937103
 11
149.746979
 21
-85.937103
  0
LINE
  8
0
 10
127.096970
 20
-59.097099
 11
146.096970
 21
-59.097099
  0
LINE
  8
0
 10
126.496964
 20
-62.697098
 11
146.696976
 21
-62.697098
  0
LINE
  8
0
 10
127.096970
 20
-59.097099
 11
127.096970
 21
-61.697098
  0
LINE
  8
0
 10
126.496964
 20
-62.647095
 11
126.496964
 21
-64.937103
  0
LINE
  8
0
 10
127.045441
 20
-61.697105
 11
126.468094
 21
-62.697098
  0
LINE
  8
0
 10
127.096970
 20
-61.697098
 11
146.148499
 21
-61.697098
  0
LINE
  8
0
 10
146.696960
 20
-62.647095
 11
146.696960
 21
-64.937103
  0
LINE
  8
0
 10
146.148483
 20
-61.697102
 11
146.725830
 21
-62.697105
  0
LINE
  8
0
 10
146.096970
 20
-59.097099
 11
146.096970
 21
-61.697098
  0
LINE
  8
0
 10
126.408455
 20
-101.097099
 11
146.785492
 21
-101.097099
  0
LINE
  8
0
  6
CENTER
 10
121.079193
 20
-92.937103
 11
154.709320
 21
-92.937103
  0
LINE
  8
0
  6
CENTER
 10
116.652519
 20
-75.437103
 11
156.652512
 21
-75.437103
  0
LINE
  8
0
 10
147.283081
 20
-86.097099
 11
146.814331
 21
-101.097099
  0
LINE
  8
0
 10
146.126221
 20
-86.097099
 11
145.657471
 21
-101.097099
  0
LINE
  8
0
 10
127.067711
 20
-86.097099
 11
127.536461
 21
-101.097099
  0
LINE
  8
0
 10
125.910858
 20
-86.097099
 11
126.379608
 21
-101.097099
  0
CIRCLE
  8
0
 10
136.596970
 20
-75.437103
 40
6.100000
  0
CIRCLE
  8
0
 10
136.596970
 20
-75.437103
 40
10.500000
  0
CIRCLE
  8
0
 10
136.596970
 20
-75.437103
 40
9.900000
  0
POINT
  8
0
 10
88.330276
 20
-22.803370
  0
POINT
  8
0
 10
51.930302
 20
-22.763771
  0
LINE
  8
0
  6
CENTER
 10
25.565556
 20
-22.735090
 11
96.690460
 21
-22.812464
  0
LINE
  8
0
 10
88.341049
 20
-12.903378
 11
88.319511
 21
-32.703362
  0
LINE
  8
0
 10
84.541702
 20
-12.299242
 11
84.518860
 21
-33.299225
  0
LINE
  8
0
 10
86.141052
 20
-12.900985
 11
86.119514
 21
-32.700966
  0
LINE
  8
0
 10
86.141052
 20
-12.900985
 11
88.341049
 21
-12.903378
  0
LINE
  8
0
 10
84.538437
 20
-15.299244
 11
86.138443
 21
-15.300985
  0
LINE
  8
0
 10
84.522125
 20
-30.299229
 11
86.122131
 21
-30.300968
  0
LINE
  8
0
 10
86.119514
 20
-32.700966
 11
88.319511
 21
-32.703362
  0
LINE
  8
0
 10
69.450104
 20
-12.282825
 11
69.427261
 21
-33.282806
  0
LINE
  8
0
 10
67.948471
 20
-13.781192
 11
67.928894
 21
-31.781178
  0
LINE
  8
0
 10
61.527710
 20
-13.774210
 11
67.948471
 21
-13.781196
  0
LINE
  8
0
 10
61.508133
 20
-31.774193
 11
67.928894
 21
-31.781178
  0
LINE
  8
0
 10
59.835476
 20
-33.272373
 11
84.518860
 21
-33.299225
  0
LINE
  8
0
 10
69.450104
 20
-12.282828
 11
84.541702
 21
-12.299246
  0
LINE
  8
0
 10
59.858322
 20
-12.272393
 11
69.593651
 21
-12.282985
  0
LINE
  8
0
 10
45.002392
 20
-22.756241
 11
48.423077
 21
-16.846298
  0
LINE
  8
0
 10
45.002392
 20
-22.756239
 11
48.410198
 21
-28.673603
  0
LINE
  8
0
 10
58.875000
 20
-22.771338
 11
55.454323
 21
-28.681274
  0
LINE
  8
0
 10
55.454308
 20
-28.681267
 11
48.410194
 21
-28.673603
  0
LINE
  8
0
 10
58.875000
 20
-22.771324
 11
55.467190
 21
-16.853954
  0
LINE
  8
0
 10
55.467175
 20
-16.853962
 11
48.423077
 21
-16.846298
  0
LINE
  8
0
  6
CENTER
 10
51.952061
 20
-2.763784
 11
51.908543
 21
-42.763756
  0
LINE
  8
0
 10
69.450104
 20
-12.282827
 11
67.948471
 21
-13.781196
  0
LINE
  8
0
 10
69.427261
 20
-33.282814
 11
67.928894
 21
-31.781178
  0
CIRCLE
  8
0
 10
51.930302
 20
-22.763771
 40
9.500000
  0
CIRCLE
  8
0
 10
51.930302
 20
-22.763771
 40
13.150000
  0
CIRCLE
  8
0
 10
51.930302
 20
-22.763771
 40
10.100000
  0
ENDSEC
  0
EOF
