  0
SECTION
  2
HEADER
  9
$ACADVER
  1
AC1012
  9
$DWGCODEPAGE
  3
dos932
  9
$INSBASE
 10
0.0
 20
0.0
 30
0.0
  9
$EXTMIN
 10
-262.24000000000001
 20
-180.0
 30
0.0
  9
$EXTMAX
 10
262.24000000000001
 20
180.0
 30
0.0
  9
$LIMMIN
 10
-262.24000000000001
 20
-180.0
  9
$LIMMAX
 10
262.24000000000001
 20
180.0
  9
$ORTHOMODE
 70
               0
  9
$REGENMODE
 70
               1
  9
$FILLMODE
 70
               1
  9
$QTEXTMODE
 70
               0
  9
$MIRRTEXT
 70
               1
  9
$DRAGMODE
 70
               2
  9
$LTSCALE
 40
1.0
  9
$OSMODE
 70
               0
  9
$ATTMODE
 70
               1
  9
$TEXTSIZE
 40
3.2000000476837158
  9
$TRACEWID
 40
0.05
  9
$TEXTSTYLE
  7
MX_NOTE_STANDARD
  9
$CLAYER
  8
0
  9
$CELTYPE
  6
CONTINUOUS
  9
$CECOLOR
 62
             256
  9
$CELTSCALE
 40
1.0
  9
$DELOBJ
 70
               1
  9
$DISPSILH
 70
               0
  9
$DIMSCALE
 40
1.0
  9
$DIMASZ
 40
2.5
  9
$DIMEXO
 40
1.5
  9
$DIMDLI
 40
3.75
  9
$DIMRND
 40
0.0
  9
$DIMDLE
 40
0.0
  9
$DIMEXE
 40
1.5
  9
$DIMTP
 40
0.0
  9
$DIMTM
 40
0.0
  9
$DIMTXT
 40
3.2000000476837158
  9
$DIMCEN
 40
2.5
  9
$DIMTSZ
 40
0.0
  9
$DIMTOL
 70
               0
  9
$DIMLIM
 70
               0
  9
$DIMTIH
 70
               0
  9
$DIMTOH
 70
               0
  9
$DIMSE1
 70
               0
  9
$DIMSE2
 70
               0
  9
$DIMTAD
 70
               1
  9
$DIMZIN
 70
               8
  9
$DIMBLK
  1

  9
$DIMASO
 70
               1
  9
$DIMSHO
 70
               1
  9
$DIMPOST
  1

  9
$DIMAPOST
  1

  9
$DIMALT
 70
               0
  9
$DIMALTD
 70
               4
  9
$DIMALTF
 40
0.0394
  9
$DIMLFAC
 40
1.0
  9
$DIMTOFL
 70
               1
  9
$DIMTVP
 40
0.0
  9
$DIMTIX
 70
               0
  9
$DIMSOXD
 70
               0
  9
$DIMSAH
 70
               0
  9
$DIMBLK1
  1

  9
$DIMBLK2
  1

  9
$DIMSTYLE
  2
MXDIMSTYLE
  9
$DIMCLRD
 70
               0
  9
$DIMCLRE
 70
               0
  9
$DIMCLRT
 70
               0
  9
$DIMTFAC
 40
1.0
  9
$DIMGAP
 40
1.0
  9
$DIMJUST
 70
               0
  9
$DIMSD1
 70
               0
  9
$DIMSD2
 70
               0
  9
$DIMTOLJ
 70
               1
  9
$DIMTZIN
 70
               0
  9
$DIMALTZ
 70
               0
  9
$DIMALTTZ
 70
               0
  9
$DIMFIT
 70
               3
  9
$DIMUPT
 70
               1
  9
$DIMUNIT
 70
               2
  9
$DIMDEC
 70
               4
  9
$DIMTDEC
 70
               4
  9
$DIMALTU
 70
               8
  9
$DIMALTTD
 70
               4
  9
$DIMTXSTY
  7
MX_NOTE_STANDARD
  9
$DIMAUNIT
 70
               0
  9
$LUNITS
 70
               2
  9
$LUPREC
 70
               4
  9
$SKETCHINC
 40
0.1
  9
$FILLETRAD
 40
0.0
  9
$AUNITS
 70
               0
  9
$AUPREC
 70
               0
  9
$MENU
  1
acad
  9
$ELEVATION
 40
0.0
  9
$PELEVATION
 40
0.0
  9
$THICKNESS
 40
0.0
  9
$LIMCHECK
 70
               0
  9
$BLIPMODE
 70
               1
  9
$CHAMFERA
 40
0.0
  9
$CHAMFERB
 40
0.0
  9
$CHAMFERC
 40
0.0
  9
$CHAMFERD
 40
0.0
  9
$SKPOLY
 70
               0
  9
$TDCREATE
 40
2452220.697731481
  9
$TDUPDATE
 40
2452220.697731481
  9
$TDINDWG
 40
0.0000000000
  9
$TDUSRTIMER
 40
0.0000000000
  9
$USRTIMER
 70
               1
  9
$ANGBASE
 50
0.0
  9
$ANGDIR
 70
               0
  9
$PDMODE
 70
               0
  9
$PDSIZE
 40
0.0
  9
$PLINEWID
 40
0.0
  9
$COORDS
 70
               1
  9
$SPLFRAME
 70
               0
  9
$SPLINETYPE
 70
               6
  9
$SPLINESEGS
 70
               8
  9
$ATTDIA
 70
               0
  9
$ATTREQ
 70
               1
  9
$HANDLING
 70
               1
  9
$HANDSEED
  5
5CE
  9
$SURFTAB1
 70
               6
  9
$SURFTAB2
 70
               6
  9
$SURFTYPE
 70
               6
  9
$SURFU
 70
               6
  9
$SURFV
 70
               6
  9
$UCSNAME
  2

  9
$UCSORG
 10
0.0
 20
0.0
 30
0.0
  9
$UCSXDIR
 10
1.0
 20
0.0
 30
0.0
  9
$UCSYDIR
 10
0.0
 20
1.0
 30
0.0
  9
$PUCSNAME
  2

  9
$PUCSORG
 10
0.0
 20
0.0
 30
0.0
  9
$PUCSXDIR
 10
1.0
 20
0.0
 30
0.0
  9
$PUCSYDIR
 10
0.0
 20
1.0
 30
0.0
  9
$USERI1
 70
               0
  9
$USERI2
 70
               0
  9
$USERI3
 70
               0
  9
$USERI4
 70
               0
  9
$USERI5
 70
               0
  9
$USERR1
 40
0.0
  9
$USERR2
 40
0.0
  9
$USERR3
 40
0.0
  9
$USERR4
 40
0.0
  9
$USERR5
 40
0.0
  9
$WORLDVIEW
 70
               1
  9
$SHADEDGE
 70
               3
  9
$SHADEDIF
 70
              70
  9
$TILEMODE
 70
               1
  9
$MAXACTVP
 70
              16
  9
$PINSBASE
 10
0.0
 20
0.0
 30
0.0
  9
$PLIMCHECK
 70
               0
  9
$PEXTMIN
 10
1.0000000000000000E+20
 20
1.0000000000000000E+20
 30
1.0000000000000000E+20
  9
$PEXTMAX
 10
-1.0000000000000000E+20
 20
-1.0000000000000000E+20
 30
-1.0000000000000000E+20
  9
$PLIMMIN
 10
0.0
 20
0.0
  9
$PLIMMAX
 10
12.0
 20
9.0
  9
$UNITMODE
 70
               0
  9
$VISRETAIN
 70
               0
  9
$PLINEGEN
 70
               1
  9
$PSLTSCALE
 70
               0
  9
$TREEDEPTH
 70
            3020
  9
$PICKSTYLE
 70
               1
  9
$CMLSTYLE
  2
Standard
  9
$CMLJUST
 70
               0
  9
$CMLSCALE
 40
1.0
  9
$SAVEIMAGES
 70
               0
  0
ENDSEC
  0
SECTION
  2
CLASSES
  0
CLASS
  1
LWPOLYLINE
  2
AcDbPolyline
  3
"AutoCAD"
 90
        0
280
               0
281
               1
  0
CLASS
  1
IMAGE
  2
AcDbRasterImage
  3
ISM
 90
      127
280
               0
281
               1
  0
CLASS
  1
OLE2FRAME
  2
AcDbOle2Frame
  3
""
 90
        0
280
               0
281
               1
  0
CLASS
  1
HATCH
  2
AcDbHatch
  3
"ACAD_SEDONA"
 90
        0
280
               0
281
               1
  0
CLASS
  1
DICTIONARYVAR
  2
AcDbDictionaryVar
  3
"AutoCAD"
 90
        0
280
               0
281
               0
  0
CLASS
  1
RASTERVARIABLES
  2
AcDbRasterVariables
  3
ISM
 90
        0
280
               0
281
               0
  0
CLASS
  1
IMAGEDEF
  2
AcDbRasterImageDef
  3
ISM
 90
        0
280
               0
281
               0
  0
CLASS
  1
IMAGEDEF_REACTOR
  2
AcDbRasterImageDefReactor
  3
ISM
 90
        1
280
               0
281
               0
  0
CLASS
  1
IDBUFFER
  2
AcDbIdBuffer
  3
"Acad"
 90
        0
280
               0
281
               0
  0
CLASS
  1
SPATIAL_FILTER
  2
AcDbSpatialFilter
  3
"Acad"
 90
        0
280
               0
281
               0
  0
CLASS
  1
XRECORD
  2
AcDbXrecord
  3
"<Built In>"
 90
        0
280
               0
281
               0
  0
CLASS
  1
SORTENTSTABLE
  2
AcDbSortentsTable
  3
"AutoCAD"
 90
        0
280
               0
281
               0
  0
CLASS
  1
LAYER_INDEX
  2
AcDbLayerIndex
  3
"Acad"
 90
        0
280
               0
281
               0
  0
CLASS
  1
SPATIAL_INDEX
  2
AcDbSpatialIndex
  3
"Acad"
 90
        0
280
               0
281
               0
  0
CLASS
  1
OBJECT_PTR
  2
CAseDLPNTableRecord
  3
"ASE-LPNTableRecord"
 90
        1
280
               0
281
               0
  0
CLASS
  1
LAYOUT
  2
AcDbLayout
  3
"AutoCAD 2000"
 90
        1
280
               0
281
               0
  0
CLASS
  1
PLOTSETTINGS
  2
AcDbPlotSettings
  3
"AutoCAD 2000"
 90
        1
280
               0
281
               0
  0
CLASS
  1
ACDBDICTIONARYWDFLT
  2
AcDbDictionaryWithDefault
  3
"AutoCAD 2000"
 90
        1
280
               0
281
               0
  0
CLASS
  1
ACDBPLACEHOLDER
  2
AcDbPlaceHolder
  3
"AutoCAD 2000"
 90
        1
280
               0
281
               0
  0
CLASS
  1
VBA_PROJECT
  2
AcDbVbaProject
  3
"acadvba"
 90
        1
280
               0
281
               0
  0
CLASS
  1
WIPEOUT
  2
AcDbWipeout
  3
WipeOut|AutoCAD Express Tool|expresstools@autodesk.com
 90
      127
280
               0
281
               1
  0
CLASS
  1
WIPEOUTVARIABLES
  2
AcDbWipeoutVariables
  3
WipeOut|AutoCAD Express Tool|expresstools@autodesk.com
 90
        0
280
               0
281
               0
  0
CLASS
  1
RTEXT
  2
RText
  3
RText|AutoCAD Express Tool|expresstools@autodesk.com
 90
        0
280
               0
281
               1
  0
CLASS
  1
ARCALIGNEDTEXT
  2
AcDbArcAlignedText
  3
ATEXT|AutoCAD Express Tool|expresstools@autodesk.com
 90
        0
280
               0
281
               1
  0
ENDSEC
  0
SECTION
  2
TABLES
  0
TABLE
  2
VPORT
  5
7
100
AcDbSymbolTable
 70
               1
  0
VPORT
  5
15
100
AcDbSymbolTableRecord
100
AcDbViewportTableRecord
  2
*ACTIVE
 70
               0
 10
0.0
 20
0.0
 11
1.0
 21
1.0
 12
0.0
 22
0.0
 13
0.0
 23
0.0
 14
1.0
 24
1.0
 15
0.0
 25
0.0
 16
0.0
 26
0.0
 36
1.0
 17
0.0
 27
0.0
 37
0.0
 40
363.60000000000002
 41
1.7320508075688772
 42
50.0
 43
0.0
 44
0.0
 50
0.0
 51
0.0
 71
               0
 72
             100
 73
               1
 74
               1
 75
               0
 76
               0
 77
               0
 78
               0
  0
ENDTAB
  0
TABLE
  2
LTYPE
  5
4
100
AcDbSymbolTable
 70
               4
  0
LTYPE
  5
11
100
AcDbSymbolTableRecord
100
AcDbLinetypeTableRecord
  2
BYBLOCK
 70
              64
  3

 72
              65
 73
               0
 40
0.0
  0
LTYPE
  5
12
100
AcDbSymbolTableRecord
100
AcDbLinetypeTableRecord
  2
BYLAYER
 70
              64
  3

 72
              65
 73
               0
 40
0.0
  0
LTYPE
  5
13
100
AcDbSymbolTableRecord
100
AcDbLinetypeTableRecord
  2
CONTINUOUS
 70
              64
  3
Solid line
 72
              65
 73
               0
 40
0.0
  0
LTYPE
  5
63
100
AcDbSymbolTableRecord
100
AcDbLinetypeTableRecord
  2
CENTER
 70
              64
  3
Center ____ _ ____ _ ____ _ ____ _ ____ _ ____
 72
              65
 73
               4
 40
50.800000000000004
 49
31.75
 74
               0
 49
-6.3499999999999996
 74
               0
 49
6.3499999999999996
 74
               0
 49
-6.3499999999999996
 74
               0
  0
ENDTAB
  0
TABLE
  2
LAYER
  5
2
100
AcDbSymbolTable
 70
               2
  0
LAYER
  5
14
100
AcDbSymbolTableRecord
100
AcDbLayerTableRecord
  2
0
 70
               0
 62
               7
  6
CONTINUOUS
  0
LAYER
  5
1D
100
AcDbSymbolTableRecord
100
AcDbLayerTableRecord
  2
DEFPOINTS
 70
               0
 62
               7
  6
CONTINUOUS
  0
ENDTAB
  0
TABLE
  2
STYLE
  5
3
100
AcDbSymbolTable
 70
               1
  0
STYLE
  5
17
100
AcDbSymbolTableRecord
100
AcDbTextStyleTableRecord
  2
MX_NOTE_STANDARD
 70
               0
 40
3.2000000476837158
 41
1.0
 50
0.0
 71
               0
 42
3.2000000476837158
  3
txt.shx
  4
extfont.shx
  0
ENDTAB
  0
TABLE
  2
VIEW
  5
5
100
AcDbSymbolTable
 70
               0
  0
ENDTAB
  0
TABLE
  2
UCS
  5
6
100
AcDbSymbolTable
 70
               0
  0
ENDTAB
  0
TABLE
  2
APPID
  5
8
100
AcDbSymbolTable
 70
               1
  0
APPID
  5
16
100
AcDbSymbolTableRecord
100
AcDbRegAppTableRecord
  2
ACAD
 70
               0
  0
ENDTAB
  0
TABLE
  2
DIMSTYLE
  5
9
100
AcDbSymbolTable
 70
               1
  0
DIMSTYLE
105
18
100
AcDbSymbolTableRecord
100
AcDbDimStyleTableRecord
  2
MXDIMSTYLE
 70
               0
  3

  4

  5

  6

  7

 40
1.0
 41
2.5
 42
1.5
 43
3.75
 44
1.5
 45
0.0
 46
0.0
 47
0.0
 48
0.0
 71
               0
 72
               0
 73
               0
 74
               0
 75
               0
 76
               0
 77
               1
 78
               8
140
3.2000000476837158
141
2.5
142
0.0
143
0.0394
144
1.0
145
0.0
146
1.0
147
1.0
170
               0
171
               4
172
               1
173
               0
174
               0
175
               0
176
               0
177
               0
178
               0
270
               2
271
               4
272
               4
273
               8
274
               4
275
               0
280
               0
281
               0
282
               0
283
               1
284
               0
285
               0
286
               0
287
               3
288
               1
340
17
  0
ENDTAB
  0
TABLE
  2
BLOCK_RECORD
  5
1
100
AcDbSymbolTable
 70
              32
  0
BLOCK_RECORD
  5
A
100
AcDbSymbolTableRecord
100
AcDbBlockTableRecord
  2
*MODEL_SPACE
  0
BLOCK_RECORD
  5
B
100
AcDbSymbolTableRecord
100
AcDbBlockTableRecord
  2
*PAPER_SPACE
  0
BLOCK_RECORD
  5
1E
100
AcDbSymbolTableRecord
100
AcDbBlockTableRecord
  2
MS_1
  0
BLOCK_RECORD
  5
1F
100
AcDbSymbolTableRecord
100
AcDbBlockTableRecord
  2
MS_2
  0
BLOCK_RECORD
  5
20
100
AcDbSymbolTableRecord
100
AcDbBlockTableRecord
  2
MS_3
  0
BLOCK_RECORD
  5
21
100
AcDbSymbolTableRecord
100
AcDbBlockTableRecord
  2
MS_4
  0
BLOCK_RECORD
  5
22
100
AcDbSymbolTableRecord
100
AcDbBlockTableRecord
  2
MS_5
  0
BLOCK_RECORD
  5
23
100
AcDbSymbolTableRecord
100
AcDbBlockTableRecord
  2
MS_6
  0
BLOCK_RECORD
  5
24
100
AcDbSymbolTableRecord
100
AcDbBlockTableRecord
  2
MS_7
  0
BLOCK_RECORD
  5
25
100
AcDbSymbolTableRecord
100
AcDbBlockTableRecord
  2
MS_8
  0
BLOCK_RECORD
  5
26
100
AcDbSymbolTableRecord
100
AcDbBlockTableRecord
  2
MS_9
  0
BLOCK_RECORD
  5
27
100
AcDbSymbolTableRecord
100
AcDbBlockTableRecord
  2
MS_10
  0
BLOCK_RECORD
  5
28
100
AcDbSymbolTableRecord
100
AcDbBlockTableRecord
  2
MS_11
  0
BLOCK_RECORD
  5
29
100
AcDbSymbolTableRecord
100
AcDbBlockTableRecord
  2
MS_12
  0
BLOCK_RECORD
  5
2A
100
AcDbSymbolTableRecord
100
AcDbBlockTableRecord
  2
MS_13
  0
BLOCK_RECORD
  5
2B
100
AcDbSymbolTableRecord
100
AcDbBlockTableRecord
  2
MS_14
  0
BLOCK_RECORD
  5
2C
100
AcDbSymbolTableRecord
100
AcDbBlockTableRecord
  2
MS_15
  0
BLOCK_RECORD
  5
2D
100
AcDbSymbolTableRecord
100
AcDbBlockTableRecord
  2
MS_16
  0
BLOCK_RECORD
  5
2E
100
AcDbSymbolTableRecord
100
AcDbBlockTableRecord
  2
MS_17
  0
BLOCK_RECORD
  5
2F
100
AcDbSymbolTableRecord
100
AcDbBlockTableRecord
  2
MS_18
  0
BLOCK_RECORD
  5
30
100
AcDbSymbolTableRecord
100
AcDbBlockTableRecord
  2
MS_19
  0
BLOCK_RECORD
  5
31
100
AcDbSymbolTableRecord
100
AcDbBlockTableRecord
  2
MS_20
  0
BLOCK_RECORD
  5
32
100
AcDbSymbolTableRecord
100
AcDbBlockTableRecord
  2
MS_21
  0
BLOCK_RECORD
  5
33
100
AcDbSymbolTableRecord
100
AcDbBlockTableRecord
  2
MS_22
  0
BLOCK_RECORD
  5
34
100
AcDbSymbolTableRecord
100
AcDbBlockTableRecord
  2
MS_23
  0
BLOCK_RECORD
  5
35
100
AcDbSymbolTableRecord
100
AcDbBlockTableRecord
  2
MS_24
  0
BLOCK_RECORD
  5
36
100
AcDbSymbolTableRecord
100
AcDbBlockTableRecord
  2
MS_25
  0
BLOCK_RECORD
  5
37
100
AcDbSymbolTableRecord
100
AcDbBlockTableRecord
  2
MS_26
  0
BLOCK_RECORD
  5
38
100
AcDbSymbolTableRecord
100
AcDbBlockTableRecord
  2
MS_27
  0
BLOCK_RECORD
  5
39
100
AcDbSymbolTableRecord
100
AcDbBlockTableRecord
  2
MS_28
  0
BLOCK_RECORD
  5
3A
100
AcDbSymbolTableRecord
100
AcDbBlockTableRecord
  2
MS_29
  0
BLOCK_RECORD
  5
3B
100
AcDbSymbolTableRecord
100
AcDbBlockTableRecord
  2
MS_30
  0
BLOCK_RECORD
  5
3C
100
AcDbSymbolTableRecord
100
AcDbBlockTableRecord
  2
MS_31
  0
BLOCK_RECORD
  5
3D
100
AcDbSymbolTableRecord
100
AcDbBlockTableRecord
  2
MS_32
  0
ENDTAB
  0
ENDSEC
  0
SECTION
  2
BLOCKS
  0
BLOCK
  5
D
100
AcDbEntity
  8
0
100
AcDbBlockBegin
  2
*MODEL_SPACE
 70
               0
 10
0.0
 20
0.0
 30
0.0
  3
*MODEL_SPACE
  1

  0
ENDBLK
  5
E
100
AcDbEntity
  8
0
100
AcDbBlockEnd
  0
BLOCK
  5
F
100
AcDbEntity
 67
               1
  8
0
100
AcDbBlockBegin
  2
*PAPER_SPACE
 70
               0
 10
0.0
 20
0.0
 30
0.0
  3
*PAPER_SPACE
  1

  0
ENDBLK
  5
10
100
AcDbEntity
 67
               1
  8
0
100
AcDbBlockEnd
  0
BLOCK
  5
3E
100
AcDbEntity
  8
0
100
AcDbBlockBegin
  2
MS_1
 70
               0
 10
0.0
 20
0.0
 30
0.0
  3
MS_1
  1

  0
ARC
  5
3F
100
AcDbEntity
  8
0
  6
CONTINUOUS
 62
               7
100
AcDbCircle
 10
0.0000030517595053
 20
17.149996948240492
 30
0.0
 40
2.7500030517611984
100
AcDbArc
 50
90.000063582816423
 51
179.99993641718297
  0
ARC
  5
40
100
AcDbEntity
  8
0
  6
CONTINUOUS
 62
               7
100
AcDbCircle
 10
0.0000030517601399
 20
17.14999694823986
 30
0.0
 40
2.0000030517624685
100
AcDbArc
 50
90.000087426354455
 51
179.99991257364499
  0
ARC
  5
41
100
AcDbEntity
  8
0
  6
CONTINUOUS
 62
               7
100
AcDbCircle
 10
0.0
 20
7.1812505722045907
 30
0.0
 40
4.9786149645802267
100
AcDbArc
 50
251.49681695994587
 51
288.50318304005293
  0
ARC
  5
42
100
AcDbEntity
  8
0
  6
CONTINUOUS
 62
               7
100
AcDbCircle
 10
-2.3871186152691335
 20
3.5827541475692248
 30
0.0
 40
1.382757149682424
100
AcDbArc
 50
269.88060715958125
 51
305.71137068827818
  0
ARC
  5
43
100
AcDbEntity
  8
0
  6
CONTINUOUS
 62
               7
100
AcDbCircle
 10
2.3871185248359579
 20
3.5827538658350999
 30
0.0
 40
1.3827568681373577
100
AcDbArc
 50
234.2886255402224
 51
270.1193966119157
  0
ARC
  5
44
100
AcDbEntity
  8
0
  6
CONTINUOUS
 62
               7
100
AcDbCircle
 10
-2.387119003190203
 20
11.317244643907443
 30
0.0
 40
1.3827583573948381
100
AcDbArc
 50
54.288645489877254
 51
90.119376662261701
  0
ARC
  5
45
100
AcDbEntity
  8
0
  6
CONTINUOUS
 62
               7
100
AcDbCircle
 10
2.387118912757106
 20
11.317244925641324
 30
0.0
 40
1.3827580758499916
100
AcDbArc
 50
89.880619566249578
 51
125.71135828161073
  0
ARC
  5
46
100
AcDbEntity
  8
0
  6
CONTINUOUS
 62
               7
100
AcDbCircle
 10
0.0
 20
7.7187480926513672
 30
0.0
 40
4.9786162307053852
100
AcDbArc
 50
71.496821836248884
 51
108.50317816375072
  0
LINE
  5
47
100
AcDbEntity
  8
0
  6
CONTINUOUS
 62
               7
100
AcDbLine
 10
2.3100000000000001
 20
14.050000000000001
 30
0.0
 11
2.75
 21
13.300000000000001
 31
0.0
  0
LINE
  5
48
100
AcDbEntity
  8
0
  6
CONTINUOUS
 62
               7
100
AcDbLine
 10
2.3100000000000001
 20
19.149999999999999
 30
0.0
 11
2.75
 21
19.899999999999999
 31
0.0
  0
LINE
  5
49
100
AcDbEntity
  8
0
  6
CONTINUOUS
 62
               7
100
AcDbLine
 10
2.3100000000000001
 20
19.149999999999999
 30
0.0
 11
2.3100000000000001
 21
14.050000000000001
 31
0.0
  0
LINE
  5
4A
100
AcDbEntity
  8
0
  6
CONTINUOUS
 62
               7
100
AcDbLine
 10
0.0
 20
19.899999999999999
 30
0.0
 11
6.5
 21
19.899999999999999
 31
0.0
  0
LINE
  5
4B
100
AcDbEntity
  8
0
  6
CONTINUOUS
 62
               7
100
AcDbLine
 10
-2.75
 20
13.300000000000001
 30
0.0
 11
6.5
 21
13.300000000000001
 31
0.0
  0
LINE
  5
4C
100
AcDbEntity
  8
0
  6
CONTINUOUS
 62
               7
100
AcDbLine
 10
6.5
 20
13.300000000000001
 30
0.0
 11
8.0
 21
13.85
 31
0.0
  0
LINE
  5
4D
100
AcDbEntity
  8
0
  6
CONTINUOUS
 62
               7
100
AcDbLine
 10
6.5
 20
19.899999999999999
 30
0.0
 11
6.5
 21
13.300000000000001
 31
0.0
  0
LINE
  5
4E
100
AcDbEntity
  8
0
  6
CONTINUOUS
 62
               7
100
AcDbLine
 10
6.5
 20
19.899999999999999
 30
0.0
 11
8.0
 21
19.350000000000001
 31
0.0
  0
LINE
  5
4F
100
AcDbEntity
  8
0
  6
CONTINUOUS
 62
               7
100
AcDbLine
 10
8.0
 20
19.350000000000001
 30
0.0
 11
8.0
 21
13.85
 31
0.0
  0
LINE
  5
50
100
AcDbEntity
  8
0
  6
CONTINUOUS
 62
               7
100
AcDbLine
 10
8.0
 20
19.350000000000001
 30
0.0
 11
9.1999999999999993
 21
19.350000000000001
 31
0.0
  0
LINE
  5
51
100
AcDbEntity
  8
0
  6
CONTINUOUS
 62
               7
100
AcDbLine
 10
9.1999999999999993
 20
19.350000000000001
 30
0.0
 11
9.1999999999999993
 21
13.85
 31
0.0
  0
LINE
  5
52
100
AcDbEntity
  8
0
  6
CONTINUOUS
 62
               7
100
AcDbLine
 10
8.0
 20
13.85
 30
0.0
 11
9.1999999999999993
 21
13.85
 31
0.0
  0
LINE
  5
53
100
AcDbEntity
  8
0
  6
CONTINUOUS
 62
               7
100
AcDbLine
 10
9.5999999999999996
 20
13.1
 30
0.0
 11
10.800000000000001
 21
13.1
 31
0.0
  0
LINE
  5
54
100
AcDbEntity
  8
0
  6
CONTINUOUS
 62
               7
100
AcDbLine
 10
9.1999999999999993
 20
14.6
 30
0.0
 11
9.5999999999999996
 21
14.6
 31
0.0
  0
LINE
  5
55
100
AcDbEntity
  8
0
  6
CONTINUOUS
 62
               7
100
AcDbLine
 10
9.1999999999999993
 20
18.600000000000001
 30
0.0
 11
9.5999999999999996
 21
18.600000000000001
 31
0.0
  0
LINE
  5
56
100
AcDbEntity
  8
0
  6
CONTINUOUS
 62
               7
100
AcDbLine
 10
9.5999999999999996
 20
20.100000000000001
 30
0.0
 11
9.5999999999999996
 21
13.1
 31
0.0
  0
LINE
  5
57
100
AcDbEntity
  8
0
  6
CONTINUOUS
 62
               7
100
AcDbLine
 10
10.800000000000001
 20
20.100000000000001
 30
0.0
 11
10.800000000000001
 21
13.1
 31
0.0
  0
LINE
  5
58
100
AcDbEntity
  8
0
  6
CONTINUOUS
 62
               7
100
AcDbLine
 10
9.5999999999999996
 20
20.100000000000001
 30
0.0
 11
10.800000000000001
 21
20.100000000000001
 31
0.0
  0
LINE
  5
59
100
AcDbEntity
  8
0
  6
CONTINUOUS
 62
               7
100
AcDbLine
 10
2.75
 20
13.300000000000001
 30
0.0
 11
2.0
 21
13.73
 31
0.0
  0
LINE
  5
5A
100
AcDbEntity
  8
0
  6
CONTINUOUS
 62
               7
100
AcDbLine
 10
-2.75
 20
13.300000000000001
 30
0.0
 11
-2.0
 21
13.73
 31
0.0
  0
LINE
  5
5B
100
AcDbEntity
  8
0
  6
CONTINUOUS
 62
               7
100
AcDbLine
 10
0.0
 20
16.600000000000001
 30
0.0
 11
2.0
 21
14.050000000000001
 31
0.0
  0
LINE
  5
5C
100
AcDbEntity
  8
0
  6
CONTINUOUS
 62
               7
100
AcDbLine
 10
2.0
 20
13.73
 30
0.0
 11
2.0
 21
14.050000000000001
 31
0.0
  0
LINE
  5
5D
100
AcDbEntity
  8
0
  6
CONTINUOUS
 62
               7
100
AcDbLine
 10
2.0
 20
14.050000000000001
 30
0.0
 11
2.3100000000000001
 21
14.050000000000001
 31
0.0
  0
LINE
  5
5E
100
AcDbEntity
  8
0
  6
CONTINUOUS
 62
               7
100
AcDbLine
 10
-2.0
 20
13.73
 30
0.0
 11
2.0
 21
13.73
 31
0.0
  0
LINE
  5
5F
100
AcDbEntity
  8
0
  6
CONTINUOUS
 62
               7
100
AcDbLine
 10
0.0
 20
19.149999999999999
 30
0.0
 11
2.3100000000000001
 21
19.149999999999999
 31
0.0
  0
LINE
  5
60
100
AcDbEntity
  8
0
  6
CONTINUOUS
 62
               7
100
AcDbLine
 10
2.75
 20
12.699999999999999
 30
0.0
 11
2.75
 21
19.899999999999999
 31
0.0
  0
LINE
  5
61
100
AcDbEntity
  8
0
  6
CONTINUOUS
 62
               7
100
AcDbLine
 10
-2.75
 20
12.699999999999999
 30
0.0
 11
-2.75
 21
17.149999999999999
 31
0.0
  0
LINE
  5
62
100
AcDbEntity
  8
0
  6
CONTINUOUS
 62
               7
100
AcDbLine
 10
-2.0
 20
13.73
 30
0.0
 11
-2.0
 21
17.149999999999999
 31
0.0
  0
LINE
  5
64
100
AcDbEntity
  8
0
  6
CENTER
 62
               2
100
AcDbLine
 10
-3.6400000000000001
 20
16.600000000000001
 30
0.0
 11
11.800000000000001
 21
16.600000000000001
 31
0.0
  0
LINE
  5
65
100
AcDbEntity
  8
0
  6
CONTINUOUS
 62
               7
100
AcDbLine
 10
-2.75
 20
0.0
 30
0.0
 11
2.75
 21
0.0
 31
0.0
  0
LINE
  5
66
100
AcDbEntity
  8
0
  6
CONTINUOUS
 62
               7
100
AcDbLine
 10
-2.75
 20
0.7
 30
0.0
 11
2.75
 21
0.7
 31
0.0
  0
LINE
  5
67
100
AcDbEntity
  8
0
  6
CONTINUOUS
 62
               7
100
AcDbLine
 10
-2.75
 20
2.2000000000000002
 30
0.0
 11
-3.2000000000000002
 21
2.46
 31
0.0
  0
LINE
  5
68
100
AcDbEntity
  8
0
  6
CONTINUOUS
 62
               7
100
AcDbLine
 10
2.75
 20
2.2000000000000002
 30
0.0
 11
3.2000000000000002
 21
2.46
 31
0.0
  0
LINE
  5
69
100
AcDbEntity
  8
0
  6
CONTINUOUS
 62
               7
100
AcDbLine
 10
-2.75
 20
12.699999999999999
 30
0.0
 11
-3.2000000000000002
 21
12.44
 31
0.0
  0
LINE
  5
6A
100
AcDbEntity
  8
0
  6
CONTINUOUS
 62
               7
100
AcDbLine
 10
2.75
 20
12.699999999999999
 30
0.0
 11
3.2000000000000002
 21
12.44
 31
0.0
  0
LINE
  5
6B
100
AcDbEntity
  8
0
  6
CONTINUOUS
 62
               7
100
AcDbLine
 10
-1.5800000000000001
 20
2.46
 30
0.0
 11
-1.5800000000000001
 21
12.44
 31
0.0
  0
LINE
  5
6C
100
AcDbEntity
  8
0
  6
CONTINUOUS
 62
               7
100
AcDbLine
 10
1.5800000000000001
 20
2.46
 30
0.0
 11
1.5800000000000001
 21
12.44
 31
0.0
  0
LINE
  5
6D
100
AcDbEntity
  8
0
  6
CONTINUOUS
 62
               7
100
AcDbLine
 10
-2.75
 20
2.2000000000000002
 30
0.0
 11
2.75
 21
2.2000000000000002
 31
0.0
  0
LINE
  5
6E
100
AcDbEntity
  8
0
  6
CONTINUOUS
 62
               7
100
AcDbLine
 10
-2.75
 20
12.699999999999999
 30
0.0
 11
2.75
 21
12.699999999999999
 31
0.0
  0
LINE
  5
6F
100
AcDbEntity
  8
0
  6
CONTINUOUS
 62
               7
100
AcDbLine
 10
3.2000000000000002
 20
2.46
 30
0.0
 11
3.2000000000000002
 21
12.44
 31
0.0
  0
LINE
  5
70
100
AcDbEntity
  8
0
  6
CONTINUOUS
 62
               7
100
AcDbLine
 10
-3.2000000000000002
 20
2.46
 30
0.0
 11
-3.2000000000000002
 21
12.44
 31
0.0
  0
LINE
  5
71
100
AcDbEntity
  8
0
  6
CONTINUOUS
 62
               7
100
AcDbLine
 10
-2.75
 20
0.0
 30
0.0
 11
-2.75
 21
2.2000000000000002
 31
0.0
  0
LINE
  5
72
100
AcDbEntity
  8
0
  6
CONTINUOUS
 62
               7
100
AcDbLine
 10
2.75
 20
0.0
 30
0.0
 11
2.75
 21
2.2000000000000002
 31
0.0
  0
LINE
  5
73
100
AcDbEntity
  8
0
  6
CONTINUOUS
 62
               2
100
AcDbLine
 10
-1.22
 20
-2.3999999999999999
 30
0.0
 11
-1.22
 21
0.0
 31
0.0
  0
LINE
  5
74
100
AcDbEntity
  8
0
  6
CONTINUOUS
 62
               2
100
AcDbLine
 10
1.22
 20
-2.3999999999999999
 30
0.0
 11
1.22
 21
0.0
 31
0.0
  0
LINE
  5
75
100
AcDbEntity
  8
0
  6
CONTINUOUS
 62
               7
100
AcDbLine
 10
-1.5
 20
-2.3999999999999999
 30
0.0
 11
-1.5
 21
0.0
 31
0.0
  0
LINE
  5
76
100
AcDbEntity
  8
0
  6
CONTINUOUS
 62
               7
100
AcDbLine
 10
1.5
 20
-2.3999999999999999
 30
0.0
 11
1.5
 21
0.0
 31
0.0
  0
LINE
  5
77
100
AcDbEntity
  8
0
  6
CENTER
 62
               2
100
AcDbLine
 10
0.0
 20
-3.9300000000000002
 30
0.0
 11
0.0
 21
21.66
 31
0.0
  0
LINE
  5
78
100
AcDbEntity
  8
0
  6
CONTINUOUS
 62
               7
100
AcDbLine
 10
-1.5
 20
-2.3999999999999999
 30
0.0
 11
1.5
 21
-2.3999999999999999
 31
0.0
  0
ENDBLK
  5
79
100
AcDbEntity
  8
0
100
AcDbBlockEnd
  0
BLOCK
  5
7A
100
AcDbEntity
  8
0
100
AcDbBlockBegin
  2
MS_2
 70
               0
 10
0.0
 20
0.0
 30
0.0
  3
MS_2
  1

  0
ARC
  5
7B
100
AcDbEntity
  8
0
  6
CONTINUOUS
 62
               7
100
AcDbCircle
 10
0.0040570785687867
 20
-0.0031465589081612
 30
0.0
 40
1.9968575625434157
100
AcDbArc
 50
194.40755887533339
 51
269.88359027532476
  0
ARC
  5
7C
100
AcDbEntity
  8
0
  6
CONTINUOUS
 62
               7
100
AcDbCircle
 10
0.0040570785687867
 20
0.0031465589081612
 30
0.0
 40
1.9968575625434157
100
AcDbArc
 50
90.116409724674455
 51
165.59244112466581
  0
ARC
  5
7D
100
AcDbEntity
  8
0
  6
CONTINUOUS
 62
               7
100
AcDbCircle
 10
0.0000000000000002
 20
0.0
 30
0.0
 40
2.7475807540452744
100
AcDbArc
 50
58.392497753750966
 51
301.6075022462482
  0
LINE
  5
7E
100
AcDbEntity
  8
0
  6
CONTINUOUS
 62
               7
100
AcDbLine
 10
2.75
 20
-0.5
 30
0.0
 11
2.75
 21
-3.2999999999999998
 31
0.0
  0
LINE
  5
7F
100
AcDbEntity
  8
0
  6
CONTINUOUS
 62
               7
100
AcDbLine
 10
2.3100000000000001
 20
-2.5499999999999998
 30
0.0
 11
2.3100000000000001
 21
-0.5
 31
0.0
  0
LINE
  5
80
100
AcDbEntity
  8
0
  6
CONTINUOUS
 62
               7
100
AcDbLine
 10
-2.7000000000000002
 20
-0.5
 30
0.0
 11
2.75
 21
-0.5
 31
0.0
  0
LINE
  5
81
100
AcDbEntity
  8
0
  6
CONTINUOUS
 62
               7
100
AcDbLine
 10
-2.7000000000000002
 20
0.5
 30
0.0
 11
2.75
 21
0.5
 31
0.0
  0
LINE
  5
82
100
AcDbEntity
  8
0
  6
CONTINUOUS
 62
               7
100
AcDbLine
 10
0.0
 20
2.0
 30
0.0
 11
2.3100000000000001
 21
2.5499999999999998
 31
0.0
  0
LINE
  5
83
100
AcDbEntity
  8
0
  6
CONTINUOUS
 62
               7
100
AcDbLine
 10
0.0
 20
-2.0
 30
0.0
 11
2.3100000000000001
 21
-2.5499999999999998
 31
0.0
  0
LINE
  5
84
100
AcDbEntity
  8
0
  6
CONTINUOUS
 62
               7
100
AcDbLine
 10
2.75
 20
3.2999999999999998
 30
0.0
 11
2.75
 21
0.5
 31
0.0
  0
LINE
  5
85
100
AcDbEntity
  8
0
  6
CONTINUOUS
 62
               7
100
AcDbLine
 10
-1.5800000000000001
 20
-2.75
 30
0.0
 11
1.5800000000000001
 21
-2.75
 31
0.0
  0
LINE
  5
86
100
AcDbEntity
  8
0
  6
CONTINUOUS
 62
               7
100
AcDbLine
 10
-3.1699999999999999
 20
0.0
 30
0.0
 11
-1.5800000000000001
 21
-2.75
 31
0.0
  0
LINE
  5
87
100
AcDbEntity
  8
0
  6
CONTINUOUS
 62
               7
100
AcDbLine
 10
-1.5800000000000001
 20
2.75
 30
0.0
 11
-3.1699999999999999
 21
0.0
 31
0.0
  0
LINE
  5
88
100
AcDbEntity
  8
0
  6
CONTINUOUS
 62
               7
100
AcDbLine
 10
1.5800000000000001
 20
2.75
 30
0.0
 11
-1.5800000000000001
 21
2.75
 31
0.0
  0
LINE
  5
89
100
AcDbEntity
  8
0
  6
CONTINUOUS
 62
               7
100
AcDbLine
 10
1.77
 20
2.4199999999999999
 30
0.0
 11
1.5800000000000001
 21
2.75
 31
0.0
  0
LINE
  5
8A
100
AcDbEntity
  8
0
  6
CONTINUOUS
 62
               7
100
AcDbLine
 10
1.5800000000000001
 20
-2.75
 30
0.0
 11
1.77
 21
-2.4199999999999999
 31
0.0
  0
LINE
  5
8B
100
AcDbEntity
  8
0
  6
CENTER
 62
               2
100
AcDbLine
 10
0.0
 20
4.2699999999999996
 30
0.0
 11
0.0
 21
-4.1100000000000003
 31
0.0
  0
LINE
  5
8C
100
AcDbEntity
  8
0
  6
CENTER
 62
               2
100
AcDbLine
 10
-4.1299999999999999
 20
0.0
 30
0.0
 11
11.800000000000001
 21
0.0
 31
0.0
  0
LINE
  5
8D
100
AcDbEntity
  8
0
  6
CONTINUOUS
 62
               7
100
AcDbLine
 10
2.3100000000000001
 20
-2.5499999999999998
 30
0.0
 11
2.75
 21
-3.2999999999999998
 31
0.0
  0
LINE
  5
8E
100
AcDbEntity
  8
0
  6
CONTINUOUS
 62
               7
100
AcDbLine
 10
2.3100000000000001
 20
2.5499999999999998
 30
0.0
 11
2.3100000000000001
 21
0.5
 31
0.0
  0
LINE
  5
8F
100
AcDbEntity
  8
0
  6
CONTINUOUS
 62
               7
100
AcDbLine
 10
2.3100000000000001
 20
2.5499999999999998
 30
0.0
 11
2.75
 21
3.2999999999999998
 31
0.0
  0
LINE
  5
90
100
AcDbEntity
  8
0
  6
CONTINUOUS
 62
               7
100
AcDbLine
 10
2.75
 20
3.2999999999999998
 30
0.0
 11
6.5
 21
3.2999999999999998
 31
0.0
  0
LINE
  5
91
100
AcDbEntity
  8
0
  6
CONTINUOUS
 62
               7
100
AcDbLine
 10
6.5
 20
-3.2999999999999998
 30
0.0
 11
8.0
 21
-2.75
 31
0.0
  0
LINE
  5
92
100
AcDbEntity
  8
0
  6
CONTINUOUS
 62
               7
100
AcDbLine
 10
6.5
 20
3.2999999999999998
 30
0.0
 11
8.0
 21
2.75
 31
0.0
  0
LINE
  5
93
100
AcDbEntity
  8
0
  6
CONTINUOUS
 62
               7
100
AcDbLine
 10
6.5
 20
3.2999999999999998
 30
0.0
 11
6.5
 21
-3.2999999999999998
 31
0.0
  0
LINE
  5
94
100
AcDbEntity
  8
0
  6
CONTINUOUS
 62
               7
100
AcDbLine
 10
8.0
 20
2.75
 30
0.0
 11
8.0
 21
-2.75
 31
0.0
  0
LINE
  5
95
100
AcDbEntity
  8
0
  6
CONTINUOUS
 62
               7
100
AcDbLine
 10
2.75
 20
-3.2999999999999998
 30
0.0
 11
6.5
 21
-3.2999999999999998
 31
0.0
  0
LINE
  5
96
100
AcDbEntity
  8
0
  6
CONTINUOUS
 62
               7
100
AcDbLine
 10
9.1999999999999993
 20
2.75
 30
0.0
 11
9.1999999999999993
 21
-2.75
 31
0.0
  0
LINE
  5
97
100
AcDbEntity
  8
0
  6
CONTINUOUS
 62
               7
100
AcDbLine
 10
9.1999999999999993
 20
-2.0
 30
0.0
 11
9.5999999999999996
 21
-2.0
 31
0.0
  0
LINE
  5
98
100
AcDbEntity
  8
0
  6
CONTINUOUS
 62
               7
100
AcDbLine
 10
9.1999999999999993
 20
2.0
 30
0.0
 11
9.5999999999999996
 21
2.0
 31
0.0
  0
LINE
  5
99
100
AcDbEntity
  8
0
  6
CONTINUOUS
 62
               7
100
AcDbLine
 10
8.0
 20
-2.75
 30
0.0
 11
9.1999999999999993
 21
-2.75
 31
0.0
  0
LINE
  5
9A
100
AcDbEntity
  8
0
  6
CONTINUOUS
 62
               7
100
AcDbLine
 10
8.0
 20
2.75
 30
0.0
 11
9.1999999999999993
 21
2.75
 31
0.0
  0
LINE
  5
9B
100
AcDbEntity
  8
0
  6
CONTINUOUS
 62
               7
100
AcDbLine
 10
9.5999999999999996
 20
3.5
 30
0.0
 11
9.5999999999999996
 21
-3.5
 31
0.0
  0
LINE
  5
9C
100
AcDbEntity
  8
0
  6
CONTINUOUS
 62
               7
100
AcDbLine
 10
9.5999999999999996
 20
3.5
 30
0.0
 11
10.800000000000001
 21
3.5
 31
0.0
  0
LINE
  5
9D
100
AcDbEntity
  8
0
  6
CONTINUOUS
 62
               7
100
AcDbLine
 10
10.800000000000001
 20
3.5
 30
0.0
 11
10.800000000000001
 21
-3.5
 31
0.0
  0
LINE
  5
9E
100
AcDbEntity
  8
0
  6
CONTINUOUS
 62
               7
100
AcDbLine
 10
9.5999999999999996
 20
-3.5
 30
0.0
 11
10.800000000000001
 21
-3.5
 31
0.0
  0
ENDBLK
  5
9F
100
AcDbEntity
  8
0
100
AcDbBlockEnd
  0
BLOCK
  5
A0
100
AcDbEntity
  8
0
100
AcDbBlockBegin
  2
MS_3
 70
               0
 10
0.0
 20
0.0
 30
0.0
  3
MS_3
  1

  0
ARC
  5
A1
100
AcDbEntity
  8
0
  6
CONTINUOUS
 62
               7
100
AcDbCircle
 10
0.0002401419840103
 20
17.163690831430937
 30
0.0
 40
1.9997632639812104
100
AcDbArc
 50
359.89425289095243
 51
75.527842461826296
  0
ARC
  5
A2
100
AcDbEntity
  8
0
  6
CONTINUOUS
 62
               7
100
AcDbCircle
 10
-0.0002401419840103
 20
17.163690831430937
 30
0.0
 40
1.9997632639812104
100
AcDbArc
 50
104.47215753817332
 51
180.10574710904635
  0
ARC
  5
A3
100
AcDbEntity
  8
0
  6
CONTINUOUS
 62
               7
100
AcDbCircle
 10
-0.0011065391066747
 20
16.596970613364306
 30
0.0
 40
2.552263856987357
100
AcDbArc
 50
101.27223694776555
 51
218.44692404352273
  0
ARC
  5
A4
100
AcDbEntity
  8
0
  6
CONTINUOUS
 62
               7
100
AcDbCircle
 10
0.0
 20
16.599990844726562
 30
0.0
 40
3.3040659562644228
100
AcDbArc
 50
307.25149753591296
 51
232.74850246408582
  0
ARC
  5
A5
100
AcDbEntity
  8
0
  6
CONTINUOUS
 62
               7
100
AcDbCircle
 10
-1.375
 20
8.9316043853759766
 30
0.0
 40
3.7682177204499578
100
AcDbArc
 50
68.5989411724848
 51
111.40105882751482
  0
ARC
  5
A6
100
AcDbEntity
  8
0
  6
CONTINUOUS
 62
               7
100
AcDbCircle
 10
1.375
 20
8.9316043853759766
 30
0.0
 40
3.7682177204499578
100
AcDbArc
 50
68.5989411724848
 51
111.40105882751482
  0
ARC
  5
A7
100
AcDbEntity
  8
0
  6
CONTINUOUS
 62
               7
100
AcDbCircle
 10
-1.375
 20
5.9683952331542969
 30
0.0
 40
3.7682173652829256
100
AcDbArc
 50
248.59893905600774
 51
291.40106094399101
  0
ARC
  5
A8
100
AcDbEntity
  8
0
  6
CONTINUOUS
 62
               7
100
AcDbCircle
 10
1.375
 20
5.9683952331542969
 30
0.0
 40
3.7682173652829256
100
AcDbArc
 50
248.59893905600774
 51
291.40106094399101
  0
ARC
  5
A9
100
AcDbEntity
  8
0
  6
CONTINUOUS
 62
               7
100
AcDbCircle
 10
0.0011065391066747
 20
16.596970613364306
 30
0.0
 40
2.552263856987357
100
AcDbArc
 50
321.55307595647605
 51
78.727763052234067
  0
ARC
  5
AA
100
AcDbEntity
  8
0
  6
CONTINUOUS
 62
               7
100
AcDbCircle
 10
0.0
 20
17.099990844726563
 30
0.0
 40
2.9982878496536465
100
AcDbArc
 50
33.160203392738929
 51
146.83979660726067
  0
LINE
  5
AB
100
AcDbEntity
  8
0
  6
CONTINUOUS
 62
               7
100
AcDbLine
 10
0.5
 20
13.73
 30
0.0
 11
2.0
 21
13.73
 31
0.0
  0
LINE
  5
AC
100
AcDbEntity
  8
0
  6
CONTINUOUS
 62
               7
100
AcDbLine
 10
-0.5
 20
13.300000000000001
 30
0.0
 11
-2.75
 21
13.300000000000001
 31
0.0
  0
LINE
  5
AD
100
AcDbEntity
  8
0
  6
CONTINUOUS
 62
               7
100
AcDbLine
 10
-0.5
 20
13.300000000000001
 30
0.0
 11
-0.5
 21
19.859999999999999
 31
0.0
  0
LINE
  5
AE
100
AcDbEntity
  8
0
  6
CONTINUOUS
 62
               7
100
AcDbLine
 10
0.5
 20
13.300000000000001
 30
0.0
 11
0.5
 21
19.859999999999999
 31
0.0
  0
LINE
  5
AF
100
AcDbEntity
  8
0
  6
CONTINUOUS
 62
               7
100
AcDbLine
 10
-2.0
 20
13.73
 30
0.0
 11
-0.5
 21
13.73
 31
0.0
  0
LINE
  5
B0
100
AcDbEntity
  8
0
  6
CONTINUOUS
 62
               7
100
AcDbLine
 10
-2.0
 20
13.73
 30
0.0
 11
-2.0
 21
17.16
 31
0.0
  0
LINE
  5
B1
100
AcDbEntity
  8
0
  6
CONTINUOUS
 62
               7
100
AcDbLine
 10
2.0
 20
13.73
 30
0.0
 11
2.0
 21
17.16
 31
0.0
  0
LINE
  5
B2
100
AcDbEntity
  8
0
  6
CONTINUOUS
 62
               7
100
AcDbLine
 10
2.75
 20
13.300000000000001
 30
0.0
 11
0.5
 21
13.300000000000001
 31
0.0
  0
LINE
  5
B3
100
AcDbEntity
  8
0
  6
CONTINUOUS
 62
               7
100
AcDbLine
 10
0.0
 20
2.46
 30
0.0
 11
0.0
 21
12.44
 31
0.0
  0
LINE
  5
B4
100
AcDbEntity
  8
0
  6
CONTINUOUS
 62
               7
100
AcDbLine
 10
-2.75
 20
0.7
 30
0.0
 11
2.75
 21
0.7
 31
0.0
  0
LINE
  5
B5
100
AcDbEntity
  8
0
  6
CONTINUOUS
 62
               7
100
AcDbLine
 10
-2.75
 20
0.0
 30
0.0
 11
2.75
 21
0.0
 31
0.0
  0
LINE
  5
B6
100
AcDbEntity
  8
0
  6
CONTINUOUS
 62
               7
100
AcDbLine
 10
-2.75
 20
2.2000000000000002
 30
0.0
 11
2.75
 21
2.2000000000000002
 31
0.0
  0
LINE
  5
B7
100
AcDbEntity
  8
0
  6
CONTINUOUS
 62
               7
100
AcDbLine
 10
-2.75
 20
12.699999999999999
 30
0.0
 11
2.75
 21
12.699999999999999
 31
0.0
  0
LINE
  5
B8
100
AcDbEntity
  8
0
  6
CONTINUOUS
 62
               7
100
AcDbLine
 10
-2.75
 20
0.0
 30
0.0
 11
-2.75
 21
13.300000000000001
 31
0.0
  0
LINE
  5
B9
100
AcDbEntity
  8
0
  6
CONTINUOUS
 62
               7
100
AcDbLine
 10
2.75
 20
0.0
 30
0.0
 11
2.75
 21
13.300000000000001
 31
0.0
  0
LINE
  5
BA
100
AcDbEntity
  8
0
  6
CONTINUOUS
 62
               2
100
AcDbLine
 10
-1.22
 20
-2.3999999999999999
 30
0.0
 11
-1.22
 21
0.0
 31
0.0
  0
LINE
  5
BB
100
AcDbEntity
  8
0
  6
CONTINUOUS
 62
               2
100
AcDbLine
 10
1.22
 20
-2.3999999999999999
 30
0.0
 11
1.22
 21
0.0
 31
0.0
  0
LINE
  5
BC
100
AcDbEntity
  8
0
  6
CONTINUOUS
 62
               7
100
AcDbLine
 10
-1.5
 20
-2.3999999999999999
 30
0.0
 11
-1.5
 21
0.0
 31
0.0
  0
LINE
  5
BD
100
AcDbEntity
  8
0
  6
CONTINUOUS
 62
               7
100
AcDbLine
 10
1.5
 20
-2.3999999999999999
 30
0.0
 11
1.5
 21
0.0
 31
0.0
  0
LINE
  5
BE
100
AcDbEntity
  8
0
  6
CONTINUOUS
 62
               7
100
AcDbLine
 10
-1.5
 20
-2.3999999999999999
 30
0.0
 11
1.5
 21
-2.3999999999999999
 31
0.0
  0
LINE
  5
BF
100
AcDbEntity
  8
0
  6
CONTINUOUS
 62
               7
100
AcDbLine
 10
2.75
 20
13.300000000000001
 30
0.0
 11
2.0
 21
13.73
 31
0.0
  0
LINE
  5
C0
100
AcDbEntity
  8
0
  6
CONTINUOUS
 62
               7
100
AcDbLine
 10
-2.75
 20
13.300000000000001
 30
0.0
 11
-2.0
 21
13.73
 31
0.0
  0
LINE
  5
C1
100
AcDbEntity
  8
0
  6
CENTER
 62
               2
100
AcDbLine
 10
4.2300000000000004
 20
16.600000000000001
 30
0.0
 11
-4.2300000000000004
 21
16.600000000000001
 31
0.0
  0
LINE
  5
C2
100
AcDbEntity
  8
0
  6
CENTER
 62
               2
100
AcDbLine
 10
0.0
 20
-3.8799999999999999
 30
0.0
 11
0.0
 21
21.620000000000001
 31
0.0
  0
ENDBLK
  5
C3
100
AcDbEntity
  8
0
100
AcDbBlockEnd
  0
BLOCK
  5
C4
100
AcDbEntity
  8
0
100
AcDbBlockBegin
  2
MS_4
 70
               0
 10
0.0
 20
0.0
 30
0.0
  3
MS_4
  1

  0
ARC
  5
C5
100
AcDbEntity
  8
0
  6
CONTINUOUS
 62
               7
100
AcDbCircle
 10
0.0000000000096687
 20
16.600000000000001
 30
0.0
 40
3.2984390247583066
100
AcDbArc
 50
139.54943379269415
 51
220.45056620730509
  0
ARC
  5
C6
100
AcDbEntity
  8
0
  6
CONTINUOUS
 62
               7
100
AcDbCircle
 10
0.0
 20
16.100000000000001
 30
0.0
 40
3.0000000000139697
100
AcDbArc
 50
179.9999999999996
 51
0.0
  0
ARC
  5
C7
100
AcDbEntity
  8
0
  6
CONTINUOUS
 62
               7
100
AcDbCircle
 10
0.0
 20
17.100000000000001
 30
0.0
 40
3.0000000000139697
100
AcDbArc
 50
0.0
 51
179.9999999999996
  0
ARC
  5
C8
100
AcDbEntity
  8
0
  6
CONTINUOUS
 62
               7
100
AcDbCircle
 10
-0.0000000000096687
 20
16.600000000000001
 30
0.0
 40
3.2984390247583066
100
AcDbArc
 50
319.54943379269372
 51
40.450566207305435
  0
ARC
  5
C9
100
AcDbEntity
  8
0
  6
CONTINUOUS
 62
               7
100
AcDbCircle
 10
-1.375
 20
8.9316043853759766
 30
0.0
 40
3.7682177204499578
100
AcDbArc
 50
68.5989411724848
 51
111.40105882751482
  0
ARC
  5
CA
100
AcDbEntity
  8
0
  6
CONTINUOUS
 62
               7
100
AcDbCircle
 10
1.375
 20
8.9316043853759766
 30
0.0
 40
3.7682177204499578
100
AcDbArc
 50
68.5989411724848
 51
111.40105882751482
  0
ARC
  5
CB
100
AcDbEntity
  8
0
  6
CONTINUOUS
 62
               7
100
AcDbCircle
 10
-1.375
 20
5.9683952331542969
 30
0.0
 40
3.7682173652829256
100
AcDbArc
 50
248.59893905600774
 51
291.40106094399101
  0
ARC
  5
CC
100
AcDbEntity
  8
0
  6
CONTINUOUS
 62
               7
100
AcDbCircle
 10
1.375
 20
5.9683952331542969
 30
0.0
 40
3.7682173652829256
100
AcDbArc
 50
248.59893905600774
 51
291.40106094399101
  0
CIRCLE
  5
CD
100
AcDbEntity
  8
0
  6
CONTINUOUS
 62
               7
100
AcDbCircle
 10
0.0
 20
16.599990844726562
 30
0.0
 40
1.5
  0
LINE
  5
CE
100
AcDbEntity
  8
0
  6
CONTINUOUS
 62
               7
100
AcDbLine
 10
2.0
 20
13.859999999999999
 30
0.0
 11
2.0
 21
13.73
 31
0.0
  0
LINE
  5
CF
100
AcDbEntity
  8
0
  6
CONTINUOUS
 62
               7
100
AcDbLine
 10
-2.0
 20
13.859999999999999
 30
0.0
 11
-2.0
 21
13.73
 31
0.0
  0
LINE
  5
D0
100
AcDbEntity
  8
0
  6
CONTINUOUS
 62
               7
100
AcDbLine
 10
1.8400000000000001
 20
13.73
 30
0.0
 11
2.0
 21
13.73
 31
0.0
  0
LINE
  5
D1
100
AcDbEntity
  8
0
  6
CONTINUOUS
 62
               7
100
AcDbLine
 10
-1.0700000000000001
 20
13.300000000000001
 30
0.0
 11
-2.75
 21
13.300000000000001
 31
0.0
  0
LINE
  5
D2
100
AcDbEntity
  8
0
  6
CONTINUOUS
 62
               7
100
AcDbLine
 10
-3.0
 20
17.100000000000001
 30
0.0
 11
-3.0
 21
16.100000000000001
 31
0.0
  0
LINE
  5
D3
100
AcDbEntity
  8
0
  6
CONTINUOUS
 62
               7
100
AcDbLine
 10
3.0
 20
17.100000000000001
 30
0.0
 11
3.0
 21
16.100000000000001
 31
0.0
  0
LINE
  5
D4
100
AcDbEntity
  8
0
  6
CONTINUOUS
 62
               7
100
AcDbLine
 10
-2.0
 20
13.73
 30
0.0
 11
-1.8400000000000001
 21
13.73
 31
0.0
  0
LINE
  5
D5
100
AcDbEntity
  8
0
  6
CONTINUOUS
 62
               7
100
AcDbLine
 10
2.75
 20
13.300000000000001
 30
0.0
 11
1.0700000000000001
 21
13.300000000000001
 31
0.0
  0
LINE
  5
D6
100
AcDbEntity
  8
0
  6
CONTINUOUS
 62
               7
100
AcDbLine
 10
0.0
 20
2.46
 30
0.0
 11
0.0
 21
12.44
 31
0.0
  0
LINE
  5
D7
100
AcDbEntity
  8
0
  6
CONTINUOUS
 62
               7
100
AcDbLine
 10
-2.75
 20
0.7
 30
0.0
 11
2.75
 21
0.7
 31
0.0
  0
LINE
  5
D8
100
AcDbEntity
  8
0
  6
CONTINUOUS
 62
               7
100
AcDbLine
 10
-2.75
 20
0.0
 30
0.0
 11
2.75
 21
0.0
 31
0.0
  0
LINE
  5
D9
100
AcDbEntity
  8
0
  6
CONTINUOUS
 62
               7
100
AcDbLine
 10
-2.75
 20
2.2000000000000002
 30
0.0
 11
2.75
 21
2.2000000000000002
 31
0.0
  0
LINE
  5
DA
100
AcDbEntity
  8
0
  6
CONTINUOUS
 62
               7
100
AcDbLine
 10
-2.75
 20
12.699999999999999
 30
0.0
 11
2.75
 21
12.699999999999999
 31
0.0
  0
LINE
  5
DB
100
AcDbEntity
  8
0
  6
CONTINUOUS
 62
               7
100
AcDbLine
 10
-2.75
 20
0.0
 30
0.0
 11
-2.75
 21
13.300000000000001
 31
0.0
  0
LINE
  5
DC
100
AcDbEntity
  8
0
  6
CONTINUOUS
 62
               7
100
AcDbLine
 10
2.75
 20
0.0
 30
0.0
 11
2.75
 21
13.300000000000001
 31
0.0
  0
LINE
  5
DD
100
AcDbEntity
  8
0
  6
CONTINUOUS
 62
               2
100
AcDbLine
 10
-1.22
 20
-2.3999999999999999
 30
0.0
 11
-1.22
 21
0.0
 31
0.0
  0
LINE
  5
DE
100
AcDbEntity
  8
0
  6
CONTINUOUS
 62
               2
100
AcDbLine
 10
1.22
 20
-2.3999999999999999
 30
0.0
 11
1.22
 21
0.0
 31
0.0
  0
LINE
  5
DF
100
AcDbEntity
  8
0
  6
CONTINUOUS
 62
               7
100
AcDbLine
 10
-1.5
 20
-2.3999999999999999
 30
0.0
 11
-1.5
 21
0.0
 31
0.0
  0
LINE
  5
E0
100
AcDbEntity
  8
0
  6
CONTINUOUS
 62
               7
100
AcDbLine
 10
1.5
 20
-2.3999999999999999
 30
0.0
 11
1.5
 21
0.0
 31
0.0
  0
LINE
  5
E1
100
AcDbEntity
  8
0
  6
CONTINUOUS
 62
               7
100
AcDbLine
 10
-1.5
 20
-2.3999999999999999
 30
0.0
 11
1.5
 21
-2.3999999999999999
 31
0.0
  0
LINE
  5
E2
100
AcDbEntity
  8
0
  6
CONTINUOUS
 62
               7
100
AcDbLine
 10
2.75
 20
13.300000000000001
 30
0.0
 11
2.0
 21
13.73
 31
0.0
  0
LINE
  5
E3
100
AcDbEntity
  8
0
  6
CONTINUOUS
 62
               7
100
AcDbLine
 10
-2.75
 20
13.300000000000001
 30
0.0
 11
-2.0
 21
13.73
 31
0.0
  0
LINE
  5
E4
100
AcDbEntity
  8
0
  6
CENTER
 62
               2
100
AcDbLine
 10
-4.6200000000000001
 20
16.600000000000001
 30
0.0
 11
4.5899999999999999
 21
16.600000000000001
 31
0.0
  0
LINE
  5
E5
100
AcDbEntity
  8
0
  6
CENTER
 62
               2
100
AcDbLine
 10
0.0
 20
21.66
 30
0.0
 11
0.0
 21
-3.8799999999999999
 31
0.0
  0
ENDBLK
  5
E6
100
AcDbEntity
  8
0
100
AcDbBlockEnd
  0
BLOCK
  5
E7
100
AcDbEntity
  8
0
100
AcDbBlockBegin
  2
MS_5
 70
               0
 10
0.0
 20
0.0
 30
0.0
  3
MS_5
  1

  0
ARC
  5
E8
100
AcDbEntity
  8
0
  6
CONTINUOUS
 62
               7
100
AcDbCircle
 10
-0.0000195768619138
 20
20.899972253616003
 30
0.0
 40
4.0000277464319023
100
AcDbArc
 50
89.999719584053992
 51
185.73873109653275
  0
ARC
  5
E9
100
AcDbEntity
  8
0
  6
CONTINUOUS
 62
               7
100
AcDbCircle
 10
0.0000030517593641
 20
20.899996948240634
 30
0.0
 40
3.000003051760916
100
AcDbArc
 50
90.000058284251068
 51
179.99994171574835
  0
ARC
  5
EA
100
AcDbEntity
  8
0
  6
CONTINUOUS
 62
               7
100
AcDbCircle
 10
0.0
 20
11.092735290527344
 30
0.0
 40
7.646828624841997
100
AcDbArc
 50
252.49564528372372
 51
287.50435471627509
  0
ARC
  5
EB
100
AcDbEntity
  8
0
  6
CONTINUOUS
 62
               7
100
AcDbCircle
 10
-3.4550000000000001
 20
5.4946761135184925
 30
0.0
 40
2.0508418100209833
100
AcDbArc
 50
235.72376391963709
 51
304.27623608036168
  0
ARC
  5
EC
100
AcDbEntity
  8
0
  6
CONTINUOUS
 62
               7
100
AcDbCircle
 10
-3.4591648395428489
 20
14.253802183695271
 30
0.0
 40
2.0461979867410776
100
AcDbArc
 50
55.493695796088915
 51
90.023385406030712
  0
ARC
  5
ED
100
AcDbEntity
  8
0
  6
CONTINUOUS
 62
               7
100
AcDbCircle
 10
3.4550000000000001
 20
5.4946761100212207
 30
0.0
 40
2.0508418071310763
100
AcDbArc
 50
235.72376386461087
 51
304.27623613538788
  0
ARC
  5
EE
100
AcDbEntity
  8
0
  6
CONTINUOUS
 62
               7
100
AcDbCircle
 10
3.4591648395428489
 20
14.253802183695271
 30
0.0
 40
2.0461979867410776
100
AcDbArc
 50
89.976614593968904
 51
124.50630420391069
  0
ARC
  5
EF
100
AcDbEntity
  8
0
  6
CONTINUOUS
 62
               7
100
AcDbCircle
 10
0.0
 20
8.6572656631469727
 30
0.0
 40
7.6372913667856155
100
AcDbArc
 50
72.473078421443205
 51
107.5269215785564
  0
LINE
  5
F0
100
AcDbEntity
  8
0
  6
CONTINUOUS
 62
               7
100
AcDbLine
 10
5.7000000000000002
 20
16.300000000000001
 30
0.0
 11
10.4
 21
16.300000000000001
 31
0.0
  0
LINE
  5
F1
100
AcDbEntity
  8
0
  6
CONTINUOUS
 62
               7
100
AcDbLine
 10
5.7000000000000002
 20
16.300000000000001
 30
0.0
 11
5.1200000000000001
 21
17.300000000000001
 31
0.0
  0
LINE
  5
F2
100
AcDbEntity
  8
0
  6
CONTINUOUS
 62
               7
100
AcDbLine
 10
5.1200000000000001
 20
23.899999999999999
 30
0.0
 11
5.1200000000000001
 21
17.300000000000001
 31
0.0
  0
LINE
  5
F3
100
AcDbEntity
  8
0
  6
CONTINUOUS
 62
               7
100
AcDbLine
 10
5.7000000000000002
 20
24.899999999999999
 30
0.0
 11
5.7000000000000002
 21
16.300000000000001
 31
0.0
  0
LINE
  5
F4
100
AcDbEntity
  8
0
  6
CONTINUOUS
 62
               7
100
AcDbLine
 10
5.7000000000000002
 20
24.899999999999999
 30
0.0
 11
5.1200000000000001
 21
23.899999999999999
 31
0.0
  0
LINE
  5
F5
100
AcDbEntity
  8
0
  6
CONTINUOUS
 62
               7
100
AcDbLine
 10
0.0
 20
24.899999999999999
 30
0.0
 11
10.4
 21
24.899999999999999
 31
0.0
  0
LINE
  5
F6
100
AcDbEntity
  8
0
  6
CONTINUOUS
 62
               7
100
AcDbLine
 10
10.4
 20
24.899999999999999
 30
0.0
 11
10.4
 21
16.300000000000001
 31
0.0
  0
LINE
  5
F7
100
AcDbEntity
  8
0
  6
CONTINUOUS
 62
               7
100
AcDbLine
 10
10.4
 20
24.899999999999999
 30
0.0
 11
12.4
 21
24.600000000000001
 31
0.0
  0
LINE
  5
F8
100
AcDbEntity
  8
0
  6
CONTINUOUS
 62
               7
100
AcDbLine
 10
10.4
 20
16.300000000000001
 30
0.0
 11
12.4
 21
16.600000000000001
 31
0.0
  0
LINE
  5
F9
100
AcDbEntity
  8
0
  6
CONTINUOUS
 62
               7
100
AcDbLine
 10
12.4
 20
24.600000000000001
 30
0.0
 11
12.4
 21
16.600000000000001
 31
0.0
  0
LINE
  5
FA
100
AcDbEntity
  8
0
  6
CONTINUOUS
 62
               7
100
AcDbLine
 10
12.4
 20
16.600000000000001
 30
0.0
 11
13.199999999999999
 21
16.600000000000001
 31
0.0
  0
LINE
  5
FB
100
AcDbEntity
  8
0
  6
CONTINUOUS
 62
               7
100
AcDbLine
 10
12.4
 20
24.600000000000001
 30
0.0
 11
13.199999999999999
 21
24.600000000000001
 31
0.0
  0
LINE
  5
FC
100
AcDbEntity
  8
0
  6
CONTINUOUS
 62
               7
100
AcDbLine
 10
13.199999999999999
 20
24.600000000000001
 30
0.0
 11
13.199999999999999
 21
16.600000000000001
 31
0.0
  0
LINE
  5
FD
100
AcDbEntity
  8
0
  6
CONTINUOUS
 62
               7
100
AcDbLine
 10
13.199999999999999
 20
23.100000000000001
 30
0.0
 11
13.9
 21
23.100000000000001
 31
0.0
  0
LINE
  5
FE
100
AcDbEntity
  8
0
  6
CONTINUOUS
 62
               7
100
AcDbLine
 10
13.199999999999999
 20
18.100000000000001
 30
0.0
 11
13.9
 21
18.100000000000001
 31
0.0
  0
LINE
  5
FF
100
AcDbEntity
  8
0
  6
CONTINUOUS
 62
               7
100
AcDbLine
 10
13.9
 20
15.699999999999999
 30
0.0
 11
15.1
 21
15.699999999999999
 31
0.0
  0
LINE
  5
100
100
AcDbEntity
  8
0
  6
CONTINUOUS
 62
               7
100
AcDbLine
 10
13.9
 20
25.5
 30
0.0
 11
13.9
 21
15.699999999999999
 31
0.0
  0
LINE
  5
101
100
AcDbEntity
  8
0
  6
CONTINUOUS
 62
               7
100
AcDbLine
 10
15.1
 20
25.5
 30
0.0
 11
15.1
 21
15.699999999999999
 31
0.0
  0
LINE
  5
102
100
AcDbEntity
  8
0
  6
CONTINUOUS
 62
               7
100
AcDbLine
 10
13.9
 20
25.5
 30
0.0
 11
15.1
 21
25.5
 31
0.0
  0
LINE
  5
103
100
AcDbEntity
  8
0
  6
CONTINUOUS
 62
               7
100
AcDbLine
 10
-3.0
 20
17.870000000000001
 30
0.0
 11
3.0
 21
17.870000000000001
 31
0.0
  0
LINE
  5
104
100
AcDbEntity
  8
0
  6
CONTINUOUS
 62
               7
100
AcDbLine
 10
4.0
 20
17.300000000000001
 30
0.0
 11
3.0
 21
17.870000000000001
 31
0.0
  0
LINE
  5
105
100
AcDbEntity
  8
0
  6
CONTINUOUS
 62
               7
100
AcDbLine
 10
-4.0
 20
17.300000000000001
 30
0.0
 11
-3.0
 21
17.870000000000001
 31
0.0
  0
LINE
  5
106
100
AcDbEntity
  8
0
  6
CONTINUOUS
 62
               7
100
AcDbLine
 10
0.0
 20
20.600000000000001
 30
0.0
 11
3.0
 21
17.870000000000001
 31
0.0
  0
LINE
  5
107
100
AcDbEntity
  8
0
  6
CONTINUOUS
 62
               7
100
AcDbLine
 10
-4.0
 20
17.300000000000001
 30
0.0
 11
5.1200000000000001
 21
17.300000000000001
 31
0.0
  0
LINE
  5
108
100
AcDbEntity
  8
0
  6
CONTINUOUS
 62
               7
100
AcDbLine
 10
0.0
 20
23.899999999999999
 30
0.0
 11
5.1200000000000001
 21
23.899999999999999
 31
0.0
  0
LINE
  5
109
100
AcDbEntity
  8
0
  6
CONTINUOUS
 62
               7
100
AcDbLine
 10
-3.0
 20
17.870000000000001
 30
0.0
 11
-3.0
 21
20.899999999999999
 31
0.0
  0
LINE
  5
10A
100
AcDbEntity
  8
0
  6
CONTINUOUS
 62
               7
100
AcDbLine
 10
4.0
 20
16.300000000000001
 30
0.0
 11
4.0
 21
17.300000000000001
 31
0.0
  0
LINE
  5
10B
100
AcDbEntity
  8
0
  6
CONTINUOUS
 62
               7
100
AcDbLine
 10
-4.0
 20
16.300000000000001
 30
0.0
 11
-4.0
 21
20.899999999999999
 31
0.0
  0
LINE
  5
10C
100
AcDbEntity
  8
0
  6
CENTER
 62
               2
100
AcDbLine
 10
-5.5999999999999996
 20
20.600000000000001
 30
0.0
 11
16.399999999999999
 21
20.600000000000001
 31
0.0
  0
LINE
  5
10D
100
AcDbEntity
  8
0
  6
CONTINUOUS
 62
               7
100
AcDbLine
 10
-2.75
 20
2.2000000000000002
 30
0.0
 11
-4.0999999999999996
 21
3.5499999999999998
 31
0.0
  0
LINE
  5
10E
100
AcDbEntity
  8
0
  6
CONTINUOUS
 62
               7
100
AcDbLine
 10
2.75
 20
2.2000000000000002
 30
0.0
 11
4.0999999999999996
 21
3.5499999999999998
 31
0.0
  0
LINE
  5
10F
100
AcDbEntity
  8
0
  6
CONTINUOUS
 62
               7
100
AcDbLine
 10
-2.75
 20
0.7
 30
0.0
 11
2.75
 21
0.7
 31
0.0
  0
LINE
  5
110
100
AcDbEntity
  8
0
  6
CONTINUOUS
 62
               7
100
AcDbLine
 10
-2.75
 20
0.0
 30
0.0
 11
2.75
 21
0.0
 31
0.0
  0
LINE
  5
111
100
AcDbEntity
  8
0
  6
CONTINUOUS
 62
               7
100
AcDbLine
 10
-2.75
 20
0.0
 30
0.0
 11
-2.75
 21
2.2000000000000002
 31
0.0
  0
LINE
  5
112
100
AcDbEntity
  8
0
  6
CONTINUOUS
 62
               7
100
AcDbLine
 10
2.75
 20
0.0
 30
0.0
 11
2.75
 21
2.2000000000000002
 31
0.0
  0
LINE
  5
113
100
AcDbEntity
  8
0
  6
CONTINUOUS
 62
               2
100
AcDbLine
 10
-1.22
 20
-2.3999999999999999
 30
0.0
 11
-1.22
 21
0.0
 31
0.0
  0
LINE
  5
114
100
AcDbEntity
  8
0
  6
CONTINUOUS
 62
               2
100
AcDbLine
 10
1.22
 20
-2.3999999999999999
 30
0.0
 11
1.22
 21
0.0
 31
0.0
  0
LINE
  5
115
100
AcDbEntity
  8
0
  6
CONTINUOUS
 62
               7
100
AcDbLine
 10
-1.5
 20
-2.3999999999999999
 30
0.0
 11
-1.5
 21
0.0
 31
0.0
  0
LINE
  5
116
100
AcDbEntity
  8
0
  6
CONTINUOUS
 62
               7
100
AcDbLine
 10
1.5
 20
-2.3999999999999999
 30
0.0
 11
1.5
 21
0.0
 31
0.0
  0
LINE
  5
117
100
AcDbEntity
  8
0
  6
CONTINUOUS
 62
               7
100
AcDbLine
 10
-1.5
 20
-2.3999999999999999
 30
0.0
 11
1.5
 21
-2.3999999999999999
 31
0.0
  0
LINE
  5
118
100
AcDbEntity
  8
0
  6
CONTINUOUS
 62
               7
100
AcDbLine
 10
-4.6100000000000003
 20
3.7999999999999998
 30
0.0
 11
-4.6100000000000003
 21
15.94
 31
0.0
  0
LINE
  5
119
100
AcDbEntity
  8
0
  6
CONTINUOUS
 62
               7
100
AcDbLine
 10
-4.6100000000000003
 20
15.94
 30
0.0
 11
-4.0
 21
16.300000000000001
 31
0.0
  0
LINE
  5
11A
100
AcDbEntity
  8
0
  6
CONTINUOUS
 62
               7
100
AcDbLine
 10
-2.2999999999999998
 20
3.7999999999999998
 30
0.0
 11
-2.2999999999999998
 21
15.84
 31
0.0
  0
LINE
  5
11B
100
AcDbEntity
  8
0
  6
CONTINUOUS
 62
               7
100
AcDbLine
 10
2.2999999999999998
 20
3.7999999999999998
 30
0.0
 11
2.2999999999999998
 21
15.84
 31
0.0
  0
LINE
  5
11C
100
AcDbEntity
  8
0
  6
CONTINUOUS
 62
               7
100
AcDbLine
 10
4.6100000000000003
 20
3.7999999999999998
 30
0.0
 11
4.6100000000000003
 21
15.94
 31
0.0
  0
LINE
  5
11D
100
AcDbEntity
  8
0
  6
CONTINUOUS
 62
               7
100
AcDbLine
 10
4.6100000000000003
 20
15.94
 30
0.0
 11
4.0
 21
16.300000000000001
 31
0.0
  0
LINE
  5
11E
100
AcDbEntity
  8
0
  6
CONTINUOUS
 62
               7
100
AcDbLine
 10
-4.0
 20
16.300000000000001
 30
0.0
 11
4.0
 21
16.300000000000001
 31
0.0
  0
LINE
  5
11F
100
AcDbEntity
  8
0
  6
CONTINUOUS
 62
               7
100
AcDbLine
 10
-2.75
 20
2.2000000000000002
 30
0.0
 11
2.75
 21
2.2000000000000002
 31
0.0
  0
LINE
  5
120
100
AcDbEntity
  8
0
  6
CENTER
 62
               2
100
AcDbLine
 10
0.0
 20
-4.6900000000000004
 30
0.0
 11
0.0
 21
27.18
 31
0.0
  0
ENDBLK
  5
121
100
AcDbEntity
  8
0
100
AcDbBlockEnd
  0
BLOCK
  5
122
100
AcDbEntity
  8
0
100
AcDbBlockBegin
  2
MS_6
 70
               0
 10
0.0
 20
0.0
 30
0.0
  3
MS_6
  1

  0
ARC
  5
123
100
AcDbEntity
  8
0
  6
CONTINUOUS
 62
               7
100
AcDbCircle
 10
0.0046887805741826
 20
-0.0039672389224641
 30
0.0
 40
2.996036430037718
100
AcDbArc
 50
189.52994147925332
 51
269.91033238283279
  0
ARC
  5
124
100
AcDbEntity
  8
0
  6
CONTINUOUS
 62
               7
100
AcDbCircle
 10
0.0046887805741826
 20
0.0039672389224641
 30
0.0
 40
2.996036430037718
100
AcDbArc
 50
90.089667617166441
 51
170.47005852074585
  0
ARC
  5
125
100
AcDbEntity
  8
0
  6
CONTINUOUS
 62
               7
100
AcDbCircle
 10
0.0
 20
0.0
 30
0.0
 40
3.9950594488693159
100
AcDbArc
 50
51.810553098572974
 51
308.18944690142621
  0
LINE
  5
126
100
AcDbEntity
  8
0
  6
CONTINUOUS
 62
               7
100
AcDbLine
 10
5.7000000000000002
 20
-4.2999999999999998
 30
0.0
 11
5.7000000000000002
 21
-0.5
 31
0.0
  0
LINE
  5
127
100
AcDbEntity
  8
0
  6
CONTINUOUS
 62
               7
100
AcDbLine
 10
5.1200000000000001
 20
-3.2999999999999998
 30
0.0
 11
5.1200000000000001
 21
-0.5
 31
0.0
  0
LINE
  5
128
100
AcDbEntity
  8
0
  6
CONTINUOUS
 62
               7
100
AcDbLine
 10
-3.96
 20
-0.5
 30
0.0
 11
5.7000000000000002
 21
-0.5
 31
0.0
  0
LINE
  5
129
100
AcDbEntity
  8
0
  6
CONTINUOUS
 62
               7
100
AcDbLine
 10
-3.96
 20
0.5
 30
0.0
 11
5.7000000000000002
 21
0.5
 31
0.0
  0
LINE
  5
12A
100
AcDbEntity
  8
0
  6
CONTINUOUS
 62
               7
100
AcDbLine
 10
5.1200000000000001
 20
-3.2999999999999998
 30
0.0
 11
0.0
 21
-3.0
 31
0.0
  0
LINE
  5
12B
100
AcDbEntity
  8
0
  6
CONTINUOUS
 62
               7
100
AcDbLine
 10
5.1200000000000001
 20
3.2999999999999998
 30
0.0
 11
0.0
 21
3.0
 31
0.0
  0
LINE
  5
12C
100
AcDbEntity
  8
0
  6
CONTINUOUS
 62
               7
100
AcDbLine
 10
-4.6100000000000003
 20
0.0
 30
0.0
 11
-2.2999999999999998
 21
-4.0
 31
0.0
  0
LINE
  5
12D
100
AcDbEntity
  8
0
  6
CONTINUOUS
 62
               7
100
AcDbLine
 10
-2.2999999999999998
 20
4.0
 30
0.0
 11
-4.6100000000000003
 21
0.0
 31
0.0
  0
LINE
  5
12E
100
AcDbEntity
  8
0
  6
CONTINUOUS
 62
               7
100
AcDbLine
 10
2.2999999999999998
 20
4.0
 30
0.0
 11
-2.2999999999999998
 21
4.0
 31
0.0
  0
LINE
  5
12F
100
AcDbEntity
  8
0
  6
CONTINUOUS
 62
               7
100
AcDbLine
 10
2.79
 20
3.1600000000000001
 30
0.0
 11
2.2999999999999998
 21
4.0
 31
0.0
  0
LINE
  5
130
100
AcDbEntity
  8
0
  6
CONTINUOUS
 62
               7
100
AcDbLine
 10
2.2999999999999998
 20
-4.0
 30
0.0
 11
2.79
 21
-3.1600000000000001
 31
0.0
  0
LINE
  5
131
100
AcDbEntity
  8
0
  6
CONTINUOUS
 62
               7
100
AcDbLine
 10
-2.2999999999999998
 20
-4.0
 30
0.0
 11
2.2999999999999998
 21
-4.0
 31
0.0
  0
LINE
  5
132
100
AcDbEntity
  8
0
  6
CENTER
 62
               2
100
AcDbLine
 10
0.0
 20
4.9100000000000001
 30
0.0
 11
0.0
 21
-4.9400000000000004
 31
0.0
  0
LINE
  5
133
100
AcDbEntity
  8
0
  6
CENTER
 62
               2
100
AcDbLine
 10
-5.5999999999999996
 20
0.0
 30
0.0
 11
16.399999999999999
 21
0.0
 31
0.0
  0
LINE
  5
134
100
AcDbEntity
  8
0
  6
CONTINUOUS
 62
               7
100
AcDbLine
 10
5.1200000000000001
 20
3.2999999999999998
 30
0.0
 11
5.1200000000000001
 21
0.5
 31
0.0
  0
LINE
  5
135
100
AcDbEntity
  8
0
  6
CONTINUOUS
 62
               7
100
AcDbLine
 10
5.7000000000000002
 20
4.2999999999999998
 30
0.0
 11
5.1200000000000001
 21
3.2999999999999998
 31
0.0
  0
LINE
  5
136
100
AcDbEntity
  8
0
  6
CONTINUOUS
 62
               7
100
AcDbLine
 10
5.7000000000000002
 20
-4.2999999999999998
 30
0.0
 11
5.1200000000000001
 21
-3.2999999999999998
 31
0.0
  0
LINE
  5
137
100
AcDbEntity
  8
0
  6
CONTINUOUS
 62
               7
100
AcDbLine
 10
10.4
 20
-4.2999999999999998
 30
0.0
 11
12.4
 21
-4.0
 31
0.0
  0
LINE
  5
138
100
AcDbEntity
  8
0
  6
CONTINUOUS
 62
               7
100
AcDbLine
 10
10.4
 20
4.2999999999999998
 30
0.0
 11
12.4
 21
4.0
 31
0.0
  0
LINE
  5
139
100
AcDbEntity
  8
0
  6
CONTINUOUS
 62
               7
100
AcDbLine
 10
10.4
 20
4.2999999999999998
 30
0.0
 11
10.4
 21
-4.2999999999999998
 31
0.0
  0
LINE
  5
13A
100
AcDbEntity
  8
0
  6
CONTINUOUS
 62
               7
100
AcDbLine
 10
5.7000000000000002
 20
4.2999999999999998
 30
0.0
 11
5.7000000000000002
 21
0.5
 31
0.0
  0
LINE
  5
13B
100
AcDbEntity
  8
0
  6
CONTINUOUS
 62
               7
100
AcDbLine
 10
12.4
 20
4.0
 30
0.0
 11
12.4
 21
-4.0
 31
0.0
  0
LINE
  5
13C
100
AcDbEntity
  8
0
  6
CONTINUOUS
 62
               7
100
AcDbLine
 10
5.7000000000000002
 20
-4.2999999999999998
 30
0.0
 11
10.4
 21
-4.2999999999999998
 31
0.0
  0
LINE
  5
13D
100
AcDbEntity
  8
0
  6
CONTINUOUS
 62
               7
100
AcDbLine
 10
5.7000000000000002
 20
4.2999999999999998
 30
0.0
 11
10.4
 21
4.2999999999999998
 31
0.0
  0
LINE
  5
13E
100
AcDbEntity
  8
0
  6
CONTINUOUS
 62
               7
100
AcDbLine
 10
13.199999999999999
 20
2.5
 30
0.0
 11
13.9
 21
2.5
 31
0.0
  0
LINE
  5
13F
100
AcDbEntity
  8
0
  6
CONTINUOUS
 62
               7
100
AcDbLine
 10
13.199999999999999
 20
-2.5
 30
0.0
 11
13.9
 21
-2.5
 31
0.0
  0
LINE
  5
140
100
AcDbEntity
  8
0
  6
CONTINUOUS
 62
               7
100
AcDbLine
 10
12.4
 20
4.0
 30
0.0
 11
13.199999999999999
 21
4.0
 31
0.0
  0
LINE
  5
141
100
AcDbEntity
  8
0
  6
CONTINUOUS
 62
               7
100
AcDbLine
 10
12.4
 20
-4.0
 30
0.0
 11
13.199999999999999
 21
-4.0
 31
0.0
  0
LINE
  5
142
100
AcDbEntity
  8
0
  6
CONTINUOUS
 62
               7
100
AcDbLine
 10
13.9
 20
4.9000000000000004
 30
0.0
 11
13.9
 21
-4.9000000000000004
 31
0.0
  0
LINE
  5
143
100
AcDbEntity
  8
0
  6
CONTINUOUS
 62
               7
100
AcDbLine
 10
13.199999999999999
 20
4.0
 30
0.0
 11
13.199999999999999
 21
-4.0
 31
0.0
  0
LINE
  5
144
100
AcDbEntity
  8
0
  6
CONTINUOUS
 62
               7
100
AcDbLine
 10
13.9
 20
-4.9000000000000004
 30
0.0
 11
15.1
 21
-4.9000000000000004
 31
0.0
  0
LINE
  5
145
100
AcDbEntity
  8
0
  6
CONTINUOUS
 62
               7
100
AcDbLine
 10
13.9
 20
4.9000000000000004
 30
0.0
 11
15.1
 21
4.9000000000000004
 31
0.0
  0
LINE
  5
146
100
AcDbEntity
  8
0
  6
CONTINUOUS
 62
               7
100
AcDbLine
 10
15.1
 20
4.9000000000000004
 30
0.0
 11
15.1
 21
-4.9000000000000004
 31
0.0
  0
ENDBLK
  5
147
100
AcDbEntity
  8
0
100
AcDbBlockEnd
  0
BLOCK
  5
148
100
AcDbEntity
  8
0
100
AcDbBlockBegin
  2
MS_7
 70
               0
 10
0.0
 20
0.0
 30
0.0
  3
MS_7
  1

  0
ARC
  5
149
100
AcDbEntity
  8
0
  6
CONTINUOUS
 62
               7
100
AcDbCircle
 10
-0.0039642340562285
 20
20.895308672929009
 30
0.0
 40
2.9960394388866058
100
AcDbArc
 50
99.529990088060259
 51
179.91028377402631
  0
ARC
  5
14A
100
AcDbEntity
  8
0
  6
CONTINUOUS
 62
               7
100
AcDbCircle
 10
-0.001201582235747
 20
20.597759473187363
 30
0.0
 40
3.3001534989062113
100
AcDbArc
 50
98.693229147980574
 51
204.67580890712932
  0
ARC
  5
14B
100
AcDbEntity
  8
0
  6
CONTINUOUS
 62
               7
100
AcDbCircle
 10
0.0039642340562285
 20
20.895308672929009
 30
0.0
 40
2.9960394388866058
100
AcDbArc
 50
0.0897162259732988
 51
80.470009911939357
  0
ARC
  5
14C
100
AcDbEntity
  8
0
  6
CONTINUOUS
 62
               7
100
AcDbCircle
 10
0.0
 20
20.599990844726562
 30
0.0
 40
4.3000985820124198
100
AcDbArc
 50
318.48826939638354
 51
221.51173060361523
  0
ARC
  5
14D
100
AcDbEntity
  8
0
  6
CONTINUOUS
 62
               7
100
AcDbCircle
 10
0.001201582235747
 20
20.597759473187363
 30
0.0
 40
3.3001534989062113
100
AcDbArc
 50
335.32419109286946
 51
81.306770852019056
  0
ARC
  5
14E
100
AcDbEntity
  8
0
  6
CONTINUOUS
 62
               7
100
AcDbCircle
 10
-2.0
 20
9.2267189025881855
 30
0.0
 40
5.7835350822579024
100
AcDbArc
 50
249.76879603556762
 51
290.23120396443119
  0
ARC
  5
14F
100
AcDbEntity
  8
0
  6
CONTINUOUS
 62
               7
100
AcDbCircle
 10
-2.0
 20
10.523283004760742
 30
0.0
 40
5.7741512801894794
100
AcDbArc
 50
69.734475508488174
 51
110.26552449151144
  0
ARC
  5
150
100
AcDbEntity
  8
0
  6
CONTINUOUS
 62
               7
100
AcDbCircle
 10
2.0
 20
9.2267189025881855
 30
0.0
 40
5.7835350822579024
100
AcDbArc
 50
249.76879603556762
 51
290.23120396443119
  0
ARC
  5
151
100
AcDbEntity
  8
0
  6
CONTINUOUS
 62
               7
100
AcDbCircle
 10
2.0
 20
10.523281097412109
 30
0.0
 40
5.7741530694685395
100
AcDbArc
 50
69.734482063994776
 51
110.26551793600483
  0
LINE
  5
152
100
AcDbEntity
  8
0
  6
CONTINUOUS
 62
               7
100
AcDbLine
 10
-3.0
 20
17.870000000000001
 30
0.0
 11
-3.0
 21
20.899999999999999
 31
0.0
  0
LINE
  5
153
100
AcDbEntity
  8
0
  6
CONTINUOUS
 62
               7
100
AcDbLine
 10
-3.0
 20
17.870000000000001
 30
0.0
 11
-0.5
 21
17.870000000000001
 31
0.0
  0
LINE
  5
154
100
AcDbEntity
  8
0
  6
CONTINUOUS
 62
               7
100
AcDbLine
 10
-4.0
 20
17.300000000000001
 30
0.0
 11
-3.0
 21
17.870000000000001
 31
0.0
  0
LINE
  5
155
100
AcDbEntity
  8
0
  6
CONTINUOUS
 62
               7
100
AcDbLine
 10
0.5
 20
17.300000000000001
 30
0.0
 11
4.0
 21
17.300000000000001
 31
0.0
  0
LINE
  5
156
100
AcDbEntity
  8
0
  6
CONTINUOUS
 62
               7
100
AcDbLine
 10
0.5
 20
17.870000000000001
 30
0.0
 11
3.0
 21
17.870000000000001
 31
0.0
  0
LINE
  5
157
100
AcDbEntity
  8
0
  6
CONTINUOUS
 62
               7
100
AcDbLine
 10
-0.5
 20
17.300000000000001
 30
0.0
 11
-0.5
 21
24.870000000000001
 31
0.0
  0
LINE
  5
158
100
AcDbEntity
  8
0
  6
CONTINUOUS
 62
               7
100
AcDbLine
 10
0.5
 20
17.300000000000001
 30
0.0
 11
0.5
 21
24.870000000000001
 31
0.0
  0
LINE
  5
159
100
AcDbEntity
  8
0
  6
CONTINUOUS
 62
               7
100
AcDbLine
 10
3.0
 20
17.870000000000001
 30
0.0
 11
3.0
 21
20.899999999999999
 31
0.0
  0
LINE
  5
15A
100
AcDbEntity
  8
0
  6
CENTER
 62
               2
100
AcDbLine
 10
-6.4500000000000002
 20
20.600000000000001
 30
0.0
 11
6.3300000000000001
 21
20.600000000000001
 31
0.0
  0
LINE
  5
15B
100
AcDbEntity
  8
0
  6
CONTINUOUS
 62
               7
100
AcDbLine
 10
-4.0
 20
17.300000000000001
 30
0.0
 11
-0.5
 21
17.300000000000001
 31
0.0
  0
LINE
  5
15C
100
AcDbEntity
  8
0
  6
CONTINUOUS
 62
               7
100
AcDbLine
 10
0.0
 20
15.94
 30
0.0
 11
0.0
 21
3.7999999999999998
 31
0.0
  0
LINE
  5
15D
100
AcDbEntity
  8
0
  6
CONTINUOUS
 62
               7
100
AcDbLine
 10
-2.75
 20
2.2000000000000002
 30
0.0
 11
-4.0
 21
3.4500000000000002
 31
0.0
  0
LINE
  5
15E
100
AcDbEntity
  8
0
  6
CONTINUOUS
 62
               7
100
AcDbLine
 10
2.75
 20
2.2000000000000002
 30
0.0
 11
4.0
 21
3.4500000000000002
 31
0.0
  0
LINE
  5
15F
100
AcDbEntity
  8
0
  6
CONTINUOUS
 62
               7
100
AcDbLine
 10
-2.75
 20
0.7
 30
0.0
 11
2.75
 21
0.7
 31
0.0
  0
LINE
  5
160
100
AcDbEntity
  8
0
  6
CONTINUOUS
 62
               7
100
AcDbLine
 10
-2.75
 20
0.0
 30
0.0
 11
2.75
 21
0.0
 31
0.0
  0
LINE
  5
161
100
AcDbEntity
  8
0
  6
CONTINUOUS
 62
               7
100
AcDbLine
 10
-2.75
 20
0.0
 30
0.0
 11
-2.75
 21
2.2000000000000002
 31
0.0
  0
LINE
  5
162
100
AcDbEntity
  8
0
  6
CONTINUOUS
 62
               7
100
AcDbLine
 10
2.75
 20
0.0
 30
0.0
 11
2.75
 21
2.2000000000000002
 31
0.0
  0
LINE
  5
163
100
AcDbEntity
  8
0
  6
CONTINUOUS
 62
               2
100
AcDbLine
 10
-1.22
 20
-2.3999999999999999
 30
0.0
 11
-1.22
 21
0.0
 31
0.0
  0
LINE
  5
164
100
AcDbEntity
  8
0
  6
CONTINUOUS
 62
               2
100
AcDbLine
 10
1.22
 20
-2.3999999999999999
 30
0.0
 11
1.22
 21
0.0
 31
0.0
  0
LINE
  5
165
100
AcDbEntity
  8
0
  6
CONTINUOUS
 62
               7
100
AcDbLine
 10
-1.5
 20
-2.3999999999999999
 30
0.0
 11
-1.5
 21
0.0
 31
0.0
  0
LINE
  5
166
100
AcDbEntity
  8
0
  6
CONTINUOUS
 62
               7
100
AcDbLine
 10
1.5
 20
-2.3999999999999999
 30
0.0
 11
1.5
 21
0.0
 31
0.0
  0
LINE
  5
167
100
AcDbEntity
  8
0
  6
CONTINUOUS
 62
               7
100
AcDbLine
 10
-1.5
 20
-2.3999999999999999
 30
0.0
 11
1.5
 21
-2.3999999999999999
 31
0.0
  0
LINE
  5
168
100
AcDbEntity
  8
0
  6
CONTINUOUS
 62
               7
100
AcDbLine
 10
-4.0
 20
3.4500000000000002
 30
0.0
 11
-4.0
 21
17.300000000000001
 31
0.0
  0
LINE
  5
169
100
AcDbEntity
  8
0
  6
CONTINUOUS
 62
               7
100
AcDbLine
 10
4.0
 20
3.4500000000000002
 30
0.0
 11
4.0
 21
17.300000000000001
 31
0.0
  0
LINE
  5
16A
100
AcDbEntity
  8
0
  6
CONTINUOUS
 62
               7
100
AcDbLine
 10
-4.0
 20
16.300000000000001
 30
0.0
 11
4.0
 21
16.300000000000001
 31
0.0
  0
LINE
  5
16B
100
AcDbEntity
  8
0
  6
CONTINUOUS
 62
               7
100
AcDbLine
 10
-2.75
 20
2.2000000000000002
 30
0.0
 11
2.75
 21
2.2000000000000002
 31
0.0
  0
LINE
  5
16C
100
AcDbEntity
  8
0
  6
CENTER
 62
               2
100
AcDbLine
 10
0.0
 20
-4.7699999999999996
 30
0.0
 11
0.0
 21
27.18
 31
0.0
  0
LINE
  5
16D
100
AcDbEntity
  8
0
  6
CONTINUOUS
 62
               7
100
AcDbLine
 10
4.0
 20
17.300000000000001
 30
0.0
 11
3.0
 21
17.870000000000001
 31
0.0
  0
ENDBLK
  5
16E
100
AcDbEntity
  8
0
100
AcDbBlockEnd
  0
BLOCK
  5
16F
100
AcDbEntity
  8
0
100
AcDbBlockBegin
  2
MS_8
 70
               0
 10
0.0
 20
0.0
 30
0.0
  3
MS_8
  1

  0
ARC
  5
170
100
AcDbEntity
  8
0
  6
CONTINUOUS
 62
               7
100
AcDbCircle
 10
-0.0000000000084541
 20
20.600000000000001
 30
0.0
 40
4.3002906878562364
100
AcDbArc
 50
330.15596256412289
 51
29.84403743587626
  0
ARC
  5
171
100
AcDbEntity
  8
0
  6
CONTINUOUS
 62
               7
100
AcDbCircle
 10
0.0000000000084541
 20
20.600000000000001
 30
0.0
 40
4.3002906878562364
100
AcDbArc
 50
150.15596256412334
 51
209.84403743587589
  0
ARC
  5
172
100
AcDbEntity
  8
0
  6
CONTINUOUS
 62
               7
100
AcDbCircle
 10
2.0
 20
9.2267189025878906
 30
0.0
 40
5.7835350822576261
100
AcDbArc
 50
249.7687960355666
 51
290.23120396443221
  0
ARC
  5
173
100
AcDbEntity
  8
0
  6
CONTINUOUS
 62
               7
100
AcDbCircle
 10
2.0202839461343789
 20
10.519565760112425
 30
0.0
 40
5.7706484040252217
100
AcDbArc
 50
69.936188681028511
 51
89.506371710706645
  0
ARC
  5
174
100
AcDbEntity
  8
0
  6
CONTINUOUS
 62
               7
100
AcDbCircle
 10
-2.0202842807976431
 20
10.519567605541281
 30
0.0
 40
5.770646555781628
100
AcDbArc
 50
90.493625124459328
 51
110.06381448380473
  0
ARC
  5
175
100
AcDbEntity
  8
0
  6
CONTINUOUS
 62
               7
100
AcDbCircle
 10
-2.0
 20
9.2267189025878906
 30
0.0
 40
5.7835350822576261
100
AcDbArc
 50
249.7687960355666
 51
290.23120396443221
  0
CIRCLE
  5
176
100
AcDbEntity
  8
0
  6
CONTINUOUS
 62
               7
100
AcDbCircle
 10
0.0
 20
20.599990844726562
 30
0.0
 40
2.0
  0
ARC
  5
177
100
AcDbEntity
  8
0
  6
CONTINUOUS
 62
               7
100
AcDbCircle
 10
0.0
 20
19.600000000000001
 30
0.0
 40
3.900000000010746
100
AcDbArc
 50
179.9999999999996
 51
0.0
  0
ARC
  5
178
100
AcDbEntity
  8
0
  6
CONTINUOUS
 62
               7
100
AcDbCircle
 10
0.0
 20
21.600000000000001
 30
0.0
 40
3.900000000010746
100
AcDbArc
 50
0.0
 51
179.9999999999996
  0
LINE
  5
179
100
AcDbEntity
  8
0
  6
CONTINUOUS
 62
               7
100
AcDbLine
 10
2.0699999999999998
 20
16.300000000000001
 30
0.0
 11
4.0
 21
16.300000000000001
 31
0.0
  0
LINE
  5
17A
100
AcDbEntity
  8
0
  6
CONTINUOUS
 62
               7
100
AcDbLine
 10
4.0
 20
17.300000000000001
 30
0.0
 11
3.1499999999999999
 21
17.300000000000001
 31
0.0
  0
LINE
  5
17B
100
AcDbEntity
  8
0
  6
CONTINUOUS
 62
               7
100
AcDbLine
 10
-4.0
 20
17.300000000000001
 30
0.0
 11
-3.1499999999999999
 21
17.300000000000001
 31
0.0
  0
LINE
  5
17C
100
AcDbEntity
  8
0
  6
CONTINUOUS
 62
               7
100
AcDbLine
 10
4.0
 20
17.300000000000001
 30
0.0
 11
3.3799999999999999
 21
17.649999999999999
 31
0.0
  0
LINE
  5
17D
100
AcDbEntity
  8
0
  6
CONTINUOUS
 62
               7
100
AcDbLine
 10
0.0
 20
15.699999999999999
 30
0.0
 11
0.0
 21
3.7999999999999998
 31
0.0
  0
LINE
  5
17E
100
AcDbEntity
  8
0
  6
CONTINUOUS
 62
               7
100
AcDbLine
 10
-2.75
 20
2.2000000000000002
 30
0.0
 11
-4.0
 21
3.4500000000000002
 31
0.0
  0
LINE
  5
17F
100
AcDbEntity
  8
0
  6
CONTINUOUS
 62
               7
100
AcDbLine
 10
2.75
 20
2.2000000000000002
 30
0.0
 11
4.0
 21
3.4500000000000002
 31
0.0
  0
LINE
  5
180
100
AcDbEntity
  8
0
  6
CONTINUOUS
 62
               7
100
AcDbLine
 10
-2.75
 20
0.7
 30
0.0
 11
2.75
 21
0.7
 31
0.0
  0
LINE
  5
181
100
AcDbEntity
  8
0
  6
CONTINUOUS
 62
               7
100
AcDbLine
 10
-2.75
 20
0.0
 30
0.0
 11
2.75
 21
0.0
 31
0.0
  0
LINE
  5
182
100
AcDbEntity
  8
0
  6
CONTINUOUS
 62
               7
100
AcDbLine
 10
-2.75
 20
0.0
 30
0.0
 11
-2.75
 21
2.2000000000000002
 31
0.0
  0
LINE
  5
183
100
AcDbEntity
  8
0
  6
CONTINUOUS
 62
               7
100
AcDbLine
 10
2.75
 20
0.0
 30
0.0
 11
2.75
 21
2.2000000000000002
 31
0.0
  0
LINE
  5
184
100
AcDbEntity
  8
0
  6
CONTINUOUS
 62
               2
100
AcDbLine
 10
-1.23
 20
-2.3999999999999999
 30
0.0
 11
-1.22
 21
0.0
 31
0.0
  0
LINE
  5
185
100
AcDbEntity
  8
0
  6
CONTINUOUS
 62
               2
100
AcDbLine
 10
1.22
 20
-2.3999999999999999
 30
0.0
 11
1.22
 21
0.0
 31
0.0
  0
LINE
  5
186
100
AcDbEntity
  8
0
  6
CONTINUOUS
 62
               7
100
AcDbLine
 10
-1.5
 20
-2.3999999999999999
 30
0.0
 11
-1.5
 21
0.0
 31
0.0
  0
LINE
  5
187
100
AcDbEntity
  8
0
  6
CONTINUOUS
 62
               7
100
AcDbLine
 10
1.5
 20
-2.3999999999999999
 30
0.0
 11
1.5
 21
0.0
 31
0.0
  0
LINE
  5
188
100
AcDbEntity
  8
0
  6
CONTINUOUS
 62
               7
100
AcDbLine
 10
-1.5
 20
-2.3999999999999999
 30
0.0
 11
1.5
 21
-2.3999999999999999
 31
0.0
  0
LINE
  5
189
100
AcDbEntity
  8
0
  6
CONTINUOUS
 62
               7
100
AcDbLine
 10
-4.0
 20
3.4500000000000002
 30
0.0
 11
-4.0
 21
17.300000000000001
 31
0.0
  0
LINE
  5
18A
100
AcDbEntity
  8
0
  6
CONTINUOUS
 62
               7
100
AcDbLine
 10
4.0
 20
3.4500000000000002
 30
0.0
 11
4.0
 21
17.300000000000001
 31
0.0
  0
LINE
  5
18B
100
AcDbEntity
  8
0
  6
CONTINUOUS
 62
               7
100
AcDbLine
 10
-4.0
 20
16.300000000000001
 30
0.0
 11
-2.0699999999999998
 21
16.300000000000001
 31
0.0
  0
LINE
  5
18C
100
AcDbEntity
  8
0
  6
CONTINUOUS
 62
               7
100
AcDbLine
 10
-2.75
 20
2.2000000000000002
 30
0.0
 11
2.75
 21
2.2000000000000002
 31
0.0
  0
LINE
  5
18D
100
AcDbEntity
  8
0
  6
CENTER
 62
               2
100
AcDbLine
 10
0.0
 20
-4.5999999999999996
 30
0.0
 11
0.0
 21
27.149999999999999
 31
0.0
  0
LINE
  5
18E
100
AcDbEntity
  8
0
  6
CONTINUOUS
 62
               7
100
AcDbLine
 10
-4.0
 20
17.300000000000001
 30
0.0
 11
-3.3799999999999999
 21
17.649999999999999
 31
0.0
  0
LINE
  5
18F
100
AcDbEntity
  8
0
  6
CENTER
 62
               2
100
AcDbLine
 10
-5.0199999999999996
 20
20.600000000000001
 30
0.0
 11
5.1900000000000004
 21
20.600000000000001
 31
0.0
  0
LINE
  5
190
100
AcDbEntity
  8
0
  6
CONTINUOUS
 62
               7
100
AcDbLine
 10
-3.8999999999999999
 20
21.600000000000001
 30
0.0
 11
-3.8999999999999999
 21
19.600000000000001
 31
0.0
  0
LINE
  5
191
100
AcDbEntity
  8
0
  6
CONTINUOUS
 62
               7
100
AcDbLine
 10
3.8999999999999999
 20
21.600000000000001
 30
0.0
 11
3.8999999999999999
 21
19.600000000000001
 31
0.0
  0
ENDBLK
  5
192
100
AcDbEntity
  8
0
100
AcDbBlockEnd
  0
BLOCK
  5
193
100
AcDbEntity
  8
0
100
AcDbBlockBegin
  2
MS_9
 70
               0
 10
0.0
 20
0.0
 30
0.0
  3
MS_9
  1

  0
ARC
  5
194
100
AcDbEntity
  8
0
  6
CONTINUOUS
 62
               7
100
AcDbCircle
 10
-0.0000195768619138
 20
19.899972253616003
 30
0.0
 40
4.0000277464319023
100
AcDbArc
 50
89.999719584053992
 51
185.73873109653275
  0
ARC
  5
195
100
AcDbEntity
  8
0
  6
CONTINUOUS
 62
               7
100
AcDbCircle
 10
0.0000030517593641
 20
19.899996948240634
 30
0.0
 40
3.000003051760916
100
AcDbArc
 50
90.000058284251068
 51
179.99994171574835
  0
ARC
  5
196
100
AcDbEntity
  8
0
  6
CONTINUOUS
 62
               7
100
AcDbCircle
 10
0.0
 20
9.9427337646484357
 30
0.0
 40
7.6468271696203098
100
AcDbArc
 50
252.49564184491589
 51
287.50435815508291
  0
ARC
  5
197
100
AcDbEntity
  8
0
  6
CONTINUOUS
 62
               7
100
AcDbCircle
 10
-3.4458132157249941
 20
4.3502666578314093
 30
0.0
 40
2.05031573984673
100
AcDbArc
 50
269.60354918306655
 51
303.97611155930161
  0
ARC
  5
198
100
AcDbEntity
  8
0
  6
CONTINUOUS
 62
               7
100
AcDbCircle
 10
-3.4591648395428489
 20
13.253802183695271
 30
0.0
 40
2.0461979867410776
100
AcDbArc
 50
55.493695796088915
 51
90.023385406030712
  0
ARC
  5
199
100
AcDbEntity
  8
0
  6
CONTINUOUS
 62
               7
100
AcDbCircle
 10
3.4458132157249941
 20
4.3502666578314093
 30
0.0
 40
2.05031573984673
100
AcDbArc
 50
236.02388844069716
 51
270.3964508169322
  0
ARC
  5
19A
100
AcDbEntity
  8
0
  6
CONTINUOUS
 62
               7
100
AcDbCircle
 10
3.4591648395428489
 20
13.253802183695271
 30
0.0
 40
2.0461979867410776
100
AcDbArc
 50
89.976614593968904
 51
124.50630420391069
  0
ARC
  5
19B
100
AcDbEntity
  8
0
  6
CONTINUOUS
 62
               7
100
AcDbCircle
 10
0.0
 20
7.6572647094726571
 30
0.0
 40
7.6372922761861339
100
AcDbArc
 50
72.473080576068654
 51
107.52691942393095
  0
LINE
  5
19C
100
AcDbEntity
  8
0
  6
CONTINUOUS
 62
               7
100
AcDbLine
 10
-4.0
 20
0.0
 30
0.0
 11
-4.0
 21
2.2999999999999998
 31
0.0
  0
LINE
  5
19D
100
AcDbEntity
  8
0
  6
CONTINUOUS
 62
               7
100
AcDbLine
 10
4.0
 20
0.0
 30
0.0
 11
4.0
 21
2.2999999999999998
 31
0.0
  0
LINE
  5
19E
100
AcDbEntity
  8
0
  6
CONTINUOUS
 62
               7
100
AcDbLine
 10
-4.0
 20
0.0
 30
0.0
 11
4.0
 21
0.0
 31
0.0
  0
LINE
  5
19F
100
AcDbEntity
  8
0
  6
CONTINUOUS
 62
               7
100
AcDbLine
 10
-4.0
 20
0.8
 30
0.0
 11
4.0
 21
0.8
 31
0.0
  0
LINE
  5
1A0
100
AcDbEntity
  8
0
  6
CONTINUOUS
 62
               2
100
AcDbLine
 10
2.0600000000000001
 20
-5.4000000000000004
 30
0.0
 11
2.0600000000000001
 21
0.0
 31
0.0
  0
LINE
  5
1A1
100
AcDbEntity
  8
0
  6
CONTINUOUS
 62
               7
100
AcDbLine
 10
2.5
 20
-5.4000000000000004
 30
0.0
 11
2.5
 21
0.0
 31
0.0
  0
LINE
  5
1A2
100
AcDbEntity
  8
0
  6
CONTINUOUS
 62
               7
100
AcDbLine
 10
-2.5
 20
-5.4000000000000004
 30
0.0
 11
-2.5
 21
0.0
 31
0.0
  0
LINE
  5
1A3
100
AcDbEntity
  8
0
  6
CONTINUOUS
 62
               2
100
AcDbLine
 10
-2.0600000000000001
 20
-5.4000000000000004
 30
0.0
 11
-2.0600000000000001
 21
0.0
 31
0.0
  0
LINE
  5
1A4
100
AcDbEntity
  8
0
  6
CONTINUOUS
 62
               7
100
AcDbLine
 10
-2.5
 20
-5.4000000000000004
 30
0.0
 11
2.5
 21
-5.4000000000000004
 31
0.0
  0
LINE
  5
1A5
100
AcDbEntity
  8
0
  6
CONTINUOUS
 62
               7
100
AcDbLine
 10
5.7000000000000002
 20
15.300000000000001
 30
0.0
 11
10.4
 21
15.300000000000001
 31
0.0
  0
LINE
  5
1A6
100
AcDbEntity
  8
0
  6
CONTINUOUS
 62
               7
100
AcDbLine
 10
5.7000000000000002
 20
15.300000000000001
 30
0.0
 11
5.1200000000000001
 21
16.300000000000001
 31
0.0
  0
LINE
  5
1A7
100
AcDbEntity
  8
0
  6
CONTINUOUS
 62
               7
100
AcDbLine
 10
5.1200000000000001
 20
22.899999999999999
 30
0.0
 11
5.1200000000000001
 21
16.300000000000001
 31
0.0
  0
LINE
  5
1A8
100
AcDbEntity
  8
0
  6
CONTINUOUS
 62
               7
100
AcDbLine
 10
5.7000000000000002
 20
23.899999999999999
 30
0.0
 11
5.7000000000000002
 21
15.300000000000001
 31
0.0
  0
LINE
  5
1A9
100
AcDbEntity
  8
0
  6
CONTINUOUS
 62
               7
100
AcDbLine
 10
5.7000000000000002
 20
23.899999999999999
 30
0.0
 11
5.1200000000000001
 21
22.899999999999999
 31
0.0
  0
LINE
  5
1AA
100
AcDbEntity
  8
0
  6
CONTINUOUS
 62
               7
100
AcDbLine
 10
0.0
 20
23.899999999999999
 30
0.0
 11
10.4
 21
23.899999999999999
 31
0.0
  0
LINE
  5
1AB
100
AcDbEntity
  8
0
  6
CONTINUOUS
 62
               7
100
AcDbLine
 10
10.4
 20
23.899999999999999
 30
0.0
 11
10.4
 21
15.300000000000001
 31
0.0
  0
LINE
  5
1AC
100
AcDbEntity
  8
0
  6
CONTINUOUS
 62
               7
100
AcDbLine
 10
10.4
 20
23.899999999999999
 30
0.0
 11
12.4
 21
23.600000000000001
 31
0.0
  0
LINE
  5
1AD
100
AcDbEntity
  8
0
  6
CONTINUOUS
 62
               7
100
AcDbLine
 10
10.4
 20
15.300000000000001
 30
0.0
 11
12.4
 21
15.6
 31
0.0
  0
LINE
  5
1AE
100
AcDbEntity
  8
0
  6
CONTINUOUS
 62
               7
100
AcDbLine
 10
12.4
 20
23.600000000000001
 30
0.0
 11
12.4
 21
15.6
 31
0.0
  0
LINE
  5
1AF
100
AcDbEntity
  8
0
  6
CONTINUOUS
 62
               7
100
AcDbLine
 10
12.4
 20
15.6
 30
0.0
 11
13.199999999999999
 21
15.6
 31
0.0
  0
LINE
  5
1B0
100
AcDbEntity
  8
0
  6
CONTINUOUS
 62
               7
100
AcDbLine
 10
12.4
 20
23.600000000000001
 30
0.0
 11
13.199999999999999
 21
23.600000000000001
 31
0.0
  0
LINE
  5
1B1
100
AcDbEntity
  8
0
  6
CONTINUOUS
 62
               7
100
AcDbLine
 10
13.199999999999999
 20
23.600000000000001
 30
0.0
 11
13.199999999999999
 21
15.6
 31
0.0
  0
LINE
  5
1B2
100
AcDbEntity
  8
0
  6
CONTINUOUS
 62
               7
100
AcDbLine
 10
13.199999999999999
 20
22.100000000000001
 30
0.0
 11
13.9
 21
22.100000000000001
 31
0.0
  0
LINE
  5
1B3
100
AcDbEntity
  8
0
  6
CONTINUOUS
 62
               7
100
AcDbLine
 10
13.199999999999999
 20
17.100000000000001
 30
0.0
 11
13.9
 21
17.100000000000001
 31
0.0
  0
LINE
  5
1B4
100
AcDbEntity
  8
0
  6
CONTINUOUS
 62
               7
100
AcDbLine
 10
13.9
 20
14.699999999999999
 30
0.0
 11
15.1
 21
14.699999999999999
 31
0.0
  0
LINE
  5
1B5
100
AcDbEntity
  8
0
  6
CONTINUOUS
 62
               7
100
AcDbLine
 10
13.9
 20
24.5
 30
0.0
 11
13.9
 21
14.699999999999999
 31
0.0
  0
LINE
  5
1B6
100
AcDbEntity
  8
0
  6
CONTINUOUS
 62
               7
100
AcDbLine
 10
15.1
 20
24.5
 30
0.0
 11
15.1
 21
14.699999999999999
 31
0.0
  0
LINE
  5
1B7
100
AcDbEntity
  8
0
  6
CONTINUOUS
 62
               7
100
AcDbLine
 10
13.9
 20
24.5
 30
0.0
 11
15.1
 21
24.5
 31
0.0
  0
LINE
  5
1B8
100
AcDbEntity
  8
0
  6
CONTINUOUS
 62
               7
100
AcDbLine
 10
-3.0
 20
16.870000000000001
 30
0.0
 11
3.0
 21
16.870000000000001
 31
0.0
  0
LINE
  5
1B9
100
AcDbEntity
  8
0
  6
CONTINUOUS
 62
               7
100
AcDbLine
 10
4.0
 20
16.300000000000001
 30
0.0
 11
3.0
 21
16.870000000000001
 31
0.0
  0
LINE
  5
1BA
100
AcDbEntity
  8
0
  6
CONTINUOUS
 62
               7
100
AcDbLine
 10
-4.0
 20
16.300000000000001
 30
0.0
 11
-3.0
 21
16.870000000000001
 31
0.0
  0
LINE
  5
1BB
100
AcDbEntity
  8
0
  6
CONTINUOUS
 62
               7
100
AcDbLine
 10
0.0
 20
19.600000000000001
 30
0.0
 11
3.0
 21
16.870000000000001
 31
0.0
  0
LINE
  5
1BC
100
AcDbEntity
  8
0
  6
CONTINUOUS
 62
               7
100
AcDbLine
 10
-4.0
 20
16.300000000000001
 30
0.0
 11
5.1200000000000001
 21
16.300000000000001
 31
0.0
  0
LINE
  5
1BD
100
AcDbEntity
  8
0
  6
CONTINUOUS
 62
               7
100
AcDbLine
 10
0.0
 20
22.899999999999999
 30
0.0
 11
5.1200000000000001
 21
22.899999999999999
 31
0.0
  0
LINE
  5
1BE
100
AcDbEntity
  8
0
  6
CONTINUOUS
 62
               7
100
AcDbLine
 10
-3.0
 20
16.870000000000001
 30
0.0
 11
-3.0
 21
19.899999999999999
 31
0.0
  0
LINE
  5
1BF
100
AcDbEntity
  8
0
  6
CONTINUOUS
 62
               7
100
AcDbLine
 10
4.0
 20
15.300000000000001
 30
0.0
 11
4.0
 21
16.300000000000001
 31
0.0
  0
LINE
  5
1C0
100
AcDbEntity
  8
0
  6
CONTINUOUS
 62
               7
100
AcDbLine
 10
-4.0
 20
15.300000000000001
 30
0.0
 11
-4.0
 21
19.899999999999999
 31
0.0
  0
LINE
  5
1C1
100
AcDbEntity
  8
0
  6
CENTER
 62
               2
100
AcDbLine
 10
-5.5999999999999996
 20
19.600000000000001
 30
0.0
 11
16.399999999999999
 21
19.600000000000001
 31
0.0
  0
LINE
  5
1C2
100
AcDbEntity
  8
0
  6
CENTER
 62
               2
100
AcDbLine
 10
0.0
 20
-7.5899999999999999
 30
0.0
 11
0.0
 21
26.18
 31
0.0
  0
LINE
  5
1C3
100
AcDbEntity
  8
0
  6
CONTINUOUS
 62
               7
100
AcDbLine
 10
-4.6100000000000003
 20
2.6499999999999999
 30
0.0
 11
-4.6100000000000003
 21
14.94
 31
0.0
  0
LINE
  5
1C4
100
AcDbEntity
  8
0
  6
CONTINUOUS
 62
               7
100
AcDbLine
 10
-4.6100000000000003
 20
2.6499999999999999
 30
0.0
 11
-4.0
 21
2.2999999999999998
 31
0.0
  0
LINE
  5
1C5
100
AcDbEntity
  8
0
  6
CONTINUOUS
 62
               7
100
AcDbLine
 10
-4.6100000000000003
 20
14.94
 30
0.0
 11
-4.0
 21
15.300000000000001
 31
0.0
  0
LINE
  5
1C6
100
AcDbEntity
  8
0
  6
CONTINUOUS
 62
               7
100
AcDbLine
 10
4.6100000000000003
 20
2.6499999999999999
 30
0.0
 11
4.0
 21
2.2999999999999998
 31
0.0
  0
LINE
  5
1C7
100
AcDbEntity
  8
0
  6
CONTINUOUS
 62
               7
100
AcDbLine
 10
-2.2999999999999998
 20
2.6499999999999999
 30
0.0
 11
-2.2999999999999998
 21
14.94
 31
0.0
  0
LINE
  5
1C8
100
AcDbEntity
  8
0
  6
CONTINUOUS
 62
               7
100
AcDbLine
 10
2.2999999999999998
 20
2.6499999999999999
 30
0.0
 11
2.2999999999999998
 21
14.94
 31
0.0
  0
LINE
  5
1C9
100
AcDbEntity
  8
0
  6
CONTINUOUS
 62
               7
100
AcDbLine
 10
4.6100000000000003
 20
2.6499999999999999
 30
0.0
 11
4.6100000000000003
 21
14.94
 31
0.0
  0
LINE
  5
1CA
100
AcDbEntity
  8
0
  6
CONTINUOUS
 62
               7
100
AcDbLine
 10
4.6100000000000003
 20
14.94
 30
0.0
 11
4.0
 21
15.300000000000001
 31
0.0
  0
LINE
  5
1CB
100
AcDbEntity
  8
0
  6
CONTINUOUS
 62
               7
100
AcDbLine
 10
-4.0
 20
15.300000000000001
 30
0.0
 11
4.0
 21
15.300000000000001
 31
0.0
  0
LINE
  5
1CC
100
AcDbEntity
  8
0
  6
CONTINUOUS
 62
               7
100
AcDbLine
 10
-4.0
 20
2.2999999999999998
 30
0.0
 11
4.0
 21
2.2999999999999998
 31
0.0
  0
ENDBLK
  5
1CD
100
AcDbEntity
  8
0
100
AcDbBlockEnd
  0
BLOCK
  5
1CE
100
AcDbEntity
  8
0
100
AcDbBlockBegin
  2
MS_10
 70
               0
 10
0.0
 20
0.0
 30
0.0
  3
MS_10
  1

  0
ARC
  5
1CF
100
AcDbEntity
  8
0
  6
CONTINUOUS
 62
               7
100
AcDbCircle
 10
0.0046887805741826
 20
-0.0039672389224641
 30
0.0
 40
2.996036430037718
100
AcDbArc
 50
189.52994147925332
 51
269.91033238283279
  0
ARC
  5
1D0
100
AcDbEntity
  8
0
  6
CONTINUOUS
 62
               7
100
AcDbCircle
 10
0.0046887805741826
 20
0.0039672389224641
 30
0.0
 40
2.996036430037718
100
AcDbArc
 50
90.089667617166441
 51
170.47005852074585
  0
ARC
  5
1D1
100
AcDbEntity
  8
0
  6
CONTINUOUS
 62
               7
100
AcDbCircle
 10
0.0
 20
0.0
 30
0.0
 40
3.9950594488693159
100
AcDbArc
 50
51.810553098572974
 51
308.18944690142621
  0
LINE
  5
1D2
100
AcDbEntity
  8
0
  6
CONTINUOUS
 62
               7
100
AcDbLine
 10
5.7000000000000002
 20
-4.2999999999999998
 30
0.0
 11
5.7000000000000002
 21
-0.5
 31
0.0
  0
LINE
  5
1D3
100
AcDbEntity
  8
0
  6
CONTINUOUS
 62
               7
100
AcDbLine
 10
5.1200000000000001
 20
-3.2999999999999998
 30
0.0
 11
5.1200000000000001
 21
-0.5
 31
0.0
  0
LINE
  5
1D4
100
AcDbEntity
  8
0
  6
CONTINUOUS
 62
               7
100
AcDbLine
 10
-3.96
 20
-0.5
 30
0.0
 11
5.7000000000000002
 21
-0.5
 31
0.0
  0
LINE
  5
1D5
100
AcDbEntity
  8
0
  6
CONTINUOUS
 62
               7
100
AcDbLine
 10
-3.96
 20
0.5
 30
0.0
 11
5.7000000000000002
 21
0.5
 31
0.0
  0
LINE
  5
1D6
100
AcDbEntity
  8
0
  6
CONTINUOUS
 62
               7
100
AcDbLine
 10
5.1200000000000001
 20
-3.2999999999999998
 30
0.0
 11
0.0
 21
-3.0
 31
0.0
  0
LINE
  5
1D7
100
AcDbEntity
  8
0
  6
CONTINUOUS
 62
               7
100
AcDbLine
 10
5.1200000000000001
 20
3.2999999999999998
 30
0.0
 11
0.0
 21
3.0
 31
0.0
  0
LINE
  5
1D8
100
AcDbEntity
  8
0
  6
CONTINUOUS
 62
               7
100
AcDbLine
 10
-4.6100000000000003
 20
0.0
 30
0.0
 11
-2.2999999999999998
 21
-4.0
 31
0.0
  0
LINE
  5
1D9
100
AcDbEntity
  8
0
  6
CONTINUOUS
 62
               7
100
AcDbLine
 10
-2.2999999999999998
 20
4.0
 30
0.0
 11
-4.6100000000000003
 21
0.0
 31
0.0
  0
LINE
  5
1DA
100
AcDbEntity
  8
0
  6
CONTINUOUS
 62
               7
100
AcDbLine
 10
2.2999999999999998
 20
4.0
 30
0.0
 11
-2.2999999999999998
 21
4.0
 31
0.0
  0
LINE
  5
1DB
100
AcDbEntity
  8
0
  6
CONTINUOUS
 62
               7
100
AcDbLine
 10
2.79
 20
3.1600000000000001
 30
0.0
 11
2.2999999999999998
 21
4.0
 31
0.0
  0
LINE
  5
1DC
100
AcDbEntity
  8
0
  6
CONTINUOUS
 62
               7
100
AcDbLine
 10
2.2999999999999998
 20
-4.0
 30
0.0
 11
2.79
 21
-3.1600000000000001
 31
0.0
  0
LINE
  5
1DD
100
AcDbEntity
  8
0
  6
CONTINUOUS
 62
               7
100
AcDbLine
 10
-2.2999999999999998
 20
-4.0
 30
0.0
 11
2.2999999999999998
 21
-4.0
 31
0.0
  0
LINE
  5
1DE
100
AcDbEntity
  8
0
  6
CENTER
 62
               2
100
AcDbLine
 10
0.0
 20
4.9100000000000001
 30
0.0
 11
0.0
 21
-4.9400000000000004
 31
0.0
  0
LINE
  5
1DF
100
AcDbEntity
  8
0
  6
CENTER
 62
               2
100
AcDbLine
 10
-5.5999999999999996
 20
0.0
 30
0.0
 11
16.399999999999999
 21
0.0
 31
0.0
  0
LINE
  5
1E0
100
AcDbEntity
  8
0
  6
CONTINUOUS
 62
               7
100
AcDbLine
 10
5.1200000000000001
 20
3.2999999999999998
 30
0.0
 11
5.1200000000000001
 21
0.5
 31
0.0
  0
LINE
  5
1E1
100
AcDbEntity
  8
0
  6
CONTINUOUS
 62
               7
100
AcDbLine
 10
5.7000000000000002
 20
4.2999999999999998
 30
0.0
 11
5.1200000000000001
 21
3.2999999999999998
 31
0.0
  0
LINE
  5
1E2
100
AcDbEntity
  8
0
  6
CONTINUOUS
 62
               7
100
AcDbLine
 10
5.7000000000000002
 20
-4.2999999999999998
 30
0.0
 11
5.1200000000000001
 21
-3.2999999999999998
 31
0.0
  0
LINE
  5
1E3
100
AcDbEntity
  8
0
  6
CONTINUOUS
 62
               7
100
AcDbLine
 10
10.4
 20
-4.2999999999999998
 30
0.0
 11
12.4
 21
-4.0
 31
0.0
  0
LINE
  5
1E4
100
AcDbEntity
  8
0
  6
CONTINUOUS
 62
               7
100
AcDbLine
 10
10.4
 20
4.2999999999999998
 30
0.0
 11
12.4
 21
4.0
 31
0.0
  0
LINE
  5
1E5
100
AcDbEntity
  8
0
  6
CONTINUOUS
 62
               7
100
AcDbLine
 10
10.4
 20
4.2999999999999998
 30
0.0
 11
10.4
 21
-4.2999999999999998
 31
0.0
  0
LINE
  5
1E6
100
AcDbEntity
  8
0
  6
CONTINUOUS
 62
               7
100
AcDbLine
 10
5.7000000000000002
 20
4.2999999999999998
 30
0.0
 11
5.7000000000000002
 21
0.5
 31
0.0
  0
LINE
  5
1E7
100
AcDbEntity
  8
0
  6
CONTINUOUS
 62
               7
100
AcDbLine
 10
12.4
 20
4.0
 30
0.0
 11
12.4
 21
-4.0
 31
0.0
  0
LINE
  5
1E8
100
AcDbEntity
  8
0
  6
CONTINUOUS
 62
               7
100
AcDbLine
 10
5.7000000000000002
 20
-4.2999999999999998
 30
0.0
 11
10.4
 21
-4.2999999999999998
 31
0.0
  0
LINE
  5
1E9
100
AcDbEntity
  8
0
  6
CONTINUOUS
 62
               7
100
AcDbLine
 10
5.7000000000000002
 20
4.2999999999999998
 30
0.0
 11
10.4
 21
4.2999999999999998
 31
0.0
  0
LINE
  5
1EA
100
AcDbEntity
  8
0
  6
CONTINUOUS
 62
               7
100
AcDbLine
 10
13.199999999999999
 20
2.5
 30
0.0
 11
13.9
 21
2.5
 31
0.0
  0
LINE
  5
1EB
100
AcDbEntity
  8
0
  6
CONTINUOUS
 62
               7
100
AcDbLine
 10
13.199999999999999
 20
-2.5
 30
0.0
 11
13.9
 21
-2.5
 31
0.0
  0
LINE
  5
1EC
100
AcDbEntity
  8
0
  6
CONTINUOUS
 62
               7
100
AcDbLine
 10
12.4
 20
4.0
 30
0.0
 11
13.199999999999999
 21
4.0
 31
0.0
  0
LINE
  5
1ED
100
AcDbEntity
  8
0
  6
CONTINUOUS
 62
               7
100
AcDbLine
 10
12.4
 20
-4.0
 30
0.0
 11
13.199999999999999
 21
-4.0
 31
0.0
  0
LINE
  5
1EE
100
AcDbEntity
  8
0
  6
CONTINUOUS
 62
               7
100
AcDbLine
 10
13.9
 20
4.9000000000000004
 30
0.0
 11
13.9
 21
-4.9000000000000004
 31
0.0
  0
LINE
  5
1EF
100
AcDbEntity
  8
0
  6
CONTINUOUS
 62
               7
100
AcDbLine
 10
13.199999999999999
 20
4.0
 30
0.0
 11
13.199999999999999
 21
-4.0
 31
0.0
  0
LINE
  5
1F0
100
AcDbEntity
  8
0
  6
CONTINUOUS
 62
               7
100
AcDbLine
 10
13.9
 20
-4.9000000000000004
 30
0.0
 11
15.1
 21
-4.9000000000000004
 31
0.0
  0
LINE
  5
1F1
100
AcDbEntity
  8
0
  6
CONTINUOUS
 62
               7
100
AcDbLine
 10
13.9
 20
4.9000000000000004
 30
0.0
 11
15.1
 21
4.9000000000000004
 31
0.0
  0
LINE
  5
1F2
100
AcDbEntity
  8
0
  6
CONTINUOUS
 62
               7
100
AcDbLine
 10
15.1
 20
4.9000000000000004
 30
0.0
 11
15.1
 21
-4.9000000000000004
 31
0.0
  0
ENDBLK
  5
1F3
100
AcDbEntity
  8
0
100
AcDbBlockEnd
  0
BLOCK
  5
1F4
100
AcDbEntity
  8
0
100
AcDbBlockBegin
  2
MS_11
 70
               0
 10
0.0
 20
0.0
 30
0.0
  3
MS_11
  1

  0
ARC
  5
1F5
100
AcDbEntity
  8
0
  6
CONTINUOUS
 62
               7
100
AcDbCircle
 10
2.0
 20
8.0767173767089844
 30
0.0
 40
5.7835336505181019
100
AcDbArc
 50
249.76879080816275
 51
290.23120919183606
  0
ARC
  5
1F6
100
AcDbEntity
  8
0
  6
CONTINUOUS
 62
               7
100
AcDbCircle
 10
-2.0
 20
8.0767173767089844
 30
0.0
 40
5.7835336505181019
100
AcDbArc
 50
249.76879080816275
 51
290.23120919183606
  0
ARC
  5
1F7
100
AcDbEntity
  8
0
  6
CONTINUOUS
 62
               7
100
AcDbCircle
 10
-0.0039642340562285
 20
19.895308672929009
 30
0.0
 40
2.9960394388866058
100
AcDbArc
 50
99.529990088060259
 51
179.91028377402631
  0
ARC
  5
1F8
100
AcDbEntity
  8
0
  6
CONTINUOUS
 62
               7
100
AcDbCircle
 10
-0.001201582235747
 20
19.597759473187363
 30
0.0
 40
3.3001534989062113
100
AcDbArc
 50
98.693229147980574
 51
204.67580890712932
  0
ARC
  5
1F9
100
AcDbEntity
  8
0
  6
CONTINUOUS
 62
               7
100
AcDbCircle
 10
0.0039642340562285
 20
19.895308672929009
 30
0.0
 40
2.9960394388866058
100
AcDbArc
 50
0.0897162259732988
 51
80.470009911939357
  0
ARC
  5
1FA
100
AcDbEntity
  8
0
  6
CONTINUOUS
 62
               7
100
AcDbCircle
 10
0.0
 20
19.599990844726562
 30
0.0
 40
4.3000985820124198
100
AcDbArc
 50
318.48826939638354
 51
221.51173060361523
  0
ARC
  5
1FB
100
AcDbEntity
  8
0
  6
CONTINUOUS
 62
               7
100
AcDbCircle
 10
0.001201582235747
 20
19.597759473187363
 30
0.0
 40
3.3001534989062113
100
AcDbArc
 50
335.32419109286946
 51
81.306770852019056
  0
ARC
  5
1FC
100
AcDbEntity
  8
0
  6
CONTINUOUS
 62
               7
100
AcDbCircle
 10
-2.0
 20
9.5232830047607422
 30
0.0
 40
5.7741512801894794
100
AcDbArc
 50
69.734475508488174
 51
110.26552449151144
  0
ARC
  5
1FD
100
AcDbEntity
  8
0
  6
CONTINUOUS
 62
               7
100
AcDbCircle
 10
2.0
 20
9.5232810974121094
 30
0.0
 40
5.7741530694685395
100
AcDbArc
 50
69.734482063994776
 51
110.26551793600483
  0
LINE
  5
1FE
100
AcDbEntity
  8
0
  6
CONTINUOUS
 62
               7
100
AcDbLine
 10
-4.0
 20
2.2999999999999998
 30
0.0
 11
4.0
 21
2.2999999999999998
 31
0.0
  0
LINE
  5
1FF
100
AcDbEntity
  8
0
  6
CONTINUOUS
 62
               7
100
AcDbLine
 10
-4.0
 20
0.0
 30
0.0
 11
4.0
 21
0.0
 31
0.0
  0
LINE
  5
200
100
AcDbEntity
  8
0
  6
CONTINUOUS
 62
               7
100
AcDbLine
 10
-4.0
 20
0.8
 30
0.0
 11
4.0
 21
0.8
 31
0.0
  0
LINE
  5
201
100
AcDbEntity
  8
0
  6
CONTINUOUS
 62
               2
100
AcDbLine
 10
2.0600000000000001
 20
-5.4000000000000004
 30
0.0
 11
2.0600000000000001
 21
0.0
 31
0.0
  0
LINE
  5
202
100
AcDbEntity
  8
0
  6
CONTINUOUS
 62
               7
100
AcDbLine
 10
2.5
 20
-5.4000000000000004
 30
0.0
 11
2.5
 21
0.0
 31
0.0
  0
LINE
  5
203
100
AcDbEntity
  8
0
  6
CONTINUOUS
 62
               7
100
AcDbLine
 10
-2.5
 20
-5.4000000000000004
 30
0.0
 11
-2.5
 21
0.0
 31
0.0
  0
LINE
  5
204
100
AcDbEntity
  8
0
  6
CONTINUOUS
 62
               2
100
AcDbLine
 10
-2.0600000000000001
 20
-5.4000000000000004
 30
0.0
 11
-2.0600000000000001
 21
0.0
 31
0.0
  0
LINE
  5
205
100
AcDbEntity
  8
0
  6
CONTINUOUS
 62
               7
100
AcDbLine
 10
-2.5
 20
-5.4000000000000004
 30
0.0
 11
2.5
 21
-5.4000000000000004
 31
0.0
  0
LINE
  5
206
100
AcDbEntity
  8
0
  6
CONTINUOUS
 62
               7
100
AcDbLine
 10
-3.0
 20
16.870000000000001
 30
0.0
 11
-3.0
 21
19.899999999999999
 31
0.0
  0
LINE
  5
207
100
AcDbEntity
  8
0
  6
CONTINUOUS
 62
               7
100
AcDbLine
 10
-3.0
 20
16.870000000000001
 30
0.0
 11
-0.5
 21
16.870000000000001
 31
0.0
  0
LINE
  5
208
100
AcDbEntity
  8
0
  6
CONTINUOUS
 62
               7
100
AcDbLine
 10
-4.0
 20
16.300000000000001
 30
0.0
 11
-3.0
 21
16.870000000000001
 31
0.0
  0
LINE
  5
209
100
AcDbEntity
  8
0
  6
CONTINUOUS
 62
               7
100
AcDbLine
 10
0.5
 20
16.300000000000001
 30
0.0
 11
4.0
 21
16.300000000000001
 31
0.0
  0
LINE
  5
20A
100
AcDbEntity
  8
0
  6
CONTINUOUS
 62
               7
100
AcDbLine
 10
0.5
 20
16.870000000000001
 30
0.0
 11
3.0
 21
16.870000000000001
 31
0.0
  0
LINE
  5
20B
100
AcDbEntity
  8
0
  6
CONTINUOUS
 62
               7
100
AcDbLine
 10
-0.5
 20
16.300000000000001
 30
0.0
 11
-0.5
 21
23.870000000000001
 31
0.0
  0
LINE
  5
20C
100
AcDbEntity
  8
0
  6
CONTINUOUS
 62
               7
100
AcDbLine
 10
0.5
 20
16.300000000000001
 30
0.0
 11
0.5
 21
23.870000000000001
 31
0.0
  0
LINE
  5
20D
100
AcDbEntity
  8
0
  6
CONTINUOUS
 62
               7
100
AcDbLine
 10
3.0
 20
16.870000000000001
 30
0.0
 11
3.0
 21
19.899999999999999
 31
0.0
  0
LINE
  5
20E
100
AcDbEntity
  8
0
  6
CENTER
 62
               2
100
AcDbLine
 10
-6.4500000000000002
 20
19.600000000000001
 30
0.0
 11
6.3300000000000001
 21
19.600000000000001
 31
0.0
  0
LINE
  5
20F
100
AcDbEntity
  8
0
  6
CONTINUOUS
 62
               7
100
AcDbLine
 10
-4.0
 20
16.300000000000001
 30
0.0
 11
-0.5
 21
16.300000000000001
 31
0.0
  0
LINE
  5
210
100
AcDbEntity
  8
0
  6
CONTINUOUS
 62
               7
100
AcDbLine
 10
0.0
 20
14.94
 30
0.0
 11
0.0
 21
2.6499999999999999
 31
0.0
  0
LINE
  5
211
100
AcDbEntity
  8
0
  6
CONTINUOUS
 62
               7
100
AcDbLine
 10
-4.0
 20
0.0
 30
0.0
 11
-4.0
 21
16.300000000000001
 31
0.0
  0
LINE
  5
212
100
AcDbEntity
  8
0
  6
CONTINUOUS
 62
               7
100
AcDbLine
 10
4.0
 20
0.0
 30
0.0
 11
4.0
 21
16.300000000000001
 31
0.0
  0
LINE
  5
213
100
AcDbEntity
  8
0
  6
CONTINUOUS
 62
               7
100
AcDbLine
 10
-4.0
 20
15.300000000000001
 30
0.0
 11
4.0
 21
15.300000000000001
 31
0.0
  0
LINE
  5
214
100
AcDbEntity
  8
0
  6
CENTER
 62
               2
100
AcDbLine
 10
0.0
 20
-7.4800000000000004
 30
0.0
 11
0.0
 21
26.18
 31
0.0
  0
LINE
  5
215
100
AcDbEntity
  8
0
  6
CONTINUOUS
 62
               7
100
AcDbLine
 10
4.0
 20
16.300000000000001
 30
0.0
 11
3.0
 21
16.870000000000001
 31
0.0
  0
ENDBLK
  5
216
100
AcDbEntity
  8
0
100
AcDbBlockEnd
  0
BLOCK
  5
217
100
AcDbEntity
  8
0
100
AcDbBlockBegin
  2
MS_12
 70
               0
 10
0.0
 20
0.0
 30
0.0
  3
MS_12
  1

  0
ARC
  5
218
100
AcDbEntity
  8
0
  6
CONTINUOUS
 62
               7
100
AcDbCircle
 10
2.0
 20
8.0767173767089844
 30
0.0
 40
5.7835336505181019
100
AcDbArc
 50
249.76879080816275
 51
290.23120919183606
  0
ARC
  5
219
100
AcDbEntity
  8
0
  6
CONTINUOUS
 62
               7
100
AcDbCircle
 10
-2.0
 20
8.0767173767089844
 30
0.0
 40
5.7835336505181019
100
AcDbArc
 50
249.76879080816275
 51
290.23120919183606
  0
ARC
  5
21A
100
AcDbEntity
  8
0
  6
CONTINUOUS
 62
               7
100
AcDbCircle
 10
-0.0000000000084541
 20
19.600000000000001
 30
0.0
 40
4.3002906878562364
100
AcDbArc
 50
330.15596256412289
 51
29.84403743587626
  0
ARC
  5
21B
100
AcDbEntity
  8
0
  6
CONTINUOUS
 62
               7
100
AcDbCircle
 10
0.0000000000084541
 20
19.600000000000001
 30
0.0
 40
4.3002906878562364
100
AcDbArc
 50
150.15596256412334
 51
209.84403743587589
  0
ARC
  5
21C
100
AcDbEntity
  8
0
  6
CONTINUOUS
 62
               7
100
AcDbCircle
 10
2.0202839461343789
 20
9.5195657601124246
 30
0.0
 40
5.7706484040252217
100
AcDbArc
 50
69.936188681028511
 51
89.506371710706645
  0
ARC
  5
21D
100
AcDbEntity
  8
0
  6
CONTINUOUS
 62
               7
100
AcDbCircle
 10
-2.0202842807976431
 20
9.5195676055412815
 30
0.0
 40
5.770646555781628
100
AcDbArc
 50
90.493625124459328
 51
110.06381448380473
  0
CIRCLE
  5
21E
100
AcDbEntity
  8
0
  6
CONTINUOUS
 62
               7
100
AcDbCircle
 10
0.0
 20
19.599990844726562
 30
0.0
 40
2.0
  0
ARC
  5
21F
100
AcDbEntity
  8
0
  6
CONTINUOUS
 62
               7
100
AcDbCircle
 10
0.0
 20
18.600000000000001
 30
0.0
 40
3.900000000010746
100
AcDbArc
 50
179.9999999999996
 51
0.0
  0
ARC
  5
220
100
AcDbEntity
  8
0
  6
CONTINUOUS
 62
               7
100
AcDbCircle
 10
0.0
 20
20.600000000000001
 30
0.0
 40
3.900000000010746
100
AcDbArc
 50
0.0
 51
179.9999999999996
  0
LINE
  5
221
100
AcDbEntity
  8
0
  6
CONTINUOUS
 62
               7
100
AcDbLine
 10
-4.0
 20
2.2999999999999998
 30
0.0
 11
4.0
 21
2.2999999999999998
 31
0.0
  0
LINE
  5
222
100
AcDbEntity
  8
0
  6
CONTINUOUS
 62
               7
100
AcDbLine
 10
2.0699999999999998
 20
15.300000000000001
 30
0.0
 11
4.0
 21
15.300000000000001
 31
0.0
  0
LINE
  5
223
100
AcDbEntity
  8
0
  6
CONTINUOUS
 62
               7
100
AcDbLine
 10
4.0
 20
16.300000000000001
 30
0.0
 11
3.1499999999999999
 21
16.300000000000001
 31
0.0
  0
LINE
  5
224
100
AcDbEntity
  8
0
  6
CONTINUOUS
 62
               7
100
AcDbLine
 10
-4.0
 20
16.300000000000001
 30
0.0
 11
-3.1499999999999999
 21
16.300000000000001
 31
0.0
  0
LINE
  5
225
100
AcDbEntity
  8
0
  6
CONTINUOUS
 62
               7
100
AcDbLine
 10
4.0
 20
16.300000000000001
 30
0.0
 11
3.3799999999999999
 21
16.649999999999999
 31
0.0
  0
LINE
  5
226
100
AcDbEntity
  8
0
  6
CONTINUOUS
 62
               7
100
AcDbLine
 10
0.0
 20
14.699999999999999
 30
0.0
 11
0.0
 21
2.6499999999999999
 31
0.0
  0
LINE
  5
227
100
AcDbEntity
  8
0
  6
CONTINUOUS
 62
               7
100
AcDbLine
 10
-4.0
 20
0.0
 30
0.0
 11
-4.0
 21
16.300000000000001
 31
0.0
  0
LINE
  5
228
100
AcDbEntity
  8
0
  6
CONTINUOUS
 62
               7
100
AcDbLine
 10
4.0
 20
0.0
 30
0.0
 11
4.0
 21
16.300000000000001
 31
0.0
  0
LINE
  5
229
100
AcDbEntity
  8
0
  6
CONTINUOUS
 62
               7
100
AcDbLine
 10
-4.0
 20
15.300000000000001
 30
0.0
 11
-2.0699999999999998
 21
15.300000000000001
 31
0.0
  0
LINE
  5
22A
100
AcDbEntity
  8
0
  6
CENTER
 62
               2
100
AcDbLine
 10
0.0
 20
-7.5899999999999999
 30
0.0
 11
0.0
 21
26.149999999999999
 31
0.0
  0
LINE
  5
22B
100
AcDbEntity
  8
0
  6
CONTINUOUS
 62
               7
100
AcDbLine
 10
-4.0
 20
16.300000000000001
 30
0.0
 11
-3.3799999999999999
 21
16.649999999999999
 31
0.0
  0
LINE
  5
22C
100
AcDbEntity
  8
0
  6
CENTER
 62
               2
100
AcDbLine
 10
-5.2999999999999998
 20
19.600000000000001
 30
0.0
 11
5.1900000000000004
 21
19.600000000000001
 31
0.0
  0
LINE
  5
22D
100
AcDbEntity
  8
0
  6
CONTINUOUS
 62
               7
100
AcDbLine
 10
-3.8999999999999999
 20
20.600000000000001
 30
0.0
 11
-3.8999999999999999
 21
18.600000000000001
 31
0.0
  0
LINE
  5
22E
100
AcDbEntity
  8
0
  6
CONTINUOUS
 62
               7
100
AcDbLine
 10
3.8999999999999999
 20
20.600000000000001
 30
0.0
 11
3.8999999999999999
 21
18.600000000000001
 31
0.0
  0
LINE
  5
22F
100
AcDbEntity
  8
0
  6
CONTINUOUS
 62
               7
100
AcDbLine
 10
-2.5
 20
-5.4000000000000004
 30
0.0
 11
2.5
 21
-5.4000000000000004
 31
0.0
  0
LINE
  5
230
100
AcDbEntity
  8
0
  6
CONTINUOUS
 62
               2
100
AcDbLine
 10
-2.0600000000000001
 20
-5.4000000000000004
 30
0.0
 11
-2.0600000000000001
 21
0.0
 31
0.0
  0
LINE
  5
231
100
AcDbEntity
  8
0
  6
CONTINUOUS
 62
               2
100
AcDbLine
 10
2.0600000000000001
 20
-5.4000000000000004
 30
0.0
 11
2.0600000000000001
 21
0.0
 31
0.0
  0
LINE
  5
232
100
AcDbEntity
  8
0
  6
CONTINUOUS
 62
               7
100
AcDbLine
 10
-4.0
 20
0.8
 30
0.0
 11
4.0
 21
0.8
 31
0.0
  0
LINE
  5
233
100
AcDbEntity
  8
0
  6
CONTINUOUS
 62
               7
100
AcDbLine
 10
-4.0
 20
0.0
 30
0.0
 11
4.0
 21
0.0
 31
0.0
  0
LINE
  5
234
100
AcDbEntity
  8
0
  6
CONTINUOUS
 62
               7
100
AcDbLine
 10
-2.5
 20
-5.4000000000000004
 30
0.0
 11
-2.5
 21
0.0
 31
0.0
  0
LINE
  5
235
100
AcDbEntity
  8
0
  6
CONTINUOUS
 62
               7
100
AcDbLine
 10
2.5
 20
-5.4000000000000004
 30
0.0
 11
2.5
 21
0.0
 31
0.0
  0
ENDBLK
  5
236
100
AcDbEntity
  8
0
100
AcDbBlockEnd
  0
BLOCK
  5
237
100
AcDbEntity
  8
0
100
AcDbBlockBegin
  2
MS_13
 70
               0
 10
0.0
 20
0.0
 30
0.0
  3
MS_13
  1

  0
ARC
  5
238
100
AcDbEntity
  8
0
  6
CONTINUOUS
 62
               7
100
AcDbCircle
 10
-0.0000195768619138
 20
19.899972253616003
 30
0.0
 40
4.0000277464319023
100
AcDbArc
 50
89.999719584053992
 51
185.73873109653275
  0
ARC
  5
239
100
AcDbEntity
  8
0
  6
CONTINUOUS
 62
               7
100
AcDbCircle
 10
0.0000030517593641
 20
19.899996948240634
 30
0.0
 40
3.000003051760916
100
AcDbArc
 50
90.000058284251068
 51
179.99994171574835
  0
ARC
  5
23A
100
AcDbEntity
  8
0
  6
CONTINUOUS
 62
               7
100
AcDbCircle
 10
0.0
 20
9.9427347183227521
 30
0.0
 40
7.6468280791338605
100
AcDbArc
 50
252.49564399417093
 51
287.50435600582784
  0
ARC
  5
23B
100
AcDbEntity
  8
0
  6
CONTINUOUS
 62
               7
100
AcDbCircle
 10
-3.4458132157249941
 20
4.3502666578314093
 30
0.0
 40
2.05031573984673
100
AcDbArc
 50
269.60354918306655
 51
303.97611155930161
  0
ARC
  5
23C
100
AcDbEntity
  8
0
  6
CONTINUOUS
 62
               7
100
AcDbCircle
 10
-3.4591648395428489
 20
13.253802183695271
 30
0.0
 40
2.0461979867410776
100
AcDbArc
 50
55.493695796088915
 51
90.023385406030712
  0
ARC
  5
23D
100
AcDbEntity
  8
0
  6
CONTINUOUS
 62
               7
100
AcDbCircle
 10
3.4458132157249941
 20
4.3502666578314093
 30
0.0
 40
2.05031573984673
100
AcDbArc
 50
236.02388844069716
 51
270.3964508169322
  0
ARC
  5
23E
100
AcDbEntity
  8
0
  6
CONTINUOUS
 62
               7
100
AcDbCircle
 10
3.4591648395428489
 20
13.253802183695271
 30
0.0
 40
2.0461979867410776
100
AcDbArc
 50
89.976614593968904
 51
124.50630420391069
  0
ARC
  5
23F
100
AcDbEntity
  8
0
  6
CONTINUOUS
 62
               7
100
AcDbCircle
 10
0.0
 20
7.6572647094726571
 30
0.0
 40
7.6372922761861339
100
AcDbArc
 50
72.473080576068654
 51
107.52691942393095
  0
LINE
  5
240
100
AcDbEntity
  8
0
  6
CONTINUOUS
 62
               7
100
AcDbLine
 10
-3.0
 20
-6.4000000000000004
 30
0.0
 11
-3.0
 21
0.0
 31
0.0
  0
LINE
  5
241
100
AcDbEntity
  8
0
  6
CONTINUOUS
 62
               2
100
AcDbLine
 10
-2.4500000000000002
 20
-6.4000000000000004
 30
0.0
 11
-2.4500000000000002
 21
0.0
 31
0.0
  0
LINE
  5
242
100
AcDbEntity
  8
0
  6
CONTINUOUS
 62
               7
100
AcDbLine
 10
-3.0
 20
-6.4000000000000004
 30
0.0
 11
3.0
 21
-6.4000000000000004
 31
0.0
  0
LINE
  5
243
100
AcDbEntity
  8
0
  6
CONTINUOUS
 62
               2
100
AcDbLine
 10
2.4500000000000002
 20
-6.4000000000000004
 30
0.0
 11
2.4500000000000002
 21
0.0
 31
0.0
  0
LINE
  5
244
100
AcDbEntity
  8
0
  6
CONTINUOUS
 62
               7
100
AcDbLine
 10
3.0
 20
-6.4000000000000004
 30
0.0
 11
3.0
 21
0.0
 31
0.0
  0
LINE
  5
245
100
AcDbEntity
  8
0
  6
CONTINUOUS
 62
               7
100
AcDbLine
 10
4.5
 20
0.0
 30
0.0
 11
4.5
 21
0.8
 31
0.0
  0
LINE
  5
246
100
AcDbEntity
  8
0
  6
CONTINUOUS
 62
               7
100
AcDbLine
 10
-4.5
 20
0.0
 30
0.0
 11
-4.5
 21
0.8
 31
0.0
  0
LINE
  5
247
100
AcDbEntity
  8
0
  6
CONTINUOUS
 62
               7
100
AcDbLine
 10
-4.5
 20
0.0
 30
0.0
 11
4.5
 21
0.0
 31
0.0
  0
LINE
  5
248
100
AcDbEntity
  8
0
  6
CONTINUOUS
 62
               7
100
AcDbLine
 10
-4.5
 20
0.8
 30
0.0
 11
4.5
 21
0.8
 31
0.0
  0
LINE
  5
249
100
AcDbEntity
  8
0
  6
CONTINUOUS
 62
               7
100
AcDbLine
 10
5.7000000000000002
 20
15.300000000000001
 30
0.0
 11
10.4
 21
15.300000000000001
 31
0.0
  0
LINE
  5
24A
100
AcDbEntity
  8
0
  6
CONTINUOUS
 62
               7
100
AcDbLine
 10
5.7000000000000002
 20
15.300000000000001
 30
0.0
 11
5.1200000000000001
 21
16.300000000000001
 31
0.0
  0
LINE
  5
24B
100
AcDbEntity
  8
0
  6
CONTINUOUS
 62
               7
100
AcDbLine
 10
5.1200000000000001
 20
22.899999999999999
 30
0.0
 11
5.1200000000000001
 21
16.300000000000001
 31
0.0
  0
LINE
  5
24C
100
AcDbEntity
  8
0
  6
CONTINUOUS
 62
               7
100
AcDbLine
 10
5.7000000000000002
 20
23.899999999999999
 30
0.0
 11
5.7000000000000002
 21
15.300000000000001
 31
0.0
  0
LINE
  5
24D
100
AcDbEntity
  8
0
  6
CONTINUOUS
 62
               7
100
AcDbLine
 10
5.7000000000000002
 20
23.899999999999999
 30
0.0
 11
5.1200000000000001
 21
22.899999999999999
 31
0.0
  0
LINE
  5
24E
100
AcDbEntity
  8
0
  6
CONTINUOUS
 62
               7
100
AcDbLine
 10
0.0
 20
23.899999999999999
 30
0.0
 11
10.4
 21
23.899999999999999
 31
0.0
  0
LINE
  5
24F
100
AcDbEntity
  8
0
  6
CONTINUOUS
 62
               7
100
AcDbLine
 10
10.4
 20
23.899999999999999
 30
0.0
 11
10.4
 21
15.300000000000001
 31
0.0
  0
LINE
  5
250
100
AcDbEntity
  8
0
  6
CONTINUOUS
 62
               7
100
AcDbLine
 10
10.4
 20
23.899999999999999
 30
0.0
 11
12.4
 21
23.600000000000001
 31
0.0
  0
LINE
  5
251
100
AcDbEntity
  8
0
  6
CONTINUOUS
 62
               7
100
AcDbLine
 10
10.4
 20
15.300000000000001
 30
0.0
 11
12.4
 21
15.6
 31
0.0
  0
LINE
  5
252
100
AcDbEntity
  8
0
  6
CONTINUOUS
 62
               7
100
AcDbLine
 10
12.4
 20
23.600000000000001
 30
0.0
 11
12.4
 21
15.6
 31
0.0
  0
LINE
  5
253
100
AcDbEntity
  8
0
  6
CONTINUOUS
 62
               7
100
AcDbLine
 10
12.4
 20
15.6
 30
0.0
 11
13.199999999999999
 21
15.6
 31
0.0
  0
LINE
  5
254
100
AcDbEntity
  8
0
  6
CONTINUOUS
 62
               7
100
AcDbLine
 10
12.4
 20
23.600000000000001
 30
0.0
 11
13.199999999999999
 21
23.600000000000001
 31
0.0
  0
LINE
  5
255
100
AcDbEntity
  8
0
  6
CONTINUOUS
 62
               7
100
AcDbLine
 10
13.199999999999999
 20
23.600000000000001
 30
0.0
 11
13.199999999999999
 21
15.6
 31
0.0
  0
LINE
  5
256
100
AcDbEntity
  8
0
  6
CONTINUOUS
 62
               7
100
AcDbLine
 10
13.199999999999999
 20
22.100000000000001
 30
0.0
 11
13.9
 21
22.100000000000001
 31
0.0
  0
LINE
  5
257
100
AcDbEntity
  8
0
  6
CONTINUOUS
 62
               7
100
AcDbLine
 10
13.199999999999999
 20
17.100000000000001
 30
0.0
 11
13.9
 21
17.100000000000001
 31
0.0
  0
LINE
  5
258
100
AcDbEntity
  8
0
  6
CONTINUOUS
 62
               7
100
AcDbLine
 10
13.9
 20
14.699999999999999
 30
0.0
 11
15.1
 21
14.699999999999999
 31
0.0
  0
LINE
  5
259
100
AcDbEntity
  8
0
  6
CONTINUOUS
 62
               7
100
AcDbLine
 10
13.9
 20
24.5
 30
0.0
 11
13.9
 21
14.699999999999999
 31
0.0
  0
LINE
  5
25A
100
AcDbEntity
  8
0
  6
CONTINUOUS
 62
               7
100
AcDbLine
 10
15.1
 20
24.5
 30
0.0
 11
15.1
 21
14.699999999999999
 31
0.0
  0
LINE
  5
25B
100
AcDbEntity
  8
0
  6
CONTINUOUS
 62
               7
100
AcDbLine
 10
13.9
 20
24.5
 30
0.0
 11
15.1
 21
24.5
 31
0.0
  0
LINE
  5
25C
100
AcDbEntity
  8
0
  6
CONTINUOUS
 62
               7
100
AcDbLine
 10
-3.0
 20
16.870000000000001
 30
0.0
 11
3.0
 21
16.870000000000001
 31
0.0
  0
LINE
  5
25D
100
AcDbEntity
  8
0
  6
CONTINUOUS
 62
               7
100
AcDbLine
 10
4.0
 20
16.300000000000001
 30
0.0
 11
3.0
 21
16.870000000000001
 31
0.0
  0
LINE
  5
25E
100
AcDbEntity
  8
0
  6
CONTINUOUS
 62
               7
100
AcDbLine
 10
-4.0
 20
16.300000000000001
 30
0.0
 11
-3.0
 21
16.870000000000001
 31
0.0
  0
LINE
  5
25F
100
AcDbEntity
  8
0
  6
CONTINUOUS
 62
               7
100
AcDbLine
 10
0.0
 20
19.600000000000001
 30
0.0
 11
3.0
 21
16.870000000000001
 31
0.0
  0
LINE
  5
260
100
AcDbEntity
  8
0
  6
CONTINUOUS
 62
               7
100
AcDbLine
 10
-4.0
 20
16.300000000000001
 30
0.0
 11
5.1200000000000001
 21
16.300000000000001
 31
0.0
  0
LINE
  5
261
100
AcDbEntity
  8
0
  6
CONTINUOUS
 62
               7
100
AcDbLine
 10
0.0
 20
22.899999999999999
 30
0.0
 11
5.1200000000000001
 21
22.899999999999999
 31
0.0
  0
LINE
  5
262
100
AcDbEntity
  8
0
  6
CONTINUOUS
 62
               7
100
AcDbLine
 10
-3.0
 20
16.870000000000001
 30
0.0
 11
-3.0
 21
19.899999999999999
 31
0.0
  0
LINE
  5
263
100
AcDbEntity
  8
0
  6
CONTINUOUS
 62
               7
100
AcDbLine
 10
4.0
 20
15.300000000000001
 30
0.0
 11
4.0
 21
16.300000000000001
 31
0.0
  0
LINE
  5
264
100
AcDbEntity
  8
0
  6
CONTINUOUS
 62
               7
100
AcDbLine
 10
-4.0
 20
15.300000000000001
 30
0.0
 11
-4.0
 21
19.899999999999999
 31
0.0
  0
LINE
  5
265
100
AcDbEntity
  8
0
  6
CENTER
 62
               2
100
AcDbLine
 10
-5.5999999999999996
 20
19.600000000000001
 30
0.0
 11
16.399999999999999
 21
19.600000000000001
 31
0.0
  0
LINE
  5
266
100
AcDbEntity
  8
0
  6
CENTER
 62
               2
100
AcDbLine
 10
0.0
 20
-9.0800000000000001
 30
0.0
 11
0.0
 21
26.18
 31
0.0
  0
LINE
  5
267
100
AcDbEntity
  8
0
  6
CONTINUOUS
 62
               7
100
AcDbLine
 10
-4.6100000000000003
 20
14.94
 30
0.0
 11
-4.0
 21
15.300000000000001
 31
0.0
  0
LINE
  5
268
100
AcDbEntity
  8
0
  6
CONTINUOUS
 62
               7
100
AcDbLine
 10
4.6100000000000003
 20
14.94
 30
0.0
 11
4.0
 21
15.300000000000001
 31
0.0
  0
LINE
  5
269
100
AcDbEntity
  8
0
  6
CONTINUOUS
 62
               7
100
AcDbLine
 10
-4.0
 20
15.300000000000001
 30
0.0
 11
4.0
 21
15.300000000000001
 31
0.0
  0
LINE
  5
26A
100
AcDbEntity
  8
0
  6
CONTINUOUS
 62
               7
100
AcDbLine
 10
4.0
 20
0.8
 30
0.0
 11
4.0
 21
2.2999999999999998
 31
0.0
  0
LINE
  5
26B
100
AcDbEntity
  8
0
  6
CONTINUOUS
 62
               7
100
AcDbLine
 10
-4.0
 20
0.8
 30
0.0
 11
-4.0
 21
2.2999999999999998
 31
0.0
  0
LINE
  5
26C
100
AcDbEntity
  8
0
  6
CONTINUOUS
 62
               7
100
AcDbLine
 10
-4.6100000000000003
 20
2.6499999999999999
 30
0.0
 11
-4.6100000000000003
 21
14.94
 31
0.0
  0
LINE
  5
26D
100
AcDbEntity
  8
0
  6
CONTINUOUS
 62
               7
100
AcDbLine
 10
-4.6100000000000003
 20
2.6499999999999999
 30
0.0
 11
-4.0
 21
2.2999999999999998
 31
0.0
  0
LINE
  5
26E
100
AcDbEntity
  8
0
  6
CONTINUOUS
 62
               7
100
AcDbLine
 10
4.6100000000000003
 20
2.6499999999999999
 30
0.0
 11
4.0
 21
2.2999999999999998
 31
0.0
  0
LINE
  5
26F
100
AcDbEntity
  8
0
  6
CONTINUOUS
 62
               7
100
AcDbLine
 10
-2.2999999999999998
 20
2.6499999999999999
 30
0.0
 11
-2.2999999999999998
 21
14.94
 31
0.0
  0
LINE
  5
270
100
AcDbEntity
  8
0
  6
CONTINUOUS
 62
               7
100
AcDbLine
 10
2.2999999999999998
 20
2.6499999999999999
 30
0.0
 11
2.2999999999999998
 21
14.94
 31
0.0
  0
LINE
  5
271
100
AcDbEntity
  8
0
  6
CONTINUOUS
 62
               7
100
AcDbLine
 10
4.6100000000000003
 20
2.6499999999999999
 30
0.0
 11
4.6100000000000003
 21
14.94
 31
0.0
  0
LINE
  5
272
100
AcDbEntity
  8
0
  6
CONTINUOUS
 62
               7
100
AcDbLine
 10
-4.0
 20
2.2999999999999998
 30
0.0
 11
4.0
 21
2.2999999999999998
 31
0.0
  0
ENDBLK
  5
273
100
AcDbEntity
  8
0
100
AcDbBlockEnd
  0
BLOCK
  5
274
100
AcDbEntity
  8
0
100
AcDbBlockBegin
  2
MS_14
 70
               0
 10
0.0
 20
0.0
 30
0.0
  3
MS_14
  1

  0
ARC
  5
275
100
AcDbEntity
  8
0
  6
CONTINUOUS
 62
               7
100
AcDbCircle
 10
0.0
 20
0.0000000000000004
 30
0.0
 40
4.499288832693451
100
AcDbArc
 50
62.751532573355114
 51
117.24846742664448
  0
ARC
  5
276
100
AcDbEntity
  8
0
  6
CONTINUOUS
 62
               7
100
AcDbCircle
 10
-0.013065056723133
 20
-0.0105530967081351
 30
0.0
 40
4.4919146060581152
100
AcDbArc
 50
302.94819855591993
 51
315.12282724157245
  0
ARC
  5
277
100
AcDbEntity
  8
0
  6
CONTINUOUS
 62
               7
100
AcDbCircle
 10
0.0
 20
-0.0000000000000004
 30
0.0
 40
4.499288832693451
100
AcDbArc
 50
242.75153257335469
 51
297.24846742664408
  0
ARC
  5
278
100
AcDbEntity
  8
0
  6
CONTINUOUS
 62
               7
100
AcDbCircle
 10
-0.0006607090973474
 20
0.0011453611371053
 30
0.0
 40
4.4943019071232904
100
AcDbArc
 50
182.6927859000138
 51
237.27975500699981
  0
ARC
  5
279
100
AcDbEntity
  8
0
  6
CONTINUOUS
 62
               7
100
AcDbCircle
 10
-0.0006607090973474
 20
-0.0011453611371053
 30
0.0
 40
4.4943019071232904
100
AcDbArc
 50
122.72024499299935
 51
177.3072140999854
  0
ARC
  5
27A
100
AcDbEntity
  8
0
  6
CONTINUOUS
 62
               7
100
AcDbCircle
 10
-0.013065056723133
 20
0.0105530967081351
 30
0.0
 40
4.4919146060581152
100
AcDbArc
 50
44.877172758426738
 51
57.051801444079288
  0
ARC
  5
27B
100
AcDbEntity
  8
0
  6
CONTINUOUS
 62
               7
100
AcDbCircle
 10
0.0046887805741826
 20
-0.0039672389224641
 30
0.0
 40
2.996036430037718
100
AcDbArc
 50
189.52994147925332
 51
269.91033238283279
  0
ARC
  5
27C
100
AcDbEntity
  8
0
  6
CONTINUOUS
 62
               7
100
AcDbCircle
 10
0.0046887805741826
 20
0.0039672389224641
 30
0.0
 40
2.996036430037718
100
AcDbArc
 50
90.089667617166441
 51
170.47005852074585
  0
ARC
  5
27D
100
AcDbEntity
  8
0
  6
CONTINUOUS
 62
               7
100
AcDbCircle
 10
0.0
 20
0.0
 30
0.0
 40
3.9950594488693159
100
AcDbArc
 50
51.810553098572974
 51
308.18944690142621
  0
LINE
  5
27E
100
AcDbEntity
  8
0
  6
CONTINUOUS
 62
               7
100
AcDbLine
 10
5.7000000000000002
 20
-4.2999999999999998
 30
0.0
 11
5.7000000000000002
 21
-0.5
 31
0.0
  0
LINE
  5
27F
100
AcDbEntity
  8
0
  6
CONTINUOUS
 62
               7
100
AcDbLine
 10
5.1200000000000001
 20
-3.2999999999999998
 30
0.0
 11
5.1200000000000001
 21
-0.5
 31
0.0
  0
LINE
  5
280
100
AcDbEntity
  8
0
  6
CONTINUOUS
 62
               7
100
AcDbLine
 10
-3.96
 20
-0.5
 30
0.0
 11
5.7000000000000002
 21
-0.5
 31
0.0
  0
LINE
  5
281
100
AcDbEntity
  8
0
  6
CONTINUOUS
 62
               7
100
AcDbLine
 10
-3.96
 20
0.5
 30
0.0
 11
5.7000000000000002
 21
0.5
 31
0.0
  0
LINE
  5
282
100
AcDbEntity
  8
0
  6
CONTINUOUS
 62
               7
100
AcDbLine
 10
5.1200000000000001
 20
-3.2999999999999998
 30
0.0
 11
0.0
 21
-3.0
 31
0.0
  0
LINE
  5
283
100
AcDbEntity
  8
0
  6
CONTINUOUS
 62
               7
100
AcDbLine
 10
5.1200000000000001
 20
3.2999999999999998
 30
0.0
 11
0.0
 21
3.0
 31
0.0
  0
LINE
  5
284
100
AcDbEntity
  8
0
  6
CONTINUOUS
 62
               7
100
AcDbLine
 10
-4.6100000000000003
 20
0.0
 30
0.0
 11
-2.2999999999999998
 21
-4.0
 31
0.0
  0
LINE
  5
285
100
AcDbEntity
  8
0
  6
CONTINUOUS
 62
               7
100
AcDbLine
 10
-2.2999999999999998
 20
4.0
 30
0.0
 11
-4.6100000000000003
 21
0.0
 31
0.0
  0
LINE
  5
286
100
AcDbEntity
  8
0
  6
CONTINUOUS
 62
               7
100
AcDbLine
 10
2.2999999999999998
 20
4.0
 30
0.0
 11
-2.2999999999999998
 21
4.0
 31
0.0
  0
LINE
  5
287
100
AcDbEntity
  8
0
  6
CONTINUOUS
 62
               7
100
AcDbLine
 10
2.79
 20
3.1600000000000001
 30
0.0
 11
2.2999999999999998
 21
4.0
 31
0.0
  0
LINE
  5
288
100
AcDbEntity
  8
0
  6
CONTINUOUS
 62
               7
100
AcDbLine
 10
2.2999999999999998
 20
-4.0
 30
0.0
 11
2.79
 21
-3.1600000000000001
 31
0.0
  0
LINE
  5
289
100
AcDbEntity
  8
0
  6
CONTINUOUS
 62
               7
100
AcDbLine
 10
-2.2999999999999998
 20
-4.0
 30
0.0
 11
2.2999999999999998
 21
-4.0
 31
0.0
  0
LINE
  5
28A
100
AcDbEntity
  8
0
  6
CENTER
 62
               2
100
AcDbLine
 10
0.0
 20
4.9100000000000001
 30
0.0
 11
0.0
 21
-4.9400000000000004
 31
0.0
  0
LINE
  5
28B
100
AcDbEntity
  8
0
  6
CENTER
 62
               2
100
AcDbLine
 10
-5.5999999999999996
 20
0.0
 30
0.0
 11
16.399999999999999
 21
0.0
 31
0.0
  0
LINE
  5
28C
100
AcDbEntity
  8
0
  6
CONTINUOUS
 62
               7
100
AcDbLine
 10
5.1200000000000001
 20
3.2999999999999998
 30
0.0
 11
5.1200000000000001
 21
0.5
 31
0.0
  0
LINE
  5
28D
100
AcDbEntity
  8
0
  6
CONTINUOUS
 62
               7
100
AcDbLine
 10
5.7000000000000002
 20
4.2999999999999998
 30
0.0
 11
5.1200000000000001
 21
3.2999999999999998
 31
0.0
  0
LINE
  5
28E
100
AcDbEntity
  8
0
  6
CONTINUOUS
 62
               7
100
AcDbLine
 10
5.7000000000000002
 20
-4.2999999999999998
 30
0.0
 11
5.1200000000000001
 21
-3.2999999999999998
 31
0.0
  0
LINE
  5
28F
100
AcDbEntity
  8
0
  6
CONTINUOUS
 62
               7
100
AcDbLine
 10
10.4
 20
-4.2999999999999998
 30
0.0
 11
12.4
 21
-4.0
 31
0.0
  0
LINE
  5
290
100
AcDbEntity
  8
0
  6
CONTINUOUS
 62
               7
100
AcDbLine
 10
10.4
 20
4.2999999999999998
 30
0.0
 11
12.4
 21
4.0
 31
0.0
  0
LINE
  5
291
100
AcDbEntity
  8
0
  6
CONTINUOUS
 62
               7
100
AcDbLine
 10
10.4
 20
4.2999999999999998
 30
0.0
 11
10.4
 21
-4.2999999999999998
 31
0.0
  0
LINE
  5
292
100
AcDbEntity
  8
0
  6
CONTINUOUS
 62
               7
100
AcDbLine
 10
5.7000000000000002
 20
4.2999999999999998
 30
0.0
 11
5.7000000000000002
 21
0.5
 31
0.0
  0
LINE
  5
293
100
AcDbEntity
  8
0
  6
CONTINUOUS
 62
               7
100
AcDbLine
 10
12.4
 20
4.0
 30
0.0
 11
12.4
 21
-4.0
 31
0.0
  0
LINE
  5
294
100
AcDbEntity
  8
0
  6
CONTINUOUS
 62
               7
100
AcDbLine
 10
5.7000000000000002
 20
-4.2999999999999998
 30
0.0
 11
10.4
 21
-4.2999999999999998
 31
0.0
  0
LINE
  5
295
100
AcDbEntity
  8
0
  6
CONTINUOUS
 62
               7
100
AcDbLine
 10
5.7000000000000002
 20
4.2999999999999998
 30
0.0
 11
10.4
 21
4.2999999999999998
 31
0.0
  0
LINE
  5
296
100
AcDbEntity
  8
0
  6
CONTINUOUS
 62
               7
100
AcDbLine
 10
13.199999999999999
 20
2.5
 30
0.0
 11
13.9
 21
2.5
 31
0.0
  0
LINE
  5
297
100
AcDbEntity
  8
0
  6
CONTINUOUS
 62
               7
100
AcDbLine
 10
13.199999999999999
 20
-2.5
 30
0.0
 11
13.9
 21
-2.5
 31
0.0
  0
LINE
  5
298
100
AcDbEntity
  8
0
  6
CONTINUOUS
 62
               7
100
AcDbLine
 10
12.4
 20
4.0
 30
0.0
 11
13.199999999999999
 21
4.0
 31
0.0
  0
LINE
  5
299
100
AcDbEntity
  8
0
  6
CONTINUOUS
 62
               7
100
AcDbLine
 10
12.4
 20
-4.0
 30
0.0
 11
13.199999999999999
 21
-4.0
 31
0.0
  0
LINE
  5
29A
100
AcDbEntity
  8
0
  6
CONTINUOUS
 62
               7
100
AcDbLine
 10
13.9
 20
4.9000000000000004
 30
0.0
 11
13.9
 21
-4.9000000000000004
 31
0.0
  0
LINE
  5
29B
100
AcDbEntity
  8
0
  6
CONTINUOUS
 62
               7
100
AcDbLine
 10
13.199999999999999
 20
4.0
 30
0.0
 11
13.199999999999999
 21
-4.0
 31
0.0
  0
LINE
  5
29C
100
AcDbEntity
  8
0
  6
CONTINUOUS
 62
               7
100
AcDbLine
 10
13.9
 20
-4.9000000000000004
 30
0.0
 11
15.1
 21
-4.9000000000000004
 31
0.0
  0
LINE
  5
29D
100
AcDbEntity
  8
0
  6
CONTINUOUS
 62
               7
100
AcDbLine
 10
13.9
 20
4.9000000000000004
 30
0.0
 11
15.1
 21
4.9000000000000004
 31
0.0
  0
LINE
  5
29E
100
AcDbEntity
  8
0
  6
CONTINUOUS
 62
               7
100
AcDbLine
 10
15.1
 20
4.9000000000000004
 30
0.0
 11
15.1
 21
-4.9000000000000004
 31
0.0
  0
ENDBLK
  5
29F
100
AcDbEntity
  8
0
100
AcDbBlockEnd
  0
BLOCK
  5
2A0
100
AcDbEntity
  8
0
100
AcDbBlockBegin
  2
MS_15
 70
               0
 10
0.0
 20
0.0
 30
0.0
  3
MS_15
  1

  0
ARC
  5
2A1
100
AcDbEntity
  8
0
  6
CONTINUOUS
 62
               7
100
AcDbCircle
 10
2.0
 20
8.0767173767089844
 30
0.0
 40
5.7835336505181019
100
AcDbArc
 50
249.76879080816275
 51
290.23120919183606
  0
ARC
  5
2A2
100
AcDbEntity
  8
0
  6
CONTINUOUS
 62
               7
100
AcDbCircle
 10
-2.0
 20
8.0767173767089844
 30
0.0
 40
5.7835336505181019
100
AcDbArc
 50
249.76879080816275
 51
290.23120919183606
  0
ARC
  5
2A3
100
AcDbEntity
  8
0
  6
CONTINUOUS
 62
               7
100
AcDbCircle
 10
-0.0039642340562285
 20
19.895308672929009
 30
0.0
 40
2.9960394388866058
100
AcDbArc
 50
99.529990088060259
 51
179.91028377402631
  0
ARC
  5
2A4
100
AcDbEntity
  8
0
  6
CONTINUOUS
 62
               7
100
AcDbCircle
 10
-0.001201582235747
 20
19.597759473187363
 30
0.0
 40
3.3001534989062113
100
AcDbArc
 50
98.693229147980574
 51
204.67580890712932
  0
ARC
  5
2A5
100
AcDbEntity
  8
0
  6
CONTINUOUS
 62
               7
100
AcDbCircle
 10
0.0039642340562285
 20
19.895308672929009
 30
0.0
 40
2.9960394388866058
100
AcDbArc
 50
0.0897162259732988
 51
80.470009911939357
  0
ARC
  5
2A6
100
AcDbEntity
  8
0
  6
CONTINUOUS
 62
               7
100
AcDbCircle
 10
0.0
 20
19.599990844726562
 30
0.0
 40
4.3000985820124198
100
AcDbArc
 50
318.48826939638354
 51
221.51173060361523
  0
ARC
  5
2A7
100
AcDbEntity
  8
0
  6
CONTINUOUS
 62
               7
100
AcDbCircle
 10
0.001201582235747
 20
19.597759473187363
 30
0.0
 40
3.3001534989062113
100
AcDbArc
 50
335.32419109286946
 51
81.306770852019056
  0
ARC
  5
2A8
100
AcDbEntity
  8
0
  6
CONTINUOUS
 62
               7
100
AcDbCircle
 10
-2.0
 20
9.5232830047607422
 30
0.0
 40
5.7741512801894794
100
AcDbArc
 50
69.734475508488174
 51
110.26552449151144
  0
ARC
  5
2A9
100
AcDbEntity
  8
0
  6
CONTINUOUS
 62
               7
100
AcDbCircle
 10
2.0
 20
9.5232810974121094
 30
0.0
 40
5.7741530694685395
100
AcDbArc
 50
69.734482063994776
 51
110.26551793600483
  0
LINE
  5
2AA
100
AcDbEntity
  8
0
  6
CONTINUOUS
 62
               7
100
AcDbLine
 10
-3.0
 20
-6.4000000000000004
 30
0.0
 11
-3.0
 21
0.0
 31
0.0
  0
LINE
  5
2AB
100
AcDbEntity
  8
0
  6
CONTINUOUS
 62
               2
100
AcDbLine
 10
-2.4500000000000002
 20
-6.4000000000000004
 30
0.0
 11
-2.4500000000000002
 21
0.0
 31
0.0
  0
LINE
  5
2AC
100
AcDbEntity
  8
0
  6
CONTINUOUS
 62
               7
100
AcDbLine
 10
-3.0
 20
-6.4000000000000004
 30
0.0
 11
3.0
 21
-6.4000000000000004
 31
0.0
  0
LINE
  5
2AD
100
AcDbEntity
  8
0
  6
CONTINUOUS
 62
               2
100
AcDbLine
 10
2.4500000000000002
 20
-6.4000000000000004
 30
0.0
 11
2.4500000000000002
 21
0.0
 31
0.0
  0
LINE
  5
2AE
100
AcDbEntity
  8
0
  6
CONTINUOUS
 62
               7
100
AcDbLine
 10
3.0
 20
-6.4000000000000004
 30
0.0
 11
3.0
 21
0.0
 31
0.0
  0
LINE
  5
2AF
100
AcDbEntity
  8
0
  6
CONTINUOUS
 62
               7
100
AcDbLine
 10
4.5
 20
0.0
 30
0.0
 11
4.5
 21
0.8
 31
0.0
  0
LINE
  5
2B0
100
AcDbEntity
  8
0
  6
CONTINUOUS
 62
               7
100
AcDbLine
 10
-4.5
 20
0.0
 30
0.0
 11
-4.5
 21
0.8
 31
0.0
  0
LINE
  5
2B1
100
AcDbEntity
  8
0
  6
CONTINUOUS
 62
               7
100
AcDbLine
 10
-4.5
 20
0.0
 30
0.0
 11
4.5
 21
0.0
 31
0.0
  0
LINE
  5
2B2
100
AcDbEntity
  8
0
  6
CONTINUOUS
 62
               7
100
AcDbLine
 10
-4.5
 20
0.8
 30
0.0
 11
4.5
 21
0.8
 31
0.0
  0
LINE
  5
2B3
100
AcDbEntity
  8
0
  6
CONTINUOUS
 62
               7
100
AcDbLine
 10
-4.0
 20
2.2999999999999998
 30
0.0
 11
4.0
 21
2.2999999999999998
 31
0.0
  0
LINE
  5
2B4
100
AcDbEntity
  8
0
  6
CONTINUOUS
 62
               7
100
AcDbLine
 10
-3.0
 20
16.870000000000001
 30
0.0
 11
-3.0
 21
19.899999999999999
 31
0.0
  0
LINE
  5
2B5
100
AcDbEntity
  8
0
  6
CONTINUOUS
 62
               7
100
AcDbLine
 10
-3.0
 20
16.870000000000001
 30
0.0
 11
-0.5
 21
16.870000000000001
 31
0.0
  0
LINE
  5
2B6
100
AcDbEntity
  8
0
  6
CONTINUOUS
 62
               7
100
AcDbLine
 10
-4.0
 20
16.300000000000001
 30
0.0
 11
-3.0
 21
16.870000000000001
 31
0.0
  0
LINE
  5
2B7
100
AcDbEntity
  8
0
  6
CONTINUOUS
 62
               7
100
AcDbLine
 10
0.5
 20
16.300000000000001
 30
0.0
 11
4.0
 21
16.300000000000001
 31
0.0
  0
LINE
  5
2B8
100
AcDbEntity
  8
0
  6
CONTINUOUS
 62
               7
100
AcDbLine
 10
0.5
 20
16.870000000000001
 30
0.0
 11
3.0
 21
16.870000000000001
 31
0.0
  0
LINE
  5
2B9
100
AcDbEntity
  8
0
  6
CONTINUOUS
 62
               7
100
AcDbLine
 10
-0.5
 20
16.300000000000001
 30
0.0
 11
-0.5
 21
23.870000000000001
 31
0.0
  0
LINE
  5
2BA
100
AcDbEntity
  8
0
  6
CONTINUOUS
 62
               7
100
AcDbLine
 10
0.5
 20
16.300000000000001
 30
0.0
 11
0.5
 21
23.870000000000001
 31
0.0
  0
LINE
  5
2BB
100
AcDbEntity
  8
0
  6
CONTINUOUS
 62
               7
100
AcDbLine
 10
3.0
 20
16.870000000000001
 30
0.0
 11
3.0
 21
19.899999999999999
 31
0.0
  0
LINE
  5
2BC
100
AcDbEntity
  8
0
  6
CENTER
 62
               2
100
AcDbLine
 10
-6.4500000000000002
 20
19.600000000000001
 30
0.0
 11
6.3300000000000001
 21
19.600000000000001
 31
0.0
  0
LINE
  5
2BD
100
AcDbEntity
  8
0
  6
CONTINUOUS
 62
               7
100
AcDbLine
 10
-4.0
 20
16.300000000000001
 30
0.0
 11
-0.5
 21
16.300000000000001
 31
0.0
  0
LINE
  5
2BE
100
AcDbEntity
  8
0
  6
CONTINUOUS
 62
               7
100
AcDbLine
 10
0.0
 20
14.94
 30
0.0
 11
0.0
 21
2.6499999999999999
 31
0.0
  0
LINE
  5
2BF
100
AcDbEntity
  8
0
  6
CONTINUOUS
 62
               7
100
AcDbLine
 10
-4.0
 20
0.8
 30
0.0
 11
-4.0
 21
16.300000000000001
 31
0.0
  0
LINE
  5
2C0
100
AcDbEntity
  8
0
  6
CONTINUOUS
 62
               7
100
AcDbLine
 10
4.0
 20
0.8
 30
0.0
 11
4.0
 21
16.300000000000001
 31
0.0
  0
LINE
  5
2C1
100
AcDbEntity
  8
0
  6
CONTINUOUS
 62
               7
100
AcDbLine
 10
-4.0
 20
15.300000000000001
 30
0.0
 11
4.0
 21
15.300000000000001
 31
0.0
  0
LINE
  5
2C2
100
AcDbEntity
  8
0
  6
CENTER
 62
               2
100
AcDbLine
 10
0.0
 20
-8.9900000000000002
 30
0.0
 11
0.0
 21
26.18
 31
0.0
  0
LINE
  5
2C3
100
AcDbEntity
  8
0
  6
CONTINUOUS
 62
               7
100
AcDbLine
 10
4.0
 20
16.300000000000001
 30
0.0
 11
3.0
 21
16.870000000000001
 31
0.0
  0
ENDBLK
  5
2C4
100
AcDbEntity
  8
0
100
AcDbBlockEnd
  0
BLOCK
  5
2C5
100
AcDbEntity
  8
0
100
AcDbBlockBegin
  2
MS_16
 70
               0
 10
0.0
 20
0.0
 30
0.0
  3
MS_16
  1

  0
ARC
  5
2C6
100
AcDbEntity
  8
0
  6
CONTINUOUS
 62
               7
100
AcDbCircle
 10
2.0
 20
8.0767173767089844
 30
0.0
 40
5.7835336505181019
100
AcDbArc
 50
249.76879080816275
 51
290.23120919183606
  0
ARC
  5
2C7
100
AcDbEntity
  8
0
  6
CONTINUOUS
 62
               7
100
AcDbCircle
 10
-2.0
 20
8.0767173767089844
 30
0.0
 40
5.7835336505181019
100
AcDbArc
 50
249.76879080816275
 51
290.23120919183606
  0
ARC
  5
2C8
100
AcDbEntity
  8
0
  6
CONTINUOUS
 62
               7
100
AcDbCircle
 10
-0.0000000000084541
 20
19.600000000000001
 30
0.0
 40
4.3002906878562364
100
AcDbArc
 50
330.15596256412289
 51
29.84403743587626
  0
ARC
  5
2C9
100
AcDbEntity
  8
0
  6
CONTINUOUS
 62
               7
100
AcDbCircle
 10
0.0000000000084541
 20
19.600000000000001
 30
0.0
 40
4.3002906878562364
100
AcDbArc
 50
150.15596256412334
 51
209.84403743587589
  0
ARC
  5
2CA
100
AcDbEntity
  8
0
  6
CONTINUOUS
 62
               7
100
AcDbCircle
 10
2.0202839461343789
 20
9.5195657601124246
 30
0.0
 40
5.7706484040252217
100
AcDbArc
 50
69.936188681028511
 51
89.506371710706645
  0
ARC
  5
2CB
100
AcDbEntity
  8
0
  6
CONTINUOUS
 62
               7
100
AcDbCircle
 10
-2.0202842807976431
 20
9.5195676055412815
 30
0.0
 40
5.770646555781628
100
AcDbArc
 50
90.493625124459328
 51
110.06381448380473
  0
CIRCLE
  5
2CC
100
AcDbEntity
  8
0
  6
CONTINUOUS
 62
               7
100
AcDbCircle
 10
0.0
 20
19.599990844726562
 30
0.0
 40
2.0
  0
ARC
  5
2CD
100
AcDbEntity
  8
0
  6
CONTINUOUS
 62
               7
100
AcDbCircle
 10
0.0
 20
18.600000000000001
 30
0.0
 40
3.900000000010746
100
AcDbArc
 50
179.9999999999996
 51
0.0
  0
ARC
  5
2CE
100
AcDbEntity
  8
0
  6
CONTINUOUS
 62
               7
100
AcDbCircle
 10
0.0
 20
20.600000000000001
 30
0.0
 40
3.900000000010746
100
AcDbArc
 50
0.0
 51
179.9999999999996
  0
LINE
  5
2CF
100
AcDbEntity
  8
0
  6
CONTINUOUS
 62
               7
100
AcDbLine
 10
-4.0
 20
2.2999999999999998
 30
0.0
 11
4.0
 21
2.2999999999999998
 31
0.0
  0
LINE
  5
2D0
100
AcDbEntity
  8
0
  6
CONTINUOUS
 62
               7
100
AcDbLine
 10
2.0699999999999998
 20
15.300000000000001
 30
0.0
 11
4.0
 21
15.300000000000001
 31
0.0
  0
LINE
  5
2D1
100
AcDbEntity
  8
0
  6
CONTINUOUS
 62
               7
100
AcDbLine
 10
4.0
 20
16.300000000000001
 30
0.0
 11
3.1499999999999999
 21
16.300000000000001
 31
0.0
  0
LINE
  5
2D2
100
AcDbEntity
  8
0
  6
CONTINUOUS
 62
               7
100
AcDbLine
 10
-4.0
 20
16.300000000000001
 30
0.0
 11
-3.1499999999999999
 21
16.300000000000001
 31
0.0
  0
LINE
  5
2D3
100
AcDbEntity
  8
0
  6
CONTINUOUS
 62
               7
100
AcDbLine
 10
4.0
 20
16.300000000000001
 30
0.0
 11
3.3799999999999999
 21
16.649999999999999
 31
0.0
  0
LINE
  5
2D4
100
AcDbEntity
  8
0
  6
CONTINUOUS
 62
               7
100
AcDbLine
 10
0.0
 20
14.699999999999999
 30
0.0
 11
0.0
 21
2.6499999999999999
 31
0.0
  0
LINE
  5
2D5
100
AcDbEntity
  8
0
  6
CONTINUOUS
 62
               7
100
AcDbLine
 10
-4.0
 20
0.8
 30
0.0
 11
-4.0
 21
16.300000000000001
 31
0.0
  0
LINE
  5
2D6
100
AcDbEntity
  8
0
  6
CONTINUOUS
 62
               7
100
AcDbLine
 10
4.0
 20
0.8
 30
0.0
 11
4.0
 21
16.300000000000001
 31
0.0
  0
LINE
  5
2D7
100
AcDbEntity
  8
0
  6
CONTINUOUS
 62
               7
100
AcDbLine
 10
-4.0
 20
15.300000000000001
 30
0.0
 11
-2.0699999999999998
 21
15.300000000000001
 31
0.0
  0
LINE
  5
2D8
100
AcDbEntity
  8
0
  6
CENTER
 62
               2
100
AcDbLine
 10
0.0
 20
-9.0800000000000001
 30
0.0
 11
0.0
 21
26.149999999999999
 31
0.0
  0
LINE
  5
2D9
100
AcDbEntity
  8
0
  6
CONTINUOUS
 62
               7
100
AcDbLine
 10
-4.0
 20
16.300000000000001
 30
0.0
 11
-3.3799999999999999
 21
16.649999999999999
 31
0.0
  0
LINE
  5
2DA
100
AcDbEntity
  8
0
  6
CENTER
 62
               2
100
AcDbLine
 10
-5.0199999999999996
 20
19.600000000000001
 30
0.0
 11
5.1900000000000004
 21
19.600000000000001
 31
0.0
  0
LINE
  5
2DB
100
AcDbEntity
  8
0
  6
CONTINUOUS
 62
               7
100
AcDbLine
 10
-3.8999999999999999
 20
20.600000000000001
 30
0.0
 11
-3.8999999999999999
 21
18.600000000000001
 31
0.0
  0
LINE
  5
2DC
100
AcDbEntity
  8
0
  6
CONTINUOUS
 62
               7
100
AcDbLine
 10
3.8999999999999999
 20
20.600000000000001
 30
0.0
 11
3.8999999999999999
 21
18.600000000000001
 31
0.0
  0
LINE
  5
2DD
100
AcDbEntity
  8
0
  6
CONTINUOUS
 62
               2
100
AcDbLine
 10
2.4500000000000002
 20
-6.4000000000000004
 30
0.0
 11
2.4500000000000002
 21
0.0
 31
0.0
  0
LINE
  5
2DE
100
AcDbEntity
  8
0
  6
CONTINUOUS
 62
               2
100
AcDbLine
 10
-2.4500000000000002
 20
-6.4000000000000004
 30
0.0
 11
-2.4500000000000002
 21
0.0
 31
0.0
  0
LINE
  5
2DF
100
AcDbEntity
  8
0
  6
CONTINUOUS
 62
               7
100
AcDbLine
 10
3.0
 20
-6.4000000000000004
 30
0.0
 11
3.0
 21
0.0
 31
0.0
  0
LINE
  5
2E0
100
AcDbEntity
  8
0
  6
CONTINUOUS
 62
               7
100
AcDbLine
 10
-3.0
 20
-6.4000000000000004
 30
0.0
 11
-3.0
 21
0.0
 31
0.0
  0
LINE
  5
2E1
100
AcDbEntity
  8
0
  6
CONTINUOUS
 62
               7
100
AcDbLine
 10
-3.0
 20
-6.4000000000000004
 30
0.0
 11
3.0
 21
-6.4000000000000004
 31
0.0
  0
LINE
  5
2E2
100
AcDbEntity
  8
0
  6
CONTINUOUS
 62
               7
100
AcDbLine
 10
-4.5
 20
0.0
 30
0.0
 11
-4.5
 21
0.8
 31
0.0
  0
LINE
  5
2E3
100
AcDbEntity
  8
0
  6
CONTINUOUS
 62
               7
100
AcDbLine
 10
4.5
 20
0.0
 30
0.0
 11
4.5
 21
0.8
 31
0.0
  0
LINE
  5
2E4
100
AcDbEntity
  8
0
  6
CONTINUOUS
 62
               7
100
AcDbLine
 10
-4.5
 20
0.8
 30
0.0
 11
4.5
 21
0.8
 31
0.0
  0
LINE
  5
2E5
100
AcDbEntity
  8
0
  6
CONTINUOUS
 62
               7
100
AcDbLine
 10
-4.5
 20
0.0
 30
0.0
 11
4.5
 21
0.0
 31
0.0
  0
ENDBLK
  5
2E6
100
AcDbEntity
  8
0
100
AcDbBlockEnd
  0
BLOCK
  5
2E7
100
AcDbEntity
  8
0
100
AcDbBlockBegin
  2
MS_17
 70
               0
 10
0.0
 20
0.0
 30
0.0
  3
MS_17
  1

  0
ARC
  5
2E8
100
AcDbEntity
  8
0
  6
CONTINUOUS
 62
               7
100
AcDbCircle
 10
-0.0000165404125509
 20
22.299969507009536
 30
0.0
 40
4.0000304930246635
100
AcDbArc
 50
89.999763077848286
 51
185.73868760273851
  0
ARC
  5
2E9
100
AcDbEntity
  8
0
  6
CONTINUOUS
 62
               7
100
AcDbCircle
 10
0.0000061035218344
 20
22.299993896478167
 30
0.0
 40
3.000006103528043
100
AcDbArc
 50
90.000116568443076
 51
179.99988343155636
  0
ARC
  5
2EA
100
AcDbEntity
  8
0
  6
CONTINUOUS
 62
               7
100
AcDbCircle
 10
0.0
 20
13.553421020507813
 30
0.0
 40
9.5576588502118884
100
AcDbArc
 50
252.46255520374243
 51
287.53744479625635
  0
ARC
  5
2EB
100
AcDbEntity
  8
0
  6
CONTINUOUS
 62
               7
100
AcDbCircle
 10
-4.3107480387151904
 20
6.561691106395056
 30
0.0
 40
2.5617634478219951
100
AcDbArc
 50
269.56941125338386
 51
303.68300774747473
  0
ARC
  5
2EC
100
AcDbEntity
  8
0
  6
CONTINUOUS
 62
               7
100
AcDbCircle
 10
-4.3242732694255448
 20
15.142378390970933
 30
0.0
 40
2.5576280203374973
100
AcDbArc
 50
55.890063545927603
 51
90.12828987009992
  0
ARC
  5
2ED
100
AcDbEntity
  8
0
  6
CONTINUOUS
 62
               7
100
AcDbCircle
 10
4.3107480387151904
 20
6.561691106395056
 30
0.0
 40
2.5617634478219951
100
AcDbArc
 50
236.31699225252405
 51
270.43058874661494
  0
ARC
  5
2EE
100
AcDbEntity
  8
0
  6
CONTINUOUS
 62
               7
100
AcDbCircle
 10
0.0
 20
8.1465778350830078
 30
0.0
 40
9.5481252145487687
100
AcDbArc
 50
72.444475313364933
 51
107.55552468663467
  0
ARC
  5
2EF
100
AcDbEntity
  8
0
  6
CONTINUOUS
 62
               7
100
AcDbCircle
 10
4.3242732694255448
 20
15.142378390970933
 30
0.0
 40
2.5576280203374973
100
AcDbArc
 50
89.871710129899697
 51
124.10993645407201
  0
LINE
  5
2F0
100
AcDbEntity
  8
0
  6
CONTINUOUS
 62
               7
100
AcDbLine
 10
-4.7300000000000004
 20
-4.0
 30
0.0
 11
4.7300000000000004
 21
-4.0
 31
0.0
  0
LINE
  5
2F1
100
AcDbEntity
  8
0
  6
CONTINUOUS
 62
               2
100
AcDbLine
 10
4.1500000000000004
 20
-4.0
 30
0.0
 11
4.4000000000000004
 21
4.0
 31
0.0
  0
LINE
  5
2F2
100
AcDbEntity
  8
0
  6
CONTINUOUS
 62
               7
100
AcDbLine
 10
4.7300000000000004
 20
-4.0
 30
0.0
 11
4.9900000000000002
 21
4.0
 31
0.0
  0
LINE
  5
2F3
100
AcDbEntity
  8
0
  6
CONTINUOUS
 62
               7
100
AcDbLine
 10
-4.7300000000000004
 20
-4.0
 30
0.0
 11
-4.9900000000000002
 21
4.0
 31
0.0
  0
LINE
  5
2F4
100
AcDbEntity
  8
0
  6
CONTINUOUS
 62
               2
100
AcDbLine
 10
-4.1500000000000004
 20
-4.0
 30
0.0
 11
-4.4000000000000004
 21
4.0
 31
0.0
  0
LINE
  5
2F5
100
AcDbEntity
  8
0
  6
CONTINUOUS
 62
               7
100
AcDbLine
 10
5.7000000000000002
 20
17.699999999999999
 30
0.0
 11
10.4
 21
17.699999999999999
 31
0.0
  0
LINE
  5
2F6
100
AcDbEntity
  8
0
  6
CONTINUOUS
 62
               7
100
AcDbLine
 10
5.7000000000000002
 20
17.699999999999999
 30
0.0
 11
5.1200000000000001
 21
18.699999999999999
 31
0.0
  0
LINE
  5
2F7
100
AcDbEntity
  8
0
  6
CONTINUOUS
 62
               7
100
AcDbLine
 10
5.1200000000000001
 20
25.300000000000001
 30
0.0
 11
5.1200000000000001
 21
18.699999999999999
 31
0.0
  0
LINE
  5
2F8
100
AcDbEntity
  8
0
  6
CONTINUOUS
 62
               7
100
AcDbLine
 10
5.7000000000000002
 20
26.300000000000001
 30
0.0
 11
5.7000000000000002
 21
17.699999999999999
 31
0.0
  0
LINE
  5
2F9
100
AcDbEntity
  8
0
  6
CONTINUOUS
 62
               7
100
AcDbLine
 10
5.7000000000000002
 20
26.300000000000001
 30
0.0
 11
5.1200000000000001
 21
25.300000000000001
 31
0.0
  0
LINE
  5
2FA
100
AcDbEntity
  8
0
  6
CONTINUOUS
 62
               7
100
AcDbLine
 10
0.0
 20
26.300000000000001
 30
0.0
 11
10.4
 21
26.300000000000001
 31
0.0
  0
LINE
  5
2FB
100
AcDbEntity
  8
0
  6
CONTINUOUS
 62
               7
100
AcDbLine
 10
10.4
 20
26.300000000000001
 30
0.0
 11
10.4
 21
17.699999999999999
 31
0.0
  0
LINE
  5
2FC
100
AcDbEntity
  8
0
  6
CONTINUOUS
 62
               7
100
AcDbLine
 10
10.4
 20
26.300000000000001
 30
0.0
 11
12.4
 21
26.0
 31
0.0
  0
LINE
  5
2FD
100
AcDbEntity
  8
0
  6
CONTINUOUS
 62
               7
100
AcDbLine
 10
10.4
 20
17.699999999999999
 30
0.0
 11
12.4
 21
18.0
 31
0.0
  0
LINE
  5
2FE
100
AcDbEntity
  8
0
  6
CONTINUOUS
 62
               7
100
AcDbLine
 10
12.4
 20
26.0
 30
0.0
 11
12.4
 21
18.0
 31
0.0
  0
LINE
  5
2FF
100
AcDbEntity
  8
0
  6
CONTINUOUS
 62
               7
100
AcDbLine
 10
12.4
 20
18.0
 30
0.0
 11
13.199999999999999
 21
18.0
 31
0.0
  0
LINE
  5
300
100
AcDbEntity
  8
0
  6
CONTINUOUS
 62
               7
100
AcDbLine
 10
12.4
 20
26.0
 30
0.0
 11
13.199999999999999
 21
26.0
 31
0.0
  0
LINE
  5
301
100
AcDbEntity
  8
0
  6
CONTINUOUS
 62
               7
100
AcDbLine
 10
13.199999999999999
 20
26.0
 30
0.0
 11
13.199999999999999
 21
18.0
 31
0.0
  0
LINE
  5
302
100
AcDbEntity
  8
0
  6
CONTINUOUS
 62
               7
100
AcDbLine
 10
13.199999999999999
 20
24.5
 30
0.0
 11
13.9
 21
24.5
 31
0.0
  0
LINE
  5
303
100
AcDbEntity
  8
0
  6
CONTINUOUS
 62
               7
100
AcDbLine
 10
13.199999999999999
 20
19.5
 30
0.0
 11
13.9
 21
19.5
 31
0.0
  0
LINE
  5
304
100
AcDbEntity
  8
0
  6
CONTINUOUS
 62
               7
100
AcDbLine
 10
13.9
 20
17.100000000000001
 30
0.0
 11
15.1
 21
17.100000000000001
 31
0.0
  0
LINE
  5
305
100
AcDbEntity
  8
0
  6
CONTINUOUS
 62
               7
100
AcDbLine
 10
13.9
 20
26.899999999999999
 30
0.0
 11
13.9
 21
17.100000000000001
 31
0.0
  0
LINE
  5
306
100
AcDbEntity
  8
0
  6
CONTINUOUS
 62
               7
100
AcDbLine
 10
15.1
 20
26.899999999999999
 30
0.0
 11
15.1
 21
17.100000000000001
 31
0.0
  0
LINE
  5
307
100
AcDbEntity
  8
0
  6
CONTINUOUS
 62
               7
100
AcDbLine
 10
13.9
 20
26.899999999999999
 30
0.0
 11
15.1
 21
26.899999999999999
 31
0.0
  0
LINE
  5
308
100
AcDbEntity
  8
0
  6
CONTINUOUS
 62
               7
100
AcDbLine
 10
-3.0
 20
19.27
 30
0.0
 11
3.0
 21
19.27
 31
0.0
  0
LINE
  5
309
100
AcDbEntity
  8
0
  6
CONTINUOUS
 62
               7
100
AcDbLine
 10
4.0
 20
18.699999999999999
 30
0.0
 11
3.0
 21
19.27
 31
0.0
  0
LINE
  5
30A
100
AcDbEntity
  8
0
  6
CONTINUOUS
 62
               7
100
AcDbLine
 10
-4.0
 20
18.699999999999999
 30
0.0
 11
-3.0
 21
19.27
 31
0.0
  0
LINE
  5
30B
100
AcDbEntity
  8
0
  6
CONTINUOUS
 62
               7
100
AcDbLine
 10
0.0
 20
22.0
 30
0.0
 11
3.0
 21
19.27
 31
0.0
  0
LINE
  5
30C
100
AcDbEntity
  8
0
  6
CONTINUOUS
 62
               7
100
AcDbLine
 10
-4.0
 20
18.699999999999999
 30
0.0
 11
5.1200000000000001
 21
18.699999999999999
 31
0.0
  0
LINE
  5
30D
100
AcDbEntity
  8
0
  6
CONTINUOUS
 62
               7
100
AcDbLine
 10
0.0
 20
25.300000000000001
 30
0.0
 11
5.1200000000000001
 21
25.300000000000001
 31
0.0
  0
LINE
  5
30E
100
AcDbEntity
  8
0
  6
CONTINUOUS
 62
               7
100
AcDbLine
 10
-3.0
 20
19.27
 30
0.0
 11
-3.0
 21
22.300000000000001
 31
0.0
  0
LINE
  5
30F
100
AcDbEntity
  8
0
  6
CONTINUOUS
 62
               7
100
AcDbLine
 10
4.0
 20
17.699999999999999
 30
0.0
 11
4.0
 21
18.699999999999999
 31
0.0
  0
LINE
  5
310
100
AcDbEntity
  8
0
  6
CONTINUOUS
 62
               7
100
AcDbLine
 10
-4.0
 20
17.699999999999999
 30
0.0
 11
-4.0
 21
22.300000000000001
 31
0.0
  0
LINE
  5
311
100
AcDbEntity
  8
0
  6
CENTER
 62
               2
100
AcDbLine
 10
-5.5999999999999996
 20
22.0
 30
0.0
 11
16.399999999999999
 21
22.0
 31
0.0
  0
LINE
  5
312
100
AcDbEntity
  8
0
  6
CENTER
 62
               2
100
AcDbLine
 10
0.0
 20
-6.7699999999999996
 30
0.0
 11
0.0
 21
28.579999999999998
 31
0.0
  0
LINE
  5
313
100
AcDbEntity
  8
0
  6
CONTINUOUS
 62
               7
100
AcDbLine
 10
-5.7699999999999996
 20
4.4400000000000004
 30
0.0
 11
-5.7699999999999996
 21
17.25
 31
0.0
  0
LINE
  5
314
100
AcDbEntity
  8
0
  6
CONTINUOUS
 62
               7
100
AcDbLine
 10
-5.7699999999999996
 20
4.4400000000000004
 30
0.0
 11
-5.0
 21
4.0
 31
0.0
  0
LINE
  5
315
100
AcDbEntity
  8
0
  6
CONTINUOUS
 62
               7
100
AcDbLine
 10
-5.7699999999999996
 20
17.25
 30
0.0
 11
-5.0
 21
17.699999999999999
 31
0.0
  0
LINE
  5
316
100
AcDbEntity
  8
0
  6
CONTINUOUS
 62
               7
100
AcDbLine
 10
5.7699999999999996
 20
4.4400000000000004
 30
0.0
 11
5.0
 21
4.0
 31
0.0
  0
LINE
  5
317
100
AcDbEntity
  8
0
  6
CONTINUOUS
 62
               7
100
AcDbLine
 10
-2.8799999999999999
 20
4.4400000000000004
 30
0.0
 11
-2.8799999999999999
 21
17.25
 31
0.0
  0
LINE
  5
318
100
AcDbEntity
  8
0
  6
CONTINUOUS
 62
               7
100
AcDbLine
 10
5.7699999999999996
 20
17.25
 30
0.0
 11
5.0
 21
17.699999999999999
 31
0.0
  0
LINE
  5
319
100
AcDbEntity
  8
0
  6
CONTINUOUS
 62
               7
100
AcDbLine
 10
2.8799999999999999
 20
4.4400000000000004
 30
0.0
 11
2.8799999999999999
 21
17.25
 31
0.0
  0
LINE
  5
31A
100
AcDbEntity
  8
0
  6
CONTINUOUS
 62
               7
100
AcDbLine
 10
5.7699999999999996
 20
4.4400000000000004
 30
0.0
 11
5.7699999999999996
 21
17.25
 31
0.0
  0
LINE
  5
31B
100
AcDbEntity
  8
0
  6
CONTINUOUS
 62
               7
100
AcDbLine
 10
-5.0
 20
17.699999999999999
 30
0.0
 11
5.0
 21
17.699999999999999
 31
0.0
  0
LINE
  5
31C
100
AcDbEntity
  8
0
  6
CONTINUOUS
 62
               7
100
AcDbLine
 10
-5.0
 20
4.0
 30
0.0
 11
5.0
 21
4.0
 31
0.0
  0
ENDBLK
  5
31D
100
AcDbEntity
  8
0
100
AcDbBlockEnd
  0
BLOCK
  5
31E
100
AcDbEntity
  8
0
100
AcDbBlockBegin
  2
MS_18
 70
               0
 10
0.0
 20
0.0
 30
0.0
  3
MS_18
  1

  0
ARC
  5
31F
100
AcDbEntity
  8
0
  6
CONTINUOUS
 62
               7
100
AcDbCircle
 10
-0.0000000000000004
 20
0.0
 30
0.0
 40
4.9960784621540926
100
AcDbArc
 50
40.128608968475824
 51
319.87139103152333
  0
ARC
  5
320
100
AcDbEntity
  8
0
  6
CONTINUOUS
 62
               7
100
AcDbCircle
 10
0.0046887805741826
 20
-0.0039672389224641
 30
0.0
 40
2.996036430037718
100
AcDbArc
 50
189.52994147925332
 51
269.91033238283279
  0
ARC
  5
321
100
AcDbEntity
  8
0
  6
CONTINUOUS
 62
               7
100
AcDbCircle
 10
0.0046887805741826
 20
0.0039672389224641
 30
0.0
 40
2.996036430037718
100
AcDbArc
 50
90.089667617166441
 51
170.47005852074585
  0
ARC
  5
322
100
AcDbEntity
  8
0
  6
CONTINUOUS
 62
               7
100
AcDbCircle
 10
0.0
 20
0.0
 30
0.0
 40
3.9950594488693159
100
AcDbArc
 50
51.810553098572974
 51
308.18944690142621
  0
LINE
  5
323
100
AcDbEntity
  8
0
  6
CONTINUOUS
 62
               7
100
AcDbLine
 10
3.8999999999999999
 20
3.2200000000000002
 30
0.0
 11
2.8799999999999999
 21
5.0
 31
0.0
  0
LINE
  5
324
100
AcDbEntity
  8
0
  6
CONTINUOUS
 62
               7
100
AcDbLine
 10
2.8799999999999999
 20
5.0
 30
0.0
 11
-2.8799999999999999
 21
5.0
 31
0.0
  0
LINE
  5
325
100
AcDbEntity
  8
0
  6
CONTINUOUS
 62
               7
100
AcDbLine
 10
-2.8799999999999999
 20
5.0
 30
0.0
 11
-5.7699999999999996
 21
0.0
 31
0.0
  0
LINE
  5
326
100
AcDbEntity
  8
0
  6
CONTINUOUS
 62
               7
100
AcDbLine
 10
-5.7699999999999996
 20
0.0
 30
0.0
 11
-2.8799999999999999
 21
-5.0
 31
0.0
  0
LINE
  5
327
100
AcDbEntity
  8
0
  6
CONTINUOUS
 62
               7
100
AcDbLine
 10
-2.8799999999999999
 20
-5.0
 30
0.0
 11
2.8799999999999999
 21
-5.0
 31
0.0
  0
LINE
  5
328
100
AcDbEntity
  8
0
  6
CONTINUOUS
 62
               7
100
AcDbLine
 10
2.8799999999999999
 20
-5.0
 30
0.0
 11
3.8999999999999999
 21
-3.2200000000000002
 31
0.0
  0
LINE
  5
329
100
AcDbEntity
  8
0
  6
CONTINUOUS
 62
               7
100
AcDbLine
 10
5.7000000000000002
 20
-4.2999999999999998
 30
0.0
 11
5.7000000000000002
 21
-0.5
 31
0.0
  0
LINE
  5
32A
100
AcDbEntity
  8
0
  6
CONTINUOUS
 62
               7
100
AcDbLine
 10
5.1200000000000001
 20
-3.2999999999999998
 30
0.0
 11
5.1200000000000001
 21
-0.5
 31
0.0
  0
LINE
  5
32B
100
AcDbEntity
  8
0
  6
CONTINUOUS
 62
               7
100
AcDbLine
 10
-3.96
 20
-0.5
 30
0.0
 11
5.7000000000000002
 21
-0.5
 31
0.0
  0
LINE
  5
32C
100
AcDbEntity
  8
0
  6
CONTINUOUS
 62
               7
100
AcDbLine
 10
-3.96
 20
0.5
 30
0.0
 11
5.7000000000000002
 21
0.5
 31
0.0
  0
LINE
  5
32D
100
AcDbEntity
  8
0
  6
CONTINUOUS
 62
               7
100
AcDbLine
 10
5.1200000000000001
 20
-3.2999999999999998
 30
0.0
 11
0.0
 21
-3.0
 31
0.0
  0
LINE
  5
32E
100
AcDbEntity
  8
0
  6
CONTINUOUS
 62
               7
100
AcDbLine
 10
5.1200000000000001
 20
3.2999999999999998
 30
0.0
 11
0.0
 21
3.0
 31
0.0
  0
LINE
  5
32F
100
AcDbEntity
  8
0
  6
CENTER
 62
               2
100
AcDbLine
 10
0.0
 20
6.5300000000000002
 30
0.0
 11
0.0
 21
-6.5599999999999996
 31
0.0
  0
LINE
  5
330
100
AcDbEntity
  8
0
  6
CENTER
 62
               2
100
AcDbLine
 10
-7.4100000000000001
 20
0.0
 30
0.0
 11
16.399999999999999
 21
0.0
 31
0.0
  0
LINE
  5
331
100
AcDbEntity
  8
0
  6
CONTINUOUS
 62
               7
100
AcDbLine
 10
5.1200000000000001
 20
3.2999999999999998
 30
0.0
 11
5.1200000000000001
 21
0.5
 31
0.0
  0
LINE
  5
332
100
AcDbEntity
  8
0
  6
CONTINUOUS
 62
               7
100
AcDbLine
 10
5.7000000000000002
 20
4.2999999999999998
 30
0.0
 11
5.1200000000000001
 21
3.2999999999999998
 31
0.0
  0
LINE
  5
333
100
AcDbEntity
  8
0
  6
CONTINUOUS
 62
               7
100
AcDbLine
 10
5.7000000000000002
 20
-4.2999999999999998
 30
0.0
 11
5.1200000000000001
 21
-3.2999999999999998
 31
0.0
  0
LINE
  5
334
100
AcDbEntity
  8
0
  6
CONTINUOUS
 62
               7
100
AcDbLine
 10
10.4
 20
-4.2999999999999998
 30
0.0
 11
12.4
 21
-4.0
 31
0.0
  0
LINE
  5
335
100
AcDbEntity
  8
0
  6
CONTINUOUS
 62
               7
100
AcDbLine
 10
10.4
 20
4.2999999999999998
 30
0.0
 11
12.4
 21
4.0
 31
0.0
  0
LINE
  5
336
100
AcDbEntity
  8
0
  6
CONTINUOUS
 62
               7
100
AcDbLine
 10
10.4
 20
4.2999999999999998
 30
0.0
 11
10.4
 21
-4.2999999999999998
 31
0.0
  0
LINE
  5
337
100
AcDbEntity
  8
0
  6
CONTINUOUS
 62
               7
100
AcDbLine
 10
5.7000000000000002
 20
4.2999999999999998
 30
0.0
 11
5.7000000000000002
 21
0.5
 31
0.0
  0
LINE
  5
338
100
AcDbEntity
  8
0
  6
CONTINUOUS
 62
               7
100
AcDbLine
 10
12.4
 20
4.0
 30
0.0
 11
12.4
 21
-4.0
 31
0.0
  0
LINE
  5
339
100
AcDbEntity
  8
0
  6
CONTINUOUS
 62
               7
100
AcDbLine
 10
5.7000000000000002
 20
-4.2999999999999998
 30
0.0
 11
10.4
 21
-4.2999999999999998
 31
0.0
  0
LINE
  5
33A
100
AcDbEntity
  8
0
  6
CONTINUOUS
 62
               7
100
AcDbLine
 10
5.7000000000000002
 20
4.2999999999999998
 30
0.0
 11
10.4
 21
4.2999999999999998
 31
0.0
  0
LINE
  5
33B
100
AcDbEntity
  8
0
  6
CONTINUOUS
 62
               7
100
AcDbLine
 10
13.199999999999999
 20
2.5
 30
0.0
 11
13.9
 21
2.5
 31
0.0
  0
LINE
  5
33C
100
AcDbEntity
  8
0
  6
CONTINUOUS
 62
               7
100
AcDbLine
 10
13.199999999999999
 20
-2.5
 30
0.0
 11
13.9
 21
-2.5
 31
0.0
  0
LINE
  5
33D
100
AcDbEntity
  8
0
  6
CONTINUOUS
 62
               7
100
AcDbLine
 10
12.4
 20
4.0
 30
0.0
 11
13.199999999999999
 21
4.0
 31
0.0
  0
LINE
  5
33E
100
AcDbEntity
  8
0
  6
CONTINUOUS
 62
               7
100
AcDbLine
 10
12.4
 20
-4.0
 30
0.0
 11
13.199999999999999
 21
-4.0
 31
0.0
  0
LINE
  5
33F
100
AcDbEntity
  8
0
  6
CONTINUOUS
 62
               7
100
AcDbLine
 10
13.9
 20
4.9000000000000004
 30
0.0
 11
13.9
 21
-4.9000000000000004
 31
0.0
  0
LINE
  5
340
100
AcDbEntity
  8
0
  6
CONTINUOUS
 62
               7
100
AcDbLine
 10
13.199999999999999
 20
4.0
 30
0.0
 11
13.199999999999999
 21
-4.0
 31
0.0
  0
LINE
  5
341
100
AcDbEntity
  8
0
  6
CONTINUOUS
 62
               7
100
AcDbLine
 10
13.9
 20
-4.9000000000000004
 30
0.0
 11
15.1
 21
-4.9000000000000004
 31
0.0
  0
LINE
  5
342
100
AcDbEntity
  8
0
  6
CONTINUOUS
 62
               7
100
AcDbLine
 10
13.9
 20
4.9000000000000004
 30
0.0
 11
15.1
 21
4.9000000000000004
 31
0.0
  0
LINE
  5
343
100
AcDbEntity
  8
0
  6
CONTINUOUS
 62
               7
100
AcDbLine
 10
15.1
 20
4.9000000000000004
 30
0.0
 11
15.1
 21
-4.9000000000000004
 31
0.0
  0
ENDBLK
  5
344
100
AcDbEntity
  8
0
100
AcDbBlockEnd
  0
BLOCK
  5
345
100
AcDbEntity
  8
0
100
AcDbBlockBegin
  2
MS_19
 70
               0
 10
0.0
 20
0.0
 30
0.0
  3
MS_19
  1

  0
ARC
  5
346
100
AcDbEntity
  8
0
  6
CONTINUOUS
 62
               7
100
AcDbCircle
 10
2.5
 20
10.479087829589607
 30
0.0
 40
7.2177040407190134
100
AcDbArc
 50
69.73451929919591
 51
110.26548070080369
  0
ARC
  5
347
100
AcDbEntity
  8
0
  6
CONTINUOUS
 62
               7
100
AcDbCircle
 10
-2.5
 20
10.479087829589844
 30
0.0
 40
7.2177040407187913
100
AcDbArc
 50
69.73451929919527
 51
110.26548070080435
  0
ARC
  5
348
100
AcDbEntity
  8
0
  6
CONTINUOUS
 62
               7
100
AcDbCircle
 10
-2.5
 20
11.220912933349846
 30
0.0
 40
7.2270865644235371
100
AcDbArc
 50
249.76198138146501
 51
290.23801861853377
  0
ARC
  5
349
100
AcDbEntity
  8
0
  6
CONTINUOUS
 62
               7
100
AcDbCircle
 10
2.5
 20
11.220911026001213
 30
0.0
 40
7.2270847748275937
100
AcDbArc
 50
249.76197615068665
 51
290.23802384931213
  0
ARC
  5
34A
100
AcDbEntity
  8
0
  6
CONTINUOUS
 62
               7
100
AcDbCircle
 10
-0.0039612291857734
 20
22.295306126428621
 30
0.0
 40
2.9960424477418752
100
AcDbArc
 50
99.530038696837593
 51
179.91023516524888
  0
ARC
  5
34B
100
AcDbEntity
  8
0
  6
CONTINUOUS
 62
               7
100
AcDbCircle
 10
-0.0012054019423409
 20
21.997761531218934
 30
0.0
 40
3.3001508871938778
100
AcDbArc
 50
98.693168994229922
 51
204.67586906087993
  0
ARC
  5
34C
100
AcDbEntity
  8
0
  6
CONTINUOUS
 62
               7
100
AcDbCircle
 10
0.0039612291857734
 20
22.295306126428621
 30
0.0
 40
2.9960424477418752
100
AcDbArc
 50
0.0897648347507201
 51
80.469961303162023
  0
ARC
  5
34D
100
AcDbEntity
  8
0
  6
CONTINUOUS
 62
               7
100
AcDbCircle
 10
0.0
 20
22.0
 30
0.0
 40
4.3001046498893505
100
AcDbArc
 50
318.48817804978364
 51
221.51182195021516
  0
ARC
  5
34E
100
AcDbEntity
  8
0
  6
CONTINUOUS
 62
               7
100
AcDbCircle
 10
0.0012054019423409
 20
21.997761531218934
 30
0.0
 40
3.3001508871938778
100
AcDbArc
 50
335.32413093911885
 51
81.306831005769695
  0
LINE
  5
34F
100
AcDbEntity
  8
0
  6
CONTINUOUS
 62
               7
100
AcDbLine
 10
5.0
 20
4.0
 30
0.0
 11
5.0
 21
17.699999999999999
 31
0.0
  0
LINE
  5
350
100
AcDbEntity
  8
0
  6
CONTINUOUS
 62
               7
100
AcDbLine
 10
-4.0
 20
17.699999999999999
 30
0.0
 11
-4.0
 21
18.699999999999999
 31
0.0
  0
LINE
  5
351
100
AcDbEntity
  8
0
  6
CONTINUOUS
 62
               7
100
AcDbLine
 10
-5.0
 20
17.699999999999999
 30
0.0
 11
5.0
 21
17.699999999999999
 31
0.0
  0
LINE
  5
352
100
AcDbEntity
  8
0
  6
CONTINUOUS
 62
               7
100
AcDbLine
 10
-5.0
 20
4.0
 30
0.0
 11
-5.0
 21
17.699999999999999
 31
0.0
  0
LINE
  5
353
100
AcDbEntity
  8
0
  6
CONTINUOUS
 62
               7
100
AcDbLine
 10
0.0
 20
4.4400000000000004
 30
0.0
 11
0.0
 21
17.25
 31
0.0
  0
LINE
  5
354
100
AcDbEntity
  8
0
  6
CONTINUOUS
 62
               7
100
AcDbLine
 10
-5.0
 20
4.0
 30
0.0
 11
5.0
 21
4.0
 31
0.0
  0
LINE
  5
355
100
AcDbEntity
  8
0
  6
CONTINUOUS
 62
               7
100
AcDbLine
 10
4.7300000000000004
 20
-4.0
 30
0.0
 11
4.9900000000000002
 21
4.0
 31
0.0
  0
LINE
  5
356
100
AcDbEntity
  8
0
  6
CONTINUOUS
 62
               2
100
AcDbLine
 10
4.1500000000000004
 20
-4.0
 30
0.0
 11
4.4000000000000004
 21
4.0
 31
0.0
  0
LINE
  5
357
100
AcDbEntity
  8
0
  6
CONTINUOUS
 62
               7
100
AcDbLine
 10
-4.7300000000000004
 20
-4.0
 30
0.0
 11
-4.9900000000000002
 21
4.0
 31
0.0
  0
LINE
  5
358
100
AcDbEntity
  8
0
  6
CONTINUOUS
 62
               2
100
AcDbLine
 10
-4.1500000000000004
 20
-4.0
 30
0.0
 11
-4.4000000000000004
 21
4.0
 31
0.0
  0
LINE
  5
359
100
AcDbEntity
  8
0
  6
CONTINUOUS
 62
               7
100
AcDbLine
 10
-4.7300000000000004
 20
-4.0
 30
0.0
 11
4.7300000000000004
 21
-4.0
 31
0.0
  0
LINE
  5
35A
100
AcDbEntity
  8
0
  6
CONTINUOUS
 62
               7
100
AcDbLine
 10
4.0
 20
17.699999999999999
 30
0.0
 11
4.0
 21
18.699999999999999
 31
0.0
  0
LINE
  5
35B
100
AcDbEntity
  8
0
  6
CONTINUOUS
 62
               7
100
AcDbLine
 10
-3.0
 20
19.27
 30
0.0
 11
-3.0
 21
22.300000000000001
 31
0.0
  0
LINE
  5
35C
100
AcDbEntity
  8
0
  6
CONTINUOUS
 62
               7
100
AcDbLine
 10
-3.0
 20
19.27
 30
0.0
 11
-0.5
 21
19.27
 31
0.0
  0
LINE
  5
35D
100
AcDbEntity
  8
0
  6
CONTINUOUS
 62
               7
100
AcDbLine
 10
-4.0
 20
18.699999999999999
 30
0.0
 11
-3.0
 21
19.27
 31
0.0
  0
LINE
  5
35E
100
AcDbEntity
  8
0
  6
CONTINUOUS
 62
               7
100
AcDbLine
 10
0.5
 20
18.699999999999999
 30
0.0
 11
4.0
 21
18.699999999999999
 31
0.0
  0
LINE
  5
35F
100
AcDbEntity
  8
0
  6
CONTINUOUS
 62
               7
100
AcDbLine
 10
0.5
 20
19.27
 30
0.0
 11
3.0
 21
19.27
 31
0.0
  0
LINE
  5
360
100
AcDbEntity
  8
0
  6
CONTINUOUS
 62
               7
100
AcDbLine
 10
-0.5
 20
18.699999999999999
 30
0.0
 11
-0.5
 21
26.27
 31
0.0
  0
LINE
  5
361
100
AcDbEntity
  8
0
  6
CONTINUOUS
 62
               7
100
AcDbLine
 10
0.5
 20
18.699999999999999
 30
0.0
 11
0.5
 21
26.27
 31
0.0
  0
LINE
  5
362
100
AcDbEntity
  8
0
  6
CONTINUOUS
 62
               7
100
AcDbLine
 10
3.0
 20
19.27
 30
0.0
 11
3.0
 21
22.300000000000001
 31
0.0
  0
LINE
  5
363
100
AcDbEntity
  8
0
  6
CENTER
 62
               2
100
AcDbLine
 10
-6.4500000000000002
 20
22.0
 30
0.0
 11
6.3300000000000001
 21
22.0
 31
0.0
  0
LINE
  5
364
100
AcDbEntity
  8
0
  6
CONTINUOUS
 62
               7
100
AcDbLine
 10
-4.0
 20
18.699999999999999
 30
0.0
 11
-0.5
 21
18.699999999999999
 31
0.0
  0
LINE
  5
365
100
AcDbEntity
  8
0
  6
CENTER
 62
               2
100
AcDbLine
 10
0.0
 20
-6.7699999999999996
 30
0.0
 11
0.0
 21
28.579999999999998
 31
0.0
  0
LINE
  5
366
100
AcDbEntity
  8
0
  6
CONTINUOUS
 62
               7
100
AcDbLine
 10
4.0
 20
18.699999999999999
 30
0.0
 11
3.0
 21
19.27
 31
0.0
  0
ENDBLK
  5
367
100
AcDbEntity
  8
0
100
AcDbBlockEnd
  0
BLOCK
  5
368
100
AcDbEntity
  8
0
100
AcDbBlockBegin
  2
MS_20
 70
               0
 10
0.0
 20
0.0
 30
0.0
  3
MS_20
  1

  0
ARC
  5
369
100
AcDbEntity
  8
0
  6
CONTINUOUS
 62
               7
100
AcDbCircle
 10
2.5
 20
11.220911026000977
 30
0.0
 40
7.2270847748273725
100
AcDbArc
 50
249.761976150686
 51
290.23802384931281
  0
ARC
  5
36A
100
AcDbEntity
  8
0
  6
CONTINUOUS
 62
               7
100
AcDbCircle
 10
-2.5065743721802365
 20
10.478126506817897
 30
0.0
 40
7.2163316144098282
100
AcDbArc
 50
86.372496360965386
 51
110.21386939927058
  0
ARC
  5
36B
100
AcDbEntity
  8
0
  6
CONTINUOUS
 62
               7
100
AcDbCircle
 10
2.5065743721802365
 20
10.478126506817897
 30
0.0
 40
7.2163316144098282
100
AcDbArc
 50
69.786130600729024
 51
93.627503639034231
  0
ARC
  5
36C
100
AcDbEntity
  8
0
  6
CONTINUOUS
 62
               7
100
AcDbCircle
 10
-2.5
 20
11.220912933349609
 30
0.0
 40
7.2270865644233151
100
AcDbArc
 50
249.76198138146435
 51
290.2380186185344
  0
ARC
  5
36D
100
AcDbEntity
  8
0
  6
CONTINUOUS
 62
               7
100
AcDbCircle
 10
0.0
 20
22.0
 30
0.0
 40
4.3002906878489044
100
AcDbArc
 50
330.15596256406684
 51
29.844037435932339
  0
ARC
  5
36E
100
AcDbEntity
  8
0
  6
CONTINUOUS
 62
               7
100
AcDbCircle
 10
0.0
 20
22.0
 30
0.0
 40
4.3002906878489044
100
AcDbArc
 50
150.15596256406727
 51
209.84403743593194
  0
CIRCLE
  5
36F
100
AcDbEntity
  8
0
  6
CONTINUOUS
 62
               7
100
AcDbCircle
 10
0.0
 20
22.0
 30
0.0
 40
2.0
  0
ARC
  5
370
100
AcDbEntity
  8
0
  6
CONTINUOUS
 62
               7
100
AcDbCircle
 10
0.0
 20
21.0
 30
0.0
 40
3.8999999999999999
100
AcDbArc
 50
179.9999999999996
 51
0.0
  0
ARC
  5
371
100
AcDbEntity
  8
0
  6
CONTINUOUS
 62
               7
100
AcDbCircle
 10
0.0
 20
23.0
 30
0.0
 40
3.8999999999999999
100
AcDbArc
 50
0.0
 51
179.9999999999996
  0
LINE
  5
372
100
AcDbEntity
  8
0
  6
CONTINUOUS
 62
               7
100
AcDbLine
 10
2.0699999999999998
 20
17.699999999999999
 30
0.0
 11
5.0
 21
17.699999999999999
 31
0.0
  0
LINE
  5
373
100
AcDbEntity
  8
0
  6
CONTINUOUS
 62
               7
100
AcDbLine
 10
4.0
 20
17.699999999999999
 30
0.0
 11
4.0
 21
18.699999999999999
 31
0.0
  0
LINE
  5
374
100
AcDbEntity
  8
0
  6
CONTINUOUS
 62
               7
100
AcDbLine
 10
-5.0
 20
4.0
 30
0.0
 11
-5.0
 21
17.699999999999999
 31
0.0
  0
LINE
  5
375
100
AcDbEntity
  8
0
  6
CONTINUOUS
 62
               7
100
AcDbLine
 10
0.0
 20
4.4400000000000004
 30
0.0
 11
0.0
 21
17.100000000000001
 31
0.0
  0
LINE
  5
376
100
AcDbEntity
  8
0
  6
CONTINUOUS
 62
               7
100
AcDbLine
 10
5.0
 20
4.0
 30
0.0
 11
5.0
 21
17.699999999999999
 31
0.0
  0
LINE
  5
377
100
AcDbEntity
  8
0
  6
CONTINUOUS
 62
               7
100
AcDbLine
 10
-5.0
 20
17.699999999999999
 30
0.0
 11
-2.0699999999999998
 21
17.699999999999999
 31
0.0
  0
LINE
  5
378
100
AcDbEntity
  8
0
  6
CONTINUOUS
 62
               7
100
AcDbLine
 10
-5.0
 20
4.0
 30
0.0
 11
5.0
 21
4.0
 31
0.0
  0
LINE
  5
379
100
AcDbEntity
  8
0
  6
CONTINUOUS
 62
               7
100
AcDbLine
 10
-4.0
 20
17.699999999999999
 30
0.0
 11
-4.0
 21
18.699999999999999
 31
0.0
  0
LINE
  5
37A
100
AcDbEntity
  8
0
  6
CONTINUOUS
 62
               7
100
AcDbLine
 10
4.0
 20
18.699999999999999
 30
0.0
 11
3.1499999999999999
 21
18.699999999999999
 31
0.0
  0
LINE
  5
37B
100
AcDbEntity
  8
0
  6
CONTINUOUS
 62
               7
100
AcDbLine
 10
-4.0
 20
18.699999999999999
 30
0.0
 11
-3.1499999999999999
 21
18.699999999999999
 31
0.0
  0
LINE
  5
37C
100
AcDbEntity
  8
0
  6
CONTINUOUS
 62
               7
100
AcDbLine
 10
4.0
 20
18.699999999999999
 30
0.0
 11
3.3799999999999999
 21
19.050000000000001
 31
0.0
  0
LINE
  5
37D
100
AcDbEntity
  8
0
  6
CENTER
 62
               2
100
AcDbLine
 10
0.0
 20
-6.8899999999999997
 30
0.0
 11
0.0
 21
28.550000000000001
 31
0.0
  0
LINE
  5
37E
100
AcDbEntity
  8
0
  6
CONTINUOUS
 62
               7
100
AcDbLine
 10
-4.0
 20
18.699999999999999
 30
0.0
 11
-3.3799999999999999
 21
19.050000000000001
 31
0.0
  0
LINE
  5
37F
100
AcDbEntity
  8
0
  6
CENTER
 62
               2
100
AcDbLine
 10
-5.0199999999999996
 20
22.0
 30
0.0
 11
5.1900000000000004
 21
22.0
 31
0.0
  0
LINE
  5
380
100
AcDbEntity
  8
0
  6
CONTINUOUS
 62
               7
100
AcDbLine
 10
-3.8999999999999999
 20
23.0
 30
0.0
 11
-3.8999999999999999
 21
21.0
 31
0.0
  0
LINE
  5
381
100
AcDbEntity
  8
0
  6
CONTINUOUS
 62
               7
100
AcDbLine
 10
3.8999999999999999
 20
23.0
 30
0.0
 11
3.8999999999999999
 21
21.0
 31
0.0
  0
LINE
  5
382
100
AcDbEntity
  8
0
  6
CONTINUOUS
 62
               2
100
AcDbLine
 10
-4.1500000000000004
 20
-4.0
 30
0.0
 11
-4.4000000000000004
 21
4.0
 31
0.0
  0
LINE
  5
383
100
AcDbEntity
  8
0
  6
CONTINUOUS
 62
               7
100
AcDbLine
 10
-4.7300000000000004
 20
-4.0
 30
0.0
 11
-4.9900000000000002
 21
4.0
 31
0.0
  0
LINE
  5
384
100
AcDbEntity
  8
0
  6
CONTINUOUS
 62
               2
100
AcDbLine
 10
4.1500000000000004
 20
-4.0
 30
0.0
 11
4.4000000000000004
 21
4.0
 31
0.0
  0
LINE
  5
385
100
AcDbEntity
  8
0
  6
CONTINUOUS
 62
               7
100
AcDbLine
 10
4.7300000000000004
 20
-4.0
 30
0.0
 11
4.9900000000000002
 21
4.0
 31
0.0
  0
LINE
  5
386
100
AcDbEntity
  8
0
  6
CONTINUOUS
 62
               7
100
AcDbLine
 10
-4.7300000000000004
 20
-4.0
 30
0.0
 11
4.7300000000000004
 21
-4.0
 31
0.0
  0
ENDBLK
  5
387
100
AcDbEntity
  8
0
100
AcDbBlockEnd
  0
BLOCK
  5
388
100
AcDbEntity
  8
0
100
AcDbBlockBegin
  2
MS_21
 70
               0
 10
0.0
 20
0.0
 30
0.0
  3
MS_21
  1

  0
ARC
  5
389
100
AcDbEntity
  8
0
  6
CONTINUOUS
 62
               7
100
AcDbCircle
 10
10.618090040048804
 20
23.420000000000002
 30
0.0
 40
11.237714896658645
100
AcDbArc
 50
160.88479169555268
 51
199.11520830444653
  0
ARC
  5
38A
100
AcDbEntity
  8
0
  6
CONTINUOUS
 62
               7
100
AcDbCircle
 10
-0.0012463016554638
 20
24.084780432851016
 30
0.0
 40
3.9987565558011093
100
AcDbArc
 50
94.715836877729927
 51
180.06849596568998
  0
ARC
  5
38B
100
AcDbEntity
  8
0
  6
CONTINUOUS
 62
               7
100
AcDbCircle
 10
-0.0025337695460563
 20
24.084487354802921
 30
0.0
 40
2.9974695893478058
100
AcDbArc
 50
95.119349860919073
 51
180.08577454407995
  0
ARC
  5
38C
100
AcDbEntity
  8
0
  6
CONTINUOUS
 62
               7
100
AcDbCircle
 10
0.0
 20
9.9427337646484357
 30
0.0
 40
7.6468271696203098
100
AcDbArc
 50
252.49564184491589
 51
287.50435815508291
  0
ARC
  5
38D
100
AcDbEntity
  8
0
  6
CONTINUOUS
 62
               7
100
AcDbCircle
 10
-3.445812689689125
 20
4.3502649143982435
 30
0.0
 40
2.0503140000951792
100
AcDbArc
 50
269.60353414629969
 51
303.97612659606847
  0
ARC
  5
38E
100
AcDbEntity
  8
0
  6
CONTINUOUS
 62
               7
100
AcDbCircle
 10
-3.4591648395428467
 20
15.753802183695269
 30
0.0
 40
2.0461979867410784
100
AcDbArc
 50
55.493695796089021
 51
90.023385406030769
  0
ARC
  5
38F
100
AcDbEntity
  8
0
  6
CONTINUOUS
 62
               7
100
AcDbCircle
 10
3.4458127716126929
 20
4.3502651859163537
 30
0.0
 40
2.0503142710399143
100
AcDbArc
 50
236.02387574572205
 51
270.39646351190731
  0
ARC
  5
390
100
AcDbEntity
  8
0
  6
CONTINUOUS
 62
               7
100
AcDbCircle
 10
3.459164923976747
 20
15.753801911630479
 30
0.0
 40
2.0461982587713852
100
AcDbArc
 50
89.976616961319152
 51
124.50630183656025
  0
ARC
  5
391
100
AcDbEntity
  8
0
  6
CONTINUOUS
 62
               7
100
AcDbCircle
 10
0.0
 20
10.157264709472656
 30
0.0
 40
7.6372922761861357
100
AcDbArc
 50
72.473080576068668
 51
107.52691942393093
  0
LINE
  5
392
100
AcDbEntity
  8
0
  6
CONTINUOUS
 62
               7
100
AcDbLine
 10
-4.0
 20
18.600000000000001
 30
0.0
 11
-3.0
 21
19.170000000000002
 31
0.0
  0
LINE
  5
393
100
AcDbEntity
  8
0
  6
CONTINUOUS
 62
               7
100
AcDbLine
 10
0.0
 20
27.100000000000001
 30
0.0
 11
0.0
 21
19.739999999999998
 31
0.0
  0
LINE
  5
394
100
AcDbEntity
  8
0
  6
CONTINUOUS
 62
               7
100
AcDbLine
 10
0.0
 20
19.739999999999998
 30
0.0
 11
3.0
 21
19.170000000000002
 31
0.0
  0
LINE
  5
395
100
AcDbEntity
  8
0
  6
CONTINUOUS
 62
               7
100
AcDbLine
 10
3.73
 20
18.75
 30
0.0
 11
5.4199999999999999
 21
18.600000000000001
 31
0.0
  0
LINE
  5
396
100
AcDbEntity
  8
0
  6
CONTINUOUS
 62
               7
100
AcDbLine
 10
-0.27
 20
27.07
 30
0.0
 11
5.4199999999999999
 21
27.600000000000001
 31
0.0
  0
LINE
  5
397
100
AcDbEntity
  8
0
  6
CONTINUOUS
 62
               7
100
AcDbLine
 10
6.0
 20
28.600000000000001
 30
0.0
 11
5.4199999999999999
 21
27.600000000000001
 31
0.0
  0
LINE
  5
398
100
AcDbEntity
  8
0
  6
CONTINUOUS
 62
               7
100
AcDbLine
 10
6.0
 20
17.600000000000001
 30
0.0
 11
5.4199999999999999
 21
18.600000000000001
 31
0.0
  0
LINE
  5
399
100
AcDbEntity
  8
0
  6
CONTINUOUS
 62
               7
100
AcDbLine
 10
5.4199999999999999
 20
27.600000000000001
 30
0.0
 11
5.4199999999999999
 21
18.600000000000001
 31
0.0
  0
LINE
  5
39A
100
AcDbEntity
  8
0
  6
CONTINUOUS
 62
               7
100
AcDbLine
 10
6.0
 20
28.600000000000001
 30
0.0
 11
6.0
 21
17.600000000000001
 31
0.0
  0
LINE
  5
39B
100
AcDbEntity
  8
0
  6
CONTINUOUS
 62
               7
100
AcDbLine
 10
6.0
 20
17.600000000000001
 30
0.0
 11
11.0
 21
17.600000000000001
 31
0.0
  0
LINE
  5
39C
100
AcDbEntity
  8
0
  6
CONTINUOUS
 62
               7
100
AcDbLine
 10
6.0
 20
28.600000000000001
 30
0.0
 11
11.0
 21
28.600000000000001
 31
0.0
  0
LINE
  5
39D
100
AcDbEntity
  8
0
  6
CONTINUOUS
 62
               7
100
AcDbLine
 10
11.0
 20
28.600000000000001
 30
0.0
 11
11.0
 21
17.600000000000001
 31
0.0
  0
LINE
  5
39E
100
AcDbEntity
  8
0
  6
CONTINUOUS
 62
               7
100
AcDbLine
 10
11.0
 20
28.600000000000001
 30
0.0
 11
13.0
 21
28.100000000000001
 31
0.0
  0
LINE
  5
39F
100
AcDbEntity
  8
0
  6
CONTINUOUS
 62
               7
100
AcDbLine
 10
11.0
 20
17.600000000000001
 30
0.0
 11
13.0
 21
18.100000000000001
 31
0.0
  0
LINE
  5
3A0
100
AcDbEntity
  8
0
  6
CONTINUOUS
 62
               7
100
AcDbLine
 10
13.0
 20
28.100000000000001
 30
0.0
 11
13.0
 21
18.100000000000001
 31
0.0
  0
LINE
  5
3A1
100
AcDbEntity
  8
0
  6
CONTINUOUS
 62
               7
100
AcDbLine
 10
13.0
 20
18.100000000000001
 30
0.0
 11
14.0
 21
18.100000000000001
 31
0.0
  0
LINE
  5
3A2
100
AcDbEntity
  8
0
  6
CONTINUOUS
 62
               7
100
AcDbLine
 10
13.0
 20
28.100000000000001
 30
0.0
 11
14.0
 21
28.100000000000001
 31
0.0
  0
LINE
  5
3A3
100
AcDbEntity
  8
0
  6
CONTINUOUS
 62
               7
100
AcDbLine
 10
14.0
 20
28.100000000000001
 30
0.0
 11
14.0
 21
18.100000000000001
 31
0.0
  0
LINE
  5
3A4
100
AcDbEntity
  8
0
  6
CONTINUOUS
 62
               7
100
AcDbLine
 10
14.0
 20
26.600000000000001
 30
0.0
 11
14.800000000000001
 21
26.600000000000001
 31
0.0
  0
LINE
  5
3A5
100
AcDbEntity
  8
0
  6
CONTINUOUS
 62
               7
100
AcDbLine
 10
14.0
 20
19.600000000000001
 30
0.0
 11
14.800000000000001
 21
19.600000000000001
 31
0.0
  0
LINE
  5
3A6
100
AcDbEntity
  8
0
  6
CONTINUOUS
 62
               7
100
AcDbLine
 10
14.800000000000001
 20
17.199999999999999
 30
0.0
 11
16.0
 21
17.199999999999999
 31
0.0
  0
LINE
  5
3A7
100
AcDbEntity
  8
0
  6
CONTINUOUS
 62
               7
100
AcDbLine
 10
14.800000000000001
 20
29.0
 30
0.0
 11
14.800000000000001
 21
17.199999999999999
 31
0.0
  0
LINE
  5
3A8
100
AcDbEntity
  8
0
  6
CONTINUOUS
 62
               7
100
AcDbLine
 10
16.0
 20
29.0
 30
0.0
 11
16.0
 21
17.199999999999999
 31
0.0
  0
LINE
  5
3A9
100
AcDbEntity
  8
0
  6
CONTINUOUS
 62
               7
100
AcDbLine
 10
14.800000000000001
 20
29.0
 30
0.0
 11
16.0
 21
29.0
 31
0.0
  0
LINE
  5
3AA
100
AcDbEntity
  8
0
  6
CONTINUOUS
 62
               7
100
AcDbLine
 10
4.0
 20
18.600000000000001
 30
0.0
 11
3.0
 21
19.170000000000002
 31
0.0
  0
LINE
  5
3AB
100
AcDbEntity
  8
0
  6
CONTINUOUS
 62
               7
100
AcDbLine
 10
-0.33
 20
28.07
 30
0.0
 11
6.0
 21
28.600000000000001
 31
0.0
  0
LINE
  5
3AC
100
AcDbEntity
  8
0
  6
CONTINUOUS
 62
               7
100
AcDbLine
 10
-4.0
 20
18.600000000000001
 30
0.0
 11
4.0
 21
18.600000000000001
 31
0.0
  0
LINE
  5
3AD
100
AcDbEntity
  8
0
  6
CONTINUOUS
 62
               7
100
AcDbLine
 10
-3.0
 20
19.170000000000002
 30
0.0
 11
3.0
 21
19.170000000000002
 31
0.0
  0
LINE
  5
3AE
100
AcDbEntity
  8
0
  6
CONTINUOUS
 62
               7
100
AcDbLine
 10
-3.0
 20
19.170000000000002
 30
0.0
 11
-3.0
 21
24.079999999999998
 31
0.0
  0
LINE
  5
3AF
100
AcDbEntity
  8
0
  6
CONTINUOUS
 62
               7
100
AcDbLine
 10
4.0
 20
18.600000000000001
 30
0.0
 11
4.0
 21
17.800000000000001
 31
0.0
  0
LINE
  5
3B0
100
AcDbEntity
  8
0
  6
CONTINUOUS
 62
               7
100
AcDbLine
 10
-4.0
 20
24.079999999999998
 30
0.0
 11
-4.0
 21
17.800000000000001
 31
0.0
  0
LINE
  5
3B1
100
AcDbEntity
  8
0
  6
CENTER
 62
               2
100
AcDbLine
 10
-5.8200000000000003
 20
23.100000000000001
 30
0.0
 11
17.98
 21
23.100000000000001
 31
0.0
  0
LINE
  5
3B2
100
AcDbEntity
  8
0
  6
CONTINUOUS
 62
               7
100
AcDbLine
 10
-4.0
 20
0.0
 30
0.0
 11
-4.0
 21
2.2999999999999998
 31
0.0
  0
LINE
  5
3B3
100
AcDbEntity
  8
0
  6
CONTINUOUS
 62
               7
100
AcDbLine
 10
4.0
 20
0.0
 30
0.0
 11
4.0
 21
2.2999999999999998
 31
0.0
  0
LINE
  5
3B4
100
AcDbEntity
  8
0
  6
CONTINUOUS
 62
               7
100
AcDbLine
 10
-4.0
 20
0.0
 30
0.0
 11
4.0
 21
0.0
 31
0.0
  0
LINE
  5
3B5
100
AcDbEntity
  8
0
  6
CONTINUOUS
 62
               7
100
AcDbLine
 10
-4.0
 20
0.8
 30
0.0
 11
4.0
 21
0.8
 31
0.0
  0
LINE
  5
3B6
100
AcDbEntity
  8
0
  6
CONTINUOUS
 62
               7
100
AcDbLine
 10
-4.6100000000000003
 20
2.6499999999999999
 30
0.0
 11
-4.6100000000000003
 21
17.440000000000001
 31
0.0
  0
LINE
  5
3B7
100
AcDbEntity
  8
0
  6
CONTINUOUS
 62
               7
100
AcDbLine
 10
-4.6100000000000003
 20
2.6499999999999999
 30
0.0
 11
-4.0
 21
2.2999999999999998
 31
0.0
  0
LINE
  5
3B8
100
AcDbEntity
  8
0
  6
CONTINUOUS
 62
               7
100
AcDbLine
 10
-4.6100000000000003
 20
17.440000000000001
 30
0.0
 11
-4.0
 21
17.800000000000001
 31
0.0
  0
LINE
  5
3B9
100
AcDbEntity
  8
0
  6
CONTINUOUS
 62
               7
100
AcDbLine
 10
4.6100000000000003
 20
2.6499999999999999
 30
0.0
 11
4.0
 21
2.2999999999999998
 31
0.0
  0
LINE
  5
3BA
100
AcDbEntity
  8
0
  6
CONTINUOUS
 62
               7
100
AcDbLine
 10
-2.2999999999999998
 20
2.6499999999999999
 30
0.0
 11
-2.2999999999999998
 21
17.440000000000001
 31
0.0
  0
LINE
  5
3BB
100
AcDbEntity
  8
0
  6
CONTINUOUS
 62
               7
100
AcDbLine
 10
2.2999999999999998
 20
2.6499999999999999
 30
0.0
 11
2.2999999999999998
 21
17.440000000000001
 31
0.0
  0
LINE
  5
3BC
100
AcDbEntity
  8
0
  6
CONTINUOUS
 62
               7
100
AcDbLine
 10
4.6100000000000003
 20
2.6499999999999999
 30
0.0
 11
4.6100000000000003
 21
17.440000000000001
 31
0.0
  0
LINE
  5
3BD
100
AcDbEntity
  8
0
  6
CONTINUOUS
 62
               7
100
AcDbLine
 10
4.6100000000000003
 20
17.440000000000001
 30
0.0
 11
4.0
 21
17.800000000000001
 31
0.0
  0
LINE
  5
3BE
100
AcDbEntity
  8
0
  6
CONTINUOUS
 62
               7
100
AcDbLine
 10
-4.0
 20
17.800000000000001
 30
0.0
 11
4.0
 21
17.800000000000001
 31
0.0
  0
LINE
  5
3BF
100
AcDbEntity
  8
0
  6
CONTINUOUS
 62
               7
100
AcDbLine
 10
-4.0
 20
2.2999999999999998
 30
0.0
 11
4.0
 21
2.2999999999999998
 31
0.0
  0
LINE
  5
3C0
100
AcDbEntity
  8
0
  6
CONTINUOUS
 62
               7
100
AcDbLine
 10
-2.5
 20
-2.8999999999999999
 30
0.0
 11
2.5
 21
-2.8999999999999999
 31
0.0
  0
LINE
  5
3C1
100
AcDbEntity
  8
0
  6
CONTINUOUS
 62
               2
100
AcDbLine
 10
-2.0600000000000001
 20
-2.8999999999999999
 30
0.0
 11
-2.0600000000000001
 21
0.0
 31
0.0
  0
LINE
  5
3C2
100
AcDbEntity
  8
0
  6
CONTINUOUS
 62
               2
100
AcDbLine
 10
2.0600000000000001
 20
-2.8999999999999999
 30
0.0
 11
2.0600000000000001
 21
0.0
 31
0.0
  0
LINE
  5
3C3
100
AcDbEntity
  8
0
  6
CONTINUOUS
 62
               7
100
AcDbLine
 10
-2.5
 20
-2.8999999999999999
 30
0.0
 11
-2.5
 21
0.0
 31
0.0
  0
LINE
  5
3C4
100
AcDbEntity
  8
0
  6
CONTINUOUS
 62
               7
100
AcDbLine
 10
2.5
 20
-2.8999999999999999
 30
0.0
 11
2.5
 21
0.0
 31
0.0
  0
LINE
  5
3C5
100
AcDbEntity
  8
0
  6
CENTER
 62
               2
100
AcDbLine
 10
0.0
 20
-7.0
 30
0.0
 11
0.0
 21
30.649999999999999
 31
0.0
  0
ENDBLK
  5
3C6
100
AcDbEntity
  8
0
100
AcDbBlockEnd
  0
BLOCK
  5
3C7
100
AcDbEntity
  8
0
100
AcDbBlockBegin
  2
MS_22
 70
               0
 10
0.0
 20
0.0
 30
0.0
  3
MS_22
  1

  0
ARC
  5
3C8
100
AcDbEntity
  8
0
  6
CONTINUOUS
 62
               7
100
AcDbCircle
 10
0.0004626776754582
 20
-0.0004803844606698
 30
0.0
 40
2.9924488063564922
100
AcDbArc
 50
189.60917893849674
 51
258.22897268818087
  0
ARC
  5
3C9
100
AcDbEntity
  8
0
  6
CONTINUOUS
 62
               7
100
AcDbCircle
 10
0.0
 20
0.0
 30
0.0
 40
4.0
100
AcDbArc
 50
89.999999999999801
 51
269.99999999999937
  0
ARC
  5
3CA
100
AcDbEntity
  8
0
  6
CONTINUOUS
 62
               7
100
AcDbCircle
 10
0.0004626776754582
 20
0.0004803844606698
 30
0.0
 40
2.9924488063564922
100
AcDbArc
 50
101.77102731181832
 51
170.39082106150246
  0
LINE
  5
3CB
100
AcDbEntity
  8
0
  6
CONTINUOUS
 62
               7
100
AcDbLine
 10
5.4199999999999999
 20
-0.5
 30
0.0
 11
5.4199999999999999
 21
-4.5
 31
0.0
  0
LINE
  5
3CC
100
AcDbEntity
  8
0
  6
CONTINUOUS
 62
               7
100
AcDbLine
 10
-3.96
 20
0.5
 30
0.0
 11
6.0
 21
0.5
 31
0.0
  0
LINE
  5
3CD
100
AcDbEntity
  8
0
  6
CONTINUOUS
 62
               7
100
AcDbLine
 10
-3.96
 20
-0.5
 30
0.0
 11
6.0
 21
-0.5
 31
0.0
  0
LINE
  5
3CE
100
AcDbEntity
  8
0
  6
CONTINUOUS
 62
               7
100
AcDbLine
 10
0.0
 20
4.0
 30
0.0
 11
-2.2999999999999998
 21
4.0
 31
0.0
  0
LINE
  5
3CF
100
AcDbEntity
  8
0
  6
CONTINUOUS
 62
               7
100
AcDbLine
 10
-2.2999999999999998
 20
-4.0
 30
0.0
 11
0.0
 21
-4.0
 31
0.0
  0
LINE
  5
3D0
100
AcDbEntity
  8
0
  6
CONTINUOUS
 62
               7
100
AcDbLine
 10
-4.6100000000000003
 20
0.0
 30
0.0
 11
-2.2999999999999998
 21
-4.0
 31
0.0
  0
LINE
  5
3D1
100
AcDbEntity
  8
0
  6
CONTINUOUS
 62
               7
100
AcDbLine
 10
-2.2999999999999998
 20
4.0
 30
0.0
 11
-4.6100000000000003
 21
0.0
 31
0.0
  0
LINE
  5
3D2
100
AcDbEntity
  8
0
  6
CONTINUOUS
 62
               7
100
AcDbLine
 10
-0.61
 20
-2.9300000000000002
 30
0.0
 11
0.0
 21
-4.0
 31
0.0
  0
LINE
  5
3D3
100
AcDbEntity
  8
0
  6
CONTINUOUS
 62
               7
100
AcDbLine
 10
-0.61
 20
-2.9300000000000002
 30
0.0
 11
-0.1
 21
-0.5
 31
0.0
  0
LINE
  5
3D4
100
AcDbEntity
  8
0
  6
CONTINUOUS
 62
               7
100
AcDbLine
 10
0.0
 20
-4.0
 30
0.0
 11
0.0
 21
-0.5
 31
0.0
  0
LINE
  5
3D5
100
AcDbEntity
  8
0
  6
CONTINUOUS
 62
               7
100
AcDbLine
 10
0.0
 20
4.0
 30
0.0
 11
0.0
 21
0.5
 31
0.0
  0
LINE
  5
3D6
100
AcDbEntity
  8
0
  6
CONTINUOUS
 62
               7
100
AcDbLine
 10
-0.61
 20
2.9300000000000002
 30
0.0
 11
-0.1
 21
0.5
 31
0.0
  0
LINE
  5
3D7
100
AcDbEntity
  8
0
  6
CONTINUOUS
 62
               7
100
AcDbLine
 10
-0.61
 20
2.9300000000000002
 30
0.0
 11
0.0
 21
4.0
 31
0.0
  0
LINE
  5
3D8
100
AcDbEntity
  8
0
  6
CENTER
 62
               2
100
AcDbLine
 10
0.0
 20
5.6699999999999999
 30
0.0
 11
0.0
 21
-5.0899999999999999
 31
0.0
  0
LINE
  5
3D9
100
AcDbEntity
  8
0
  6
CONTINUOUS
 62
               7
100
AcDbLine
 10
0.0
 20
-4.0
 30
0.0
 11
5.4199999999999999
 21
-4.5
 31
0.0
  0
LINE
  5
3DA
100
AcDbEntity
  8
0
  6
CONTINUOUS
 62
               7
100
AcDbLine
 10
0.0
 20
4.0
 30
0.0
 11
5.4199999999999999
 21
4.5
 31
0.0
  0
LINE
  5
3DB
100
AcDbEntity
  8
0
  6
CENTER
 62
               2
100
AcDbLine
 10
-5.8200000000000003
 20
0.0
 30
0.0
 11
17.98
 21
0.0
 31
0.0
  0
LINE
  5
3DC
100
AcDbEntity
  8
0
  6
CONTINUOUS
 62
               7
100
AcDbLine
 10
5.4199999999999999
 20
4.5
 30
0.0
 11
5.4199999999999999
 21
0.5
 31
0.0
  0
LINE
  5
3DD
100
AcDbEntity
  8
0
  6
CONTINUOUS
 62
               7
100
AcDbLine
 10
6.0
 20
-5.5
 30
0.0
 11
5.4199999999999999
 21
-4.5
 31
0.0
  0
LINE
  5
3DE
100
AcDbEntity
  8
0
  6
CONTINUOUS
 62
               7
100
AcDbLine
 10
6.0
 20
5.5
 30
0.0
 11
5.4199999999999999
 21
4.5
 31
0.0
  0
LINE
  5
3DF
100
AcDbEntity
  8
0
  6
CONTINUOUS
 62
               7
100
AcDbLine
 10
6.0
 20
-5.5
 30
0.0
 11
11.0
 21
-5.5
 31
0.0
  0
LINE
  5
3E0
100
AcDbEntity
  8
0
  6
CONTINUOUS
 62
               7
100
AcDbLine
 10
11.0
 20
-5.5
 30
0.0
 11
13.0
 21
-5.0
 31
0.0
  0
LINE
  5
3E1
100
AcDbEntity
  8
0
  6
CONTINUOUS
 62
               7
100
AcDbLine
 10
11.0
 20
5.5
 30
0.0
 11
13.0
 21
5.0
 31
0.0
  0
LINE
  5
3E2
100
AcDbEntity
  8
0
  6
CONTINUOUS
 62
               7
100
AcDbLine
 10
6.0
 20
5.5
 30
0.0
 11
6.0
 21
-5.5
 31
0.0
  0
LINE
  5
3E3
100
AcDbEntity
  8
0
  6
CONTINUOUS
 62
               7
100
AcDbLine
 10
11.0
 20
5.5
 30
0.0
 11
11.0
 21
-5.5
 31
0.0
  0
LINE
  5
3E4
100
AcDbEntity
  8
0
  6
CONTINUOUS
 62
               7
100
AcDbLine
 10
13.0
 20
5.0
 30
0.0
 11
13.0
 21
-5.0
 31
0.0
  0
LINE
  5
3E5
100
AcDbEntity
  8
0
  6
CONTINUOUS
 62
               7
100
AcDbLine
 10
6.0
 20
5.5
 30
0.0
 11
11.0
 21
5.5
 31
0.0
  0
LINE
  5
3E6
100
AcDbEntity
  8
0
  6
CONTINUOUS
 62
               7
100
AcDbLine
 10
14.0
 20
-3.5
 30
0.0
 11
14.800000000000001
 21
-3.5
 31
0.0
  0
LINE
  5
3E7
100
AcDbEntity
  8
0
  6
CONTINUOUS
 62
               7
100
AcDbLine
 10
14.0
 20
3.5
 30
0.0
 11
14.800000000000001
 21
3.5
 31
0.0
  0
LINE
  5
3E8
100
AcDbEntity
  8
0
  6
CONTINUOUS
 62
               7
100
AcDbLine
 10
13.0
 20
5.0
 30
0.0
 11
14.0
 21
5.0
 31
0.0
  0
LINE
  5
3E9
100
AcDbEntity
  8
0
  6
CONTINUOUS
 62
               7
100
AcDbLine
 10
13.0
 20
-5.0
 30
0.0
 11
14.0
 21
-5.0
 31
0.0
  0
LINE
  5
3EA
100
AcDbEntity
  8
0
  6
CONTINUOUS
 62
               7
100
AcDbLine
 10
14.0
 20
5.0
 30
0.0
 11
14.0
 21
-5.0
 31
0.0
  0
LINE
  5
3EB
100
AcDbEntity
  8
0
  6
CONTINUOUS
 62
               7
100
AcDbLine
 10
14.800000000000001
 20
5.9000000000000004
 30
0.0
 11
16.0
 21
5.9000000000000004
 31
0.0
  0
LINE
  5
3EC
100
AcDbEntity
  8
0
  6
CONTINUOUS
 62
               7
100
AcDbLine
 10
14.800000000000001
 20
-5.9000000000000004
 30
0.0
 11
16.0
 21
-5.9000000000000004
 31
0.0
  0
LINE
  5
3ED
100
AcDbEntity
  8
0
  6
CONTINUOUS
 62
               7
100
AcDbLine
 10
14.800000000000001
 20
5.9000000000000004
 30
0.0
 11
14.800000000000001
 21
-5.9000000000000004
 31
0.0
  0
LINE
  5
3EE
100
AcDbEntity
  8
0
  6
CONTINUOUS
 62
               7
100
AcDbLine
 10
16.0
 20
5.9000000000000004
 30
0.0
 11
16.0
 21
-5.9000000000000004
 31
0.0
  0
ENDBLK
  5
3EF
100
AcDbEntity
  8
0
100
AcDbBlockEnd
  0
BLOCK
  5
3F0
100
AcDbEntity
  8
0
100
AcDbBlockBegin
  2
MS_23
 70
               0
 10
0.0
 20
0.0
 30
0.0
  3
MS_23
  1

  0
ARC
  5
3F1
100
AcDbEntity
  8
0
  6
CONTINUOUS
 62
               7
100
AcDbCircle
 10
-0.0013503846971015
 20
24.003099987075256
 30
0.0
 40
2.9986512176770557
100
AcDbArc
 50
99.572257041884242
 51
180.05923203290408
  0
ARC
  5
3F2
100
AcDbEntity
  8
0
  6
CONTINUOUS
 62
               7
100
AcDbCircle
 10
-0.0010828889577421
 20
23.096597346410519
 30
0.0
 40
4.5011386986886084
100
AcDbArc
 50
96.363879719679517
 51
228.22113538947335
  0
ARC
  5
3F3
100
AcDbEntity
  8
0
  6
CONTINUOUS
 62
               7
100
AcDbCircle
 10
0.0
 20
24.099990844726513
 30
0.0
 40
4.8993926127344487
100
AcDbArc
 50
32.327774534854029
 51
147.6722254651456
  0
ARC
  5
3F4
100
AcDbEntity
  8
0
  6
CONTINUOUS
 62
               7
100
AcDbCircle
 10
0.0010828889577421
 20
23.096597346410519
 30
0.0
 40
4.5011386986886084
100
AcDbArc
 50
311.77886461052543
 51
83.636120280320071
  0
ARC
  5
3F5
100
AcDbEntity
  8
0
  6
CONTINUOUS
 62
               7
100
AcDbCircle
 10
0.0
 20
23.099990844726563
 30
0.0
 40
5.5030194026979888
100
AcDbArc
 50
309.76563967047815
 51
230.23436032952065
  0
ARC
  5
3F6
100
AcDbEntity
  8
0
  6
CONTINUOUS
 62
               7
100
AcDbCircle
 10
2.0
 20
8.0767173767089844
 30
0.0
 40
5.7835336505181019
100
AcDbArc
 50
249.76879080816275
 51
290.23120919183606
  0
ARC
  5
3F7
100
AcDbEntity
  8
0
  6
CONTINUOUS
 62
               7
100
AcDbCircle
 10
-2.0
 20
8.076717376709059
 30
0.0
 40
5.7835336505181711
100
AcDbArc
 50
249.76879080816295
 51
290.23120919183577
  0
ARC
  5
3F8
100
AcDbEntity
  8
0
  6
CONTINUOUS
 62
               7
100
AcDbCircle
 10
-2.0
 20
12.023283004760668
 30
0.0
 40
5.7741512801895514
100
AcDbArc
 50
69.73447550848843
 51
110.26552449151119
  0
ARC
  5
3F9
100
AcDbEntity
  8
0
  6
CONTINUOUS
 62
               7
100
AcDbCircle
 10
2.0
 20
12.023281097412109
 30
0.0
 40
5.7741530694685412
100
AcDbArc
 50
69.734482063994776
 51
110.26551793600483
  0
ARC
  5
3FA
100
AcDbEntity
  8
0
  6
CONTINUOUS
 62
               7
100
AcDbCircle
 10
0.0013503846971015
 20
24.003099987075256
 30
0.0
 40
2.9986512176770557
100
AcDbArc
 50
359.9407679670947
 51
80.42774295811536
  0
LINE
  5
3FB
100
AcDbEntity
  8
0
  6
CONTINUOUS
 62
               7
100
AcDbLine
 10
-0.5
 20
19.170000000000002
 30
0.0
 11
-3.0
 21
19.170000000000002
 31
0.0
  0
LINE
  5
3FC
100
AcDbEntity
  8
0
  6
CONTINUOUS
 62
               7
100
AcDbLine
 10
-0.5
 20
18.600000000000001
 30
0.0
 11
-0.5
 21
28.57
 31
0.0
  0
LINE
  5
3FD
100
AcDbEntity
  8
0
  6
CONTINUOUS
 62
               7
100
AcDbLine
 10
0.5
 20
18.600000000000001
 30
0.0
 11
0.5
 21
28.57
 31
0.0
  0
LINE
  5
3FE
100
AcDbEntity
  8
0
  6
CONTINUOUS
 62
               7
100
AcDbLine
 10
0.5
 20
19.170000000000002
 30
0.0
 11
3.0
 21
19.170000000000002
 31
0.0
  0
LINE
  5
3FF
100
AcDbEntity
  8
0
  6
CONTINUOUS
 62
               7
100
AcDbLine
 10
4.0
 20
18.600000000000001
 30
0.0
 11
3.0
 21
19.170000000000002
 31
0.0
  0
LINE
  5
400
100
AcDbEntity
  8
0
  6
CONTINUOUS
 62
               7
100
AcDbLine
 10
-4.0
 20
18.600000000000001
 30
0.0
 11
4.0
 21
18.600000000000001
 31
0.0
  0
LINE
  5
401
100
AcDbEntity
  8
0
  6
CONTINUOUS
 62
               7
100
AcDbLine
 10
-3.0
 20
19.170000000000002
 30
0.0
 11
-3.0
 21
24.0
 31
0.0
  0
LINE
  5
402
100
AcDbEntity
  8
0
  6
CONTINUOUS
 62
               7
100
AcDbLine
 10
3.0
 20
19.170000000000002
 30
0.0
 11
3.0
 21
24.0
 31
0.0
  0
LINE
  5
403
100
AcDbEntity
  8
0
  6
CONTINUOUS
 62
               7
100
AcDbLine
 10
-4.0
 20
18.600000000000001
 30
0.0
 11
-3.0
 21
19.170000000000002
 31
0.0
  0
LINE
  5
404
100
AcDbEntity
  8
0
  6
CONTINUOUS
 62
               7
100
AcDbLine
 10
-4.0
 20
2.2999999999999998
 30
0.0
 11
4.0
 21
2.2999999999999998
 31
0.0
  0
LINE
  5
405
100
AcDbEntity
  8
0
  6
CONTINUOUS
 62
               7
100
AcDbLine
 10
-4.0
 20
0.0
 30
0.0
 11
4.0
 21
0.0
 31
0.0
  0
LINE
  5
406
100
AcDbEntity
  8
0
  6
CONTINUOUS
 62
               7
100
AcDbLine
 10
-4.0
 20
0.8
 30
0.0
 11
4.0
 21
0.8
 31
0.0
  0
LINE
  5
407
100
AcDbEntity
  8
0
  6
CONTINUOUS
 62
               2
100
AcDbLine
 10
2.0600000000000001
 20
-2.8999999999999999
 30
0.0
 11
2.0600000000000001
 21
0.0
 31
0.0
  0
LINE
  5
408
100
AcDbEntity
  8
0
  6
CONTINUOUS
 62
               7
100
AcDbLine
 10
2.5
 20
-2.8999999999999999
 30
0.0
 11
2.5
 21
0.0
 31
0.0
  0
LINE
  5
409
100
AcDbEntity
  8
0
  6
CONTINUOUS
 62
               7
100
AcDbLine
 10
-2.5
 20
-2.8999999999999999
 30
0.0
 11
-2.5
 21
0.0
 31
0.0
  0
LINE
  5
40A
100
AcDbEntity
  8
0
  6
CONTINUOUS
 62
               2
100
AcDbLine
 10
-2.0600000000000001
 20
-2.8999999999999999
 30
0.0
 11
-2.0600000000000001
 21
0.0
 31
0.0
  0
LINE
  5
40B
100
AcDbEntity
  8
0
  6
CONTINUOUS
 62
               7
100
AcDbLine
 10
-2.5
 20
-2.8999999999999999
 30
0.0
 11
2.5
 21
-2.8999999999999999
 31
0.0
  0
LINE
  5
40C
100
AcDbEntity
  8
0
  6
CENTER
 62
               2
100
AcDbLine
 10
-6.4500000000000002
 20
23.100000000000001
 30
0.0
 11
6.3300000000000001
 21
23.100000000000001
 31
0.0
  0
LINE
  5
40D
100
AcDbEntity
  8
0
  6
CONTINUOUS
 62
               7
100
AcDbLine
 10
0.0
 20
17.440000000000001
 30
0.0
 11
0.0
 21
2.6499999999999999
 31
0.0
  0
LINE
  5
40E
100
AcDbEntity
  8
0
  6
CONTINUOUS
 62
               7
100
AcDbLine
 10
-4.0
 20
0.0
 30
0.0
 11
-4.0
 21
18.600000000000001
 31
0.0
  0
LINE
  5
40F
100
AcDbEntity
  8
0
  6
CONTINUOUS
 62
               7
100
AcDbLine
 10
4.0
 20
0.0
 30
0.0
 11
4.0
 21
18.600000000000001
 31
0.0
  0
LINE
  5
410
100
AcDbEntity
  8
0
  6
CONTINUOUS
 62
               7
100
AcDbLine
 10
-4.0
 20
17.800000000000001
 30
0.0
 11
4.0
 21
17.800000000000001
 31
0.0
  0
LINE
  5
411
100
AcDbEntity
  8
0
  6
CENTER
 62
               2
100
AcDbLine
 10
0.0
 20
-6.6600000000000001
 30
0.0
 11
0.0
 21
30.719999999999999
 31
0.0
  0
ENDBLK
  5
412
100
AcDbEntity
  8
0
100
AcDbBlockEnd
  0
BLOCK
  5
413
100
AcDbEntity
  8
0
100
AcDbBlockBegin
  2
MS_24
 70
               0
 10
0.0
 20
0.0
 30
0.0
  3
MS_24
  1

  0
ARC
  5
414
100
AcDbEntity
  8
0
  6
CONTINUOUS
 62
               7
100
AcDbCircle
 10
0.0
 20
24.100000000000001
 30
0.0
 40
4.9000000000085535
100
AcDbArc
 50
0.0
 51
179.9999999999996
  0
ARC
  5
415
100
AcDbEntity
  8
0
  6
CONTINUOUS
 62
               7
100
AcDbCircle
 10
1.9933727856765169
 20
12.024664434513635
 30
0.0
 40
5.7751547220905852
100
AcDbArc
 50
69.668049281965565
 51
86.658399982308751
  0
ARC
  5
416
100
AcDbEntity
  8
0
  6
CONTINUOUS
 62
               7
100
AcDbCircle
 10
-0.0000038147030024
 20
23.100000000000001
 30
0.0
 40
5.4994573901209023
100
AcDbArc
 50
318.83370269797513
 51
41.166297302024027
  0
CIRCLE
  5
417
100
AcDbEntity
  8
0
  6
CONTINUOUS
 62
               7
100
AcDbCircle
 10
0.0
 20
23.099990844726563
 30
0.0
 40
3.0
  0
ARC
  5
418
100
AcDbEntity
  8
0
  6
CONTINUOUS
 62
               7
100
AcDbCircle
 10
0.0
 20
22.100000000000001
 30
0.0
 40
4.9000000000085535
100
AcDbArc
 50
179.9999999999996
 51
0.0
  0
ARC
  5
419
100
AcDbEntity
  8
0
  6
CONTINUOUS
 62
               7
100
AcDbCircle
 10
0.0000038147030024
 20
23.100000000000001
 30
0.0
 40
5.4994573901209023
100
AcDbArc
 50
138.83370269797555
 51
221.16629730202365
  0
ARC
  5
41A
100
AcDbEntity
  8
0
  6
CONTINUOUS
 62
               7
100
AcDbCircle
 10
2.0
 20
8.0767173767101639
 30
0.0
 40
5.7835336505192094
100
AcDbArc
 50
249.76879080816676
 51
290.23120919183202
  0
ARC
  5
41B
100
AcDbEntity
  8
0
  6
CONTINUOUS
 62
               7
100
AcDbCircle
 10
-2.0
 20
8.0767173767101639
 30
0.0
 40
5.7835336505192094
100
AcDbArc
 50
249.76879080816676
 51
290.23120919183202
  0
ARC
  5
41C
100
AcDbEntity
  8
0
  6
CONTINUOUS
 62
               7
100
AcDbCircle
 10
-1.9933733283131887
 20
12.024667023665753
 30
0.0
 40
5.7751521057109878
100
AcDbArc
 50
93.341596140576954
 51
110.33195459514792
  0
LINE
  5
41D
100
AcDbEntity
  8
0
  6
CONTINUOUS
 62
               7
100
AcDbLine
 10
4.0
 20
17.800000000000001
 30
0.0
 11
2.3399999999999999
 21
17.800000000000001
 31
0.0
  0
LINE
  5
41E
100
AcDbEntity
  8
0
  6
CONTINUOUS
 62
               7
100
AcDbLine
 10
4.0
 20
18.600000000000001
 30
0.0
 11
3.4199999999999999
 21
18.600000000000001
 31
0.0
  0
LINE
  5
41F
100
AcDbEntity
  8
0
  6
CONTINUOUS
 62
               7
100
AcDbLine
 10
4.9000000000000004
 20
24.100000000000001
 30
0.0
 11
4.9000000000000004
 21
22.100000000000001
 31
0.0
  0
LINE
  5
420
100
AcDbEntity
  8
0
  6
CONTINUOUS
 62
               7
100
AcDbLine
 10
-4.9000000000000004
 20
24.100000000000001
 30
0.0
 11
-4.9000000000000004
 21
22.100000000000001
 31
0.0
  0
LINE
  5
421
100
AcDbEntity
  8
0
  6
CONTINUOUS
 62
               7
100
AcDbLine
 10
4.0
 20
18.600000000000001
 30
0.0
 11
3.6299999999999999
 21
18.809999999999999
 31
0.0
  0
LINE
  5
422
100
AcDbEntity
  8
0
  6
CONTINUOUS
 62
               7
100
AcDbLine
 10
-4.0
 20
18.600000000000001
 30
0.0
 11
-3.4199999999999999
 21
18.600000000000001
 31
0.0
  0
LINE
  5
423
100
AcDbEntity
  8
0
  6
CONTINUOUS
 62
               7
100
AcDbLine
 10
-4.0
 20
18.600000000000001
 30
0.0
 11
-3.6299999999999999
 21
18.809999999999999
 31
0.0
  0
LINE
  5
424
100
AcDbEntity
  8
0
  6
CONTINUOUS
 62
               7
100
AcDbLine
 10
-4.0
 20
2.2999999999999998
 30
0.0
 11
4.0
 21
2.2999999999999998
 31
0.0
  0
LINE
  5
425
100
AcDbEntity
  8
0
  6
CONTINUOUS
 62
               7
100
AcDbLine
 10
-4.0
 20
0.0
 30
0.0
 11
4.0
 21
0.0
 31
0.0
  0
LINE
  5
426
100
AcDbEntity
  8
0
  6
CONTINUOUS
 62
               7
100
AcDbLine
 10
-4.0
 20
0.8
 30
0.0
 11
4.0
 21
0.8
 31
0.0
  0
LINE
  5
427
100
AcDbEntity
  8
0
  6
CONTINUOUS
 62
               2
100
AcDbLine
 10
2.0600000000000001
 20
-2.8999999999999999
 30
0.0
 11
2.0600000000000001
 21
0.0
 31
0.0
  0
LINE
  5
428
100
AcDbEntity
  8
0
  6
CONTINUOUS
 62
               7
100
AcDbLine
 10
2.5
 20
-2.8999999999999999
 30
0.0
 11
2.5
 21
0.0
 31
0.0
  0
LINE
  5
429
100
AcDbEntity
  8
0
  6
CONTINUOUS
 62
               7
100
AcDbLine
 10
-2.5
 20
-2.8999999999999999
 30
0.0
 11
-2.5
 21
0.0
 31
0.0
  0
LINE
  5
42A
100
AcDbEntity
  8
0
  6
CONTINUOUS
 62
               2
100
AcDbLine
 10
-2.0600000000000001
 20
-2.8999999999999999
 30
0.0
 11
-2.0600000000000001
 21
0.0
 31
0.0
  0
LINE
  5
42B
100
AcDbEntity
  8
0
  6
CONTINUOUS
 62
               7
100
AcDbLine
 10
-2.5
 20
-2.8999999999999999
 30
0.0
 11
2.5
 21
-2.8999999999999999
 31
0.0
  0
LINE
  5
42C
100
AcDbEntity
  8
0
  6
CENTER
 62
               2
100
AcDbLine
 10
-6.4500000000000002
 20
23.100000000000001
 30
0.0
 11
6.3300000000000001
 21
23.100000000000001
 31
0.0
  0
LINE
  5
42D
100
AcDbEntity
  8
0
  6
CONTINUOUS
 62
               7
100
AcDbLine
 10
0.0
 20
17.199999999999999
 30
0.0
 11
0.0
 21
2.6499999999999999
 31
0.0
  0
LINE
  5
42E
100
AcDbEntity
  8
0
  6
CONTINUOUS
 62
               7
100
AcDbLine
 10
-4.0
 20
0.0
 30
0.0
 11
-4.0
 21
18.600000000000001
 31
0.0
  0
LINE
  5
42F
100
AcDbEntity
  8
0
  6
CONTINUOUS
 62
               7
100
AcDbLine
 10
4.0
 20
0.0
 30
0.0
 11
4.0
 21
18.600000000000001
 31
0.0
  0
LINE
  5
430
100
AcDbEntity
  8
0
  6
CONTINUOUS
 62
               7
100
AcDbLine
 10
-4.0
 20
17.800000000000001
 30
0.0
 11
-2.3399999999999999
 21
17.800000000000001
 31
0.0
  0
LINE
  5
431
100
AcDbEntity
  8
0
  6
CENTER
 62
               2
100
AcDbLine
 10
0.0
 20
-7.3300000000000001
 30
0.0
 11
0.0
 21
30.719999999999999
 31
0.0
  0
ENDBLK
  5
432
100
AcDbEntity
  8
0
100
AcDbBlockEnd
  0
BLOCK
  5
433
100
AcDbEntity
  8
0
100
AcDbBlockBegin
  2
MS_25
 70
               0
 10
0.0
 20
0.0
 30
0.0
  3
MS_25
  1

  0
ARC
  5
434
100
AcDbEntity
  8
0
  6
CONTINUOUS
 62
               7
100
AcDbCircle
 10
10.618090040048804
 20
23.420000000000002
 30
0.0
 40
11.237714896658645
100
AcDbArc
 50
160.88479169555268
 51
199.11520830444653
  0
ARC
  5
435
100
AcDbEntity
  8
0
  6
CONTINUOUS
 62
               7
100
AcDbCircle
 10
-0.0012463016554638
 20
24.084780432851016
 30
0.0
 40
3.9987565558011093
100
AcDbArc
 50
94.715836877729927
 51
180.06849596568998
  0
ARC
  5
436
100
AcDbEntity
  8
0
  6
CONTINUOUS
 62
               7
100
AcDbCircle
 10
-0.0025337695460563
 20
24.084487354802921
 30
0.0
 40
2.9974695893478058
100
AcDbArc
 50
95.119349860919073
 51
180.08577454407995
  0
ARC
  5
437
100
AcDbEntity
  8
0
  6
CONTINUOUS
 62
               7
100
AcDbCircle
 10
0.0
 20
9.9427337646484357
 30
0.0
 40
7.6468271696203098
100
AcDbArc
 50
252.49564184491589
 51
287.50435815508291
  0
ARC
  5
438
100
AcDbEntity
  8
0
  6
CONTINUOUS
 62
               7
100
AcDbCircle
 10
-3.445812689689125
 20
4.3502649143982435
 30
0.0
 40
2.0503140000951792
100
AcDbArc
 50
269.60353414629969
 51
303.97612659606847
  0
ARC
  5
439
100
AcDbEntity
  8
0
  6
CONTINUOUS
 62
               7
100
AcDbCircle
 10
-3.4591648395428467
 20
15.753802183695269
 30
0.0
 40
2.0461979867410784
100
AcDbArc
 50
55.493695796089021
 51
90.023385406030769
  0
ARC
  5
43A
100
AcDbEntity
  8
0
  6
CONTINUOUS
 62
               7
100
AcDbCircle
 10
3.4458127716126929
 20
4.3502651859163537
 30
0.0
 40
2.0503142710399143
100
AcDbArc
 50
236.02387574572205
 51
270.39646351190731
  0
ARC
  5
43B
100
AcDbEntity
  8
0
  6
CONTINUOUS
 62
               7
100
AcDbCircle
 10
3.459164923976747
 20
15.753801911630479
 30
0.0
 40
2.0461982587713852
100
AcDbArc
 50
89.976616961319152
 51
124.50630183656025
  0
ARC
  5
43C
100
AcDbEntity
  8
0
  6
CONTINUOUS
 62
               7
100
AcDbCircle
 10
0.0
 20
10.157264709472656
 30
0.0
 40
7.6372922761861357
100
AcDbArc
 50
72.473080576068668
 51
107.52691942393093
  0
LINE
  5
43D
100
AcDbEntity
  8
0
  6
CONTINUOUS
 62
               7
100
AcDbLine
 10
4.5
 20
0.0
 30
0.0
 11
4.5
 21
0.8
 31
0.0
  0
LINE
  5
43E
100
AcDbEntity
  8
0
  6
CONTINUOUS
 62
               7
100
AcDbLine
 10
-4.5
 20
0.8
 30
0.0
 11
4.5
 21
0.8
 31
0.0
  0
LINE
  5
43F
100
AcDbEntity
  8
0
  6
CONTINUOUS
 62
               7
100
AcDbLine
 10
-4.5
 20
0.0
 30
0.0
 11
4.5
 21
0.0
 31
0.0
  0
LINE
  5
440
100
AcDbEntity
  8
0
  6
CONTINUOUS
 62
               7
100
AcDbLine
 10
-4.5
 20
0.0
 30
0.0
 11
-4.5
 21
0.8
 31
0.0
  0
LINE
  5
441
100
AcDbEntity
  8
0
  6
CONTINUOUS
 62
               7
100
AcDbLine
 10
-4.0
 20
18.600000000000001
 30
0.0
 11
-3.0
 21
19.170000000000002
 31
0.0
  0
LINE
  5
442
100
AcDbEntity
  8
0
  6
CONTINUOUS
 62
               7
100
AcDbLine
 10
-3.0
 20
-3.8999999999999999
 30
0.0
 11
-3.0
 21
0.0
 31
0.0
  0
LINE
  5
443
100
AcDbEntity
  8
0
  6
CONTINUOUS
 62
               2
100
AcDbLine
 10
-2.4500000000000002
 20
-3.8999999999999999
 30
0.0
 11
-2.4500000000000002
 21
0.0
 31
0.0
  0
LINE
  5
444
100
AcDbEntity
  8
0
  6
CONTINUOUS
 62
               7
100
AcDbLine
 10
-3.0
 20
-3.8999999999999999
 30
0.0
 11
3.0
 21
-3.8999999999999999
 31
0.0
  0
LINE
  5
445
100
AcDbEntity
  8
0
  6
CONTINUOUS
 62
               2
100
AcDbLine
 10
2.4500000000000002
 20
-3.8999999999999999
 30
0.0
 11
2.4500000000000002
 21
0.0
 31
0.0
  0
LINE
  5
446
100
AcDbEntity
  8
0
  6
CONTINUOUS
 62
               7
100
AcDbLine
 10
3.0
 20
-3.8999999999999999
 30
0.0
 11
3.0
 21
0.0
 31
0.0
  0
LINE
  5
447
100
AcDbEntity
  8
0
  6
CONTINUOUS
 62
               7
100
AcDbLine
 10
0.0
 20
27.100000000000001
 30
0.0
 11
0.0
 21
19.739999999999998
 31
0.0
  0
LINE
  5
448
100
AcDbEntity
  8
0
  6
CONTINUOUS
 62
               7
100
AcDbLine
 10
0.0
 20
19.739999999999998
 30
0.0
 11
3.0
 21
19.170000000000002
 31
0.0
  0
LINE
  5
449
100
AcDbEntity
  8
0
  6
CONTINUOUS
 62
               7
100
AcDbLine
 10
3.73
 20
18.75
 30
0.0
 11
5.4199999999999999
 21
18.600000000000001
 31
0.0
  0
LINE
  5
44A
100
AcDbEntity
  8
0
  6
CONTINUOUS
 62
               7
100
AcDbLine
 10
-0.27
 20
27.07
 30
0.0
 11
5.4199999999999999
 21
27.600000000000001
 31
0.0
  0
LINE
  5
44B
100
AcDbEntity
  8
0
  6
CONTINUOUS
 62
               7
100
AcDbLine
 10
6.0
 20
28.600000000000001
 30
0.0
 11
5.4199999999999999
 21
27.600000000000001
 31
0.0
  0
LINE
  5
44C
100
AcDbEntity
  8
0
  6
CONTINUOUS
 62
               7
100
AcDbLine
 10
6.0
 20
17.600000000000001
 30
0.0
 11
5.4199999999999999
 21
18.600000000000001
 31
0.0
  0
LINE
  5
44D
100
AcDbEntity
  8
0
  6
CONTINUOUS
 62
               7
100
AcDbLine
 10
5.4199999999999999
 20
27.600000000000001
 30
0.0
 11
5.4199999999999999
 21
18.600000000000001
 31
0.0
  0
LINE
  5
44E
100
AcDbEntity
  8
0
  6
CONTINUOUS
 62
               7
100
AcDbLine
 10
6.0
 20
28.600000000000001
 30
0.0
 11
6.0
 21
17.600000000000001
 31
0.0
  0
LINE
  5
44F
100
AcDbEntity
  8
0
  6
CONTINUOUS
 62
               7
100
AcDbLine
 10
6.0
 20
17.600000000000001
 30
0.0
 11
11.0
 21
17.600000000000001
 31
0.0
  0
LINE
  5
450
100
AcDbEntity
  8
0
  6
CONTINUOUS
 62
               7
100
AcDbLine
 10
6.0
 20
28.600000000000001
 30
0.0
 11
11.0
 21
28.600000000000001
 31
0.0
  0
LINE
  5
451
100
AcDbEntity
  8
0
  6
CONTINUOUS
 62
               7
100
AcDbLine
 10
11.0
 20
28.600000000000001
 30
0.0
 11
11.0
 21
17.600000000000001
 31
0.0
  0
LINE
  5
452
100
AcDbEntity
  8
0
  6
CONTINUOUS
 62
               7
100
AcDbLine
 10
11.0
 20
28.600000000000001
 30
0.0
 11
13.0
 21
28.100000000000001
 31
0.0
  0
LINE
  5
453
100
AcDbEntity
  8
0
  6
CONTINUOUS
 62
               7
100
AcDbLine
 10
11.0
 20
17.600000000000001
 30
0.0
 11
13.0
 21
18.100000000000001
 31
0.0
  0
LINE
  5
454
100
AcDbEntity
  8
0
  6
CONTINUOUS
 62
               7
100
AcDbLine
 10
13.0
 20
28.100000000000001
 30
0.0
 11
13.0
 21
18.100000000000001
 31
0.0
  0
LINE
  5
455
100
AcDbEntity
  8
0
  6
CONTINUOUS
 62
               7
100
AcDbLine
 10
13.0
 20
18.100000000000001
 30
0.0
 11
14.0
 21
18.100000000000001
 31
0.0
  0
LINE
  5
456
100
AcDbEntity
  8
0
  6
CONTINUOUS
 62
               7
100
AcDbLine
 10
13.0
 20
28.100000000000001
 30
0.0
 11
14.0
 21
28.100000000000001
 31
0.0
  0
LINE
  5
457
100
AcDbEntity
  8
0
  6
CONTINUOUS
 62
               7
100
AcDbLine
 10
14.0
 20
28.100000000000001
 30
0.0
 11
14.0
 21
18.100000000000001
 31
0.0
  0
LINE
  5
458
100
AcDbEntity
  8
0
  6
CONTINUOUS
 62
               7
100
AcDbLine
 10
14.0
 20
26.600000000000001
 30
0.0
 11
14.800000000000001
 21
26.600000000000001
 31
0.0
  0
LINE
  5
459
100
AcDbEntity
  8
0
  6
CONTINUOUS
 62
               7
100
AcDbLine
 10
14.0
 20
19.600000000000001
 30
0.0
 11
14.800000000000001
 21
19.600000000000001
 31
0.0
  0
LINE
  5
45A
100
AcDbEntity
  8
0
  6
CONTINUOUS
 62
               7
100
AcDbLine
 10
14.800000000000001
 20
17.199999999999999
 30
0.0
 11
16.0
 21
17.199999999999999
 31
0.0
  0
LINE
  5
45B
100
AcDbEntity
  8
0
  6
CONTINUOUS
 62
               7
100
AcDbLine
 10
14.800000000000001
 20
29.0
 30
0.0
 11
14.800000000000001
 21
17.199999999999999
 31
0.0
  0
LINE
  5
45C
100
AcDbEntity
  8
0
  6
CONTINUOUS
 62
               7
100
AcDbLine
 10
16.0
 20
29.0
 30
0.0
 11
16.0
 21
17.199999999999999
 31
0.0
  0
LINE
  5
45D
100
AcDbEntity
  8
0
  6
CONTINUOUS
 62
               7
100
AcDbLine
 10
14.800000000000001
 20
29.0
 30
0.0
 11
16.0
 21
29.0
 31
0.0
  0
LINE
  5
45E
100
AcDbEntity
  8
0
  6
CONTINUOUS
 62
               7
100
AcDbLine
 10
4.0
 20
18.600000000000001
 30
0.0
 11
3.0
 21
19.170000000000002
 31
0.0
  0
LINE
  5
45F
100
AcDbEntity
  8
0
  6
CONTINUOUS
 62
               7
100
AcDbLine
 10
-0.33
 20
28.07
 30
0.0
 11
6.0
 21
28.600000000000001
 31
0.0
  0
LINE
  5
460
100
AcDbEntity
  8
0
  6
CONTINUOUS
 62
               7
100
AcDbLine
 10
-4.0
 20
18.600000000000001
 30
0.0
 11
4.0
 21
18.600000000000001
 31
0.0
  0
LINE
  5
461
100
AcDbEntity
  8
0
  6
CONTINUOUS
 62
               7
100
AcDbLine
 10
-3.0
 20
19.170000000000002
 30
0.0
 11
3.0
 21
19.170000000000002
 31
0.0
  0
LINE
  5
462
100
AcDbEntity
  8
0
  6
CONTINUOUS
 62
               7
100
AcDbLine
 10
-3.0
 20
19.170000000000002
 30
0.0
 11
-3.0
 21
24.079999999999998
 31
0.0
  0
LINE
  5
463
100
AcDbEntity
  8
0
  6
CONTINUOUS
 62
               7
100
AcDbLine
 10
4.0
 20
18.600000000000001
 30
0.0
 11
4.0
 21
17.800000000000001
 31
0.0
  0
LINE
  5
464
100
AcDbEntity
  8
0
  6
CONTINUOUS
 62
               7
100
AcDbLine
 10
-4.0
 20
24.079999999999998
 30
0.0
 11
-4.0
 21
17.800000000000001
 31
0.0
  0
LINE
  5
465
100
AcDbEntity
  8
0
  6
CENTER
 62
               2
100
AcDbLine
 10
-5.8200000000000003
 20
23.100000000000001
 30
0.0
 11
17.98
 21
23.100000000000001
 31
0.0
  0
LINE
  5
466
100
AcDbEntity
  8
0
  6
CONTINUOUS
 62
               7
100
AcDbLine
 10
-4.0
 20
0.8
 30
0.0
 11
-4.0
 21
2.2999999999999998
 31
0.0
  0
LINE
  5
467
100
AcDbEntity
  8
0
  6
CONTINUOUS
 62
               7
100
AcDbLine
 10
4.0
 20
0.8
 30
0.0
 11
4.0
 21
2.2999999999999998
 31
0.0
  0
LINE
  5
468
100
AcDbEntity
  8
0
  6
CONTINUOUS
 62
               7
100
AcDbLine
 10
-4.6100000000000003
 20
2.6499999999999999
 30
0.0
 11
-4.6100000000000003
 21
17.440000000000001
 31
0.0
  0
LINE
  5
469
100
AcDbEntity
  8
0
  6
CONTINUOUS
 62
               7
100
AcDbLine
 10
-4.6100000000000003
 20
2.6499999999999999
 30
0.0
 11
-4.0
 21
2.2999999999999998
 31
0.0
  0
LINE
  5
46A
100
AcDbEntity
  8
0
  6
CONTINUOUS
 62
               7
100
AcDbLine
 10
-4.6100000000000003
 20
17.440000000000001
 30
0.0
 11
-4.0
 21
17.800000000000001
 31
0.0
  0
LINE
  5
46B
100
AcDbEntity
  8
0
  6
CONTINUOUS
 62
               7
100
AcDbLine
 10
4.6100000000000003
 20
2.6499999999999999
 30
0.0
 11
4.0
 21
2.2999999999999998
 31
0.0
  0
LINE
  5
46C
100
AcDbEntity
  8
0
  6
CONTINUOUS
 62
               7
100
AcDbLine
 10
-2.2999999999999998
 20
2.6499999999999999
 30
0.0
 11
-2.2999999999999998
 21
17.440000000000001
 31
0.0
  0
LINE
  5
46D
100
AcDbEntity
  8
0
  6
CONTINUOUS
 62
               7
100
AcDbLine
 10
2.2999999999999998
 20
2.7400000000000002
 30
0.0
 11
2.2999999999999998
 21
17.440000000000001
 31
0.0
  0
LINE
  5
46E
100
AcDbEntity
  8
0
  6
CONTINUOUS
 62
               7
100
AcDbLine
 10
4.6100000000000003
 20
2.6499999999999999
 30
0.0
 11
4.6100000000000003
 21
17.440000000000001
 31
0.0
  0
LINE
  5
46F
100
AcDbEntity
  8
0
  6
CONTINUOUS
 62
               7
100
AcDbLine
 10
4.6100000000000003
 20
17.440000000000001
 30
0.0
 11
4.0
 21
17.800000000000001
 31
0.0
  0
LINE
  5
470
100
AcDbEntity
  8
0
  6
CONTINUOUS
 62
               7
100
AcDbLine
 10
-4.0
 20
17.800000000000001
 30
0.0
 11
4.0
 21
17.800000000000001
 31
0.0
  0
LINE
  5
471
100
AcDbEntity
  8
0
  6
CONTINUOUS
 62
               7
100
AcDbLine
 10
-4.0
 20
2.2999999999999998
 30
0.0
 11
4.0
 21
2.2999999999999998
 31
0.0
  0
LINE
  5
472
100
AcDbEntity
  8
0
  6
CENTER
 62
               2
100
AcDbLine
 10
0.0
 20
-5.8499999999999996
 30
0.0
 11
0.0
 21
30.649999999999999
 31
0.0
  0
ENDBLK
  5
473
100
AcDbEntity
  8
0
100
AcDbBlockEnd
  0
BLOCK
  5
474
100
AcDbEntity
  8
0
100
AcDbBlockBegin
  2
MS_26
 70
               0
 10
0.0
 20
0.0
 30
0.0
  3
MS_26
  1

  0
ARC
  5
475
100
AcDbEntity
  8
0
  6
CONTINUOUS
 62
               7
100
AcDbCircle
 10
-0.0006607090973474
 20
-0.0011453611371053
 30
0.0
 40
4.4943019071232904
100
AcDbArc
 50
122.72024499299935
 51
177.3072140999854
  0
ARC
  5
476
100
AcDbEntity
  8
0
  6
CONTINUOUS
 62
               7
100
AcDbCircle
 10
-0.0128437245379602
 20
-0.0005277232792569
 30
0.0
 40
4.4938926200889053
100
AcDbArc
 50
67.457137297771638
 51
117.09980491519323
  0
ARC
  5
477
100
AcDbEntity
  8
0
  6
CONTINUOUS
 62
               7
100
AcDbCircle
 10
-0.0128437245379602
 20
0.0005277232792569
 30
0.0
 40
4.4938926200889053
100
AcDbArc
 50
242.90019508480597
 51
292.54286270222752
  0
ARC
  5
478
100
AcDbEntity
  8
0
  6
CONTINUOUS
 62
               7
100
AcDbCircle
 10
-0.0006607090973474
 20
0.0011453611371053
 30
0.0
 40
4.4943019071232904
100
AcDbArc
 50
182.6927859000138
 51
237.27975500699981
  0
ARC
  5
479
100
AcDbEntity
  8
0
  6
CONTINUOUS
 62
               7
100
AcDbCircle
 10
0.0004626776754582
 20
-0.0004803844606698
 30
0.0
 40
2.9924488063564922
100
AcDbArc
 50
189.60917893849674
 51
258.22897268818087
  0
ARC
  5
47A
100
AcDbEntity
  8
0
  6
CONTINUOUS
 62
               7
100
AcDbCircle
 10
0.0
 20
0.0
 30
0.0
 40
4.0
100
AcDbArc
 50
89.999999999999801
 51
269.99999999999937
  0
ARC
  5
47B
100
AcDbEntity
  8
0
  6
CONTINUOUS
 62
               7
100
AcDbCircle
 10
0.0004626776754582
 20
0.0004803844606698
 30
0.0
 40
2.9924488063564922
100
AcDbArc
 50
101.77102731181832
 51
170.39082106150246
  0
LINE
  5
47C
100
AcDbEntity
  8
0
  6
CONTINUOUS
 62
               7
100
AcDbLine
 10
5.4199999999999999
 20
-0.5
 30
0.0
 11
5.4199999999999999
 21
-4.5
 31
0.0
  0
LINE
  5
47D
100
AcDbEntity
  8
0
  6
CONTINUOUS
 62
               7
100
AcDbLine
 10
-3.96
 20
0.5
 30
0.0
 11
6.0
 21
0.5
 31
0.0
  0
LINE
  5
47E
100
AcDbEntity
  8
0
  6
CONTINUOUS
 62
               7
100
AcDbLine
 10
-3.96
 20
-0.5
 30
0.0
 11
6.0
 21
-0.5
 31
0.0
  0
LINE
  5
47F
100
AcDbEntity
  8
0
  6
CONTINUOUS
 62
               7
100
AcDbLine
 10
0.0
 20
4.0
 30
0.0
 11
-2.2999999999999998
 21
4.0
 31
0.0
  0
LINE
  5
480
100
AcDbEntity
  8
0
  6
CONTINUOUS
 62
               7
100
AcDbLine
 10
-2.2999999999999998
 20
-4.0
 30
0.0
 11
0.0
 21
-4.0
 31
0.0
  0
LINE
  5
481
100
AcDbEntity
  8
0
  6
CONTINUOUS
 62
               7
100
AcDbLine
 10
-4.6100000000000003
 20
0.0
 30
0.0
 11
-2.2999999999999998
 21
-4.0
 31
0.0
  0
LINE
  5
482
100
AcDbEntity
  8
0
  6
CONTINUOUS
 62
               7
100
AcDbLine
 10
-2.2999999999999998
 20
4.0
 30
0.0
 11
-4.6100000000000003
 21
0.0
 31
0.0
  0
LINE
  5
483
100
AcDbEntity
  8
0
  6
CONTINUOUS
 62
               7
100
AcDbLine
 10
-0.61
 20
-2.9300000000000002
 30
0.0
 11
0.0
 21
-4.0
 31
0.0
  0
LINE
  5
484
100
AcDbEntity
  8
0
  6
CONTINUOUS
 62
               7
100
AcDbLine
 10
-0.61
 20
-2.9300000000000002
 30
0.0
 11
-0.1
 21
-0.5
 31
0.0
  0
LINE
  5
485
100
AcDbEntity
  8
0
  6
CONTINUOUS
 62
               7
100
AcDbLine
 10
0.0
 20
-4.0
 30
0.0
 11
0.0
 21
-0.5
 31
0.0
  0
LINE
  5
486
100
AcDbEntity
  8
0
  6
CONTINUOUS
 62
               7
100
AcDbLine
 10
0.0
 20
4.0
 30
0.0
 11
0.0
 21
0.5
 31
0.0
  0
LINE
  5
487
100
AcDbEntity
  8
0
  6
CONTINUOUS
 62
               7
100
AcDbLine
 10
-0.61
 20
2.9300000000000002
 30
0.0
 11
-0.1
 21
0.5
 31
0.0
  0
LINE
  5
488
100
AcDbEntity
  8
0
  6
CONTINUOUS
 62
               7
100
AcDbLine
 10
-0.61
 20
2.9300000000000002
 30
0.0
 11
0.0
 21
4.0
 31
0.0
  0
LINE
  5
489
100
AcDbEntity
  8
0
  6
CENTER
 62
               2
100
AcDbLine
 10
0.0
 20
5.6699999999999999
 30
0.0
 11
0.0
 21
-5.0899999999999999
 31
0.0
  0
LINE
  5
48A
100
AcDbEntity
  8
0
  6
CONTINUOUS
 62
               7
100
AcDbLine
 10
0.0
 20
-4.0
 30
0.0
 11
5.4199999999999999
 21
-4.5
 31
0.0
  0
LINE
  5
48B
100
AcDbEntity
  8
0
  6
CONTINUOUS
 62
               7
100
AcDbLine
 10
0.0
 20
4.0
 30
0.0
 11
5.4199999999999999
 21
4.5
 31
0.0
  0
LINE
  5
48C
100
AcDbEntity
  8
0
  6
CENTER
 62
               2
100
AcDbLine
 10
-5.8200000000000003
 20
0.0
 30
0.0
 11
17.98
 21
0.0
 31
0.0
  0
LINE
  5
48D
100
AcDbEntity
  8
0
  6
CONTINUOUS
 62
               7
100
AcDbLine
 10
5.4199999999999999
 20
4.5
 30
0.0
 11
5.4199999999999999
 21
0.5
 31
0.0
  0
LINE
  5
48E
100
AcDbEntity
  8
0
  6
CONTINUOUS
 62
               7
100
AcDbLine
 10
6.0
 20
-5.5
 30
0.0
 11
5.4199999999999999
 21
-4.5
 31
0.0
  0
LINE
  5
48F
100
AcDbEntity
  8
0
  6
CONTINUOUS
 62
               7
100
AcDbLine
 10
6.0
 20
5.5
 30
0.0
 11
5.4199999999999999
 21
4.5
 31
0.0
  0
LINE
  5
490
100
AcDbEntity
  8
0
  6
CONTINUOUS
 62
               7
100
AcDbLine
 10
6.0
 20
-5.5
 30
0.0
 11
11.0
 21
-5.5
 31
0.0
  0
LINE
  5
491
100
AcDbEntity
  8
0
  6
CONTINUOUS
 62
               7
100
AcDbLine
 10
11.0
 20
-5.5
 30
0.0
 11
13.0
 21
-5.0
 31
0.0
  0
LINE
  5
492
100
AcDbEntity
  8
0
  6
CONTINUOUS
 62
               7
100
AcDbLine
 10
11.0
 20
5.5
 30
0.0
 11
13.0
 21
5.0
 31
0.0
  0
LINE
  5
493
100
AcDbEntity
  8
0
  6
CONTINUOUS
 62
               7
100
AcDbLine
 10
6.0
 20
5.5
 30
0.0
 11
6.0
 21
-5.5
 31
0.0
  0
LINE
  5
494
100
AcDbEntity
  8
0
  6
CONTINUOUS
 62
               7
100
AcDbLine
 10
11.0
 20
5.5
 30
0.0
 11
11.0
 21
-5.5
 31
0.0
  0
LINE
  5
495
100
AcDbEntity
  8
0
  6
CONTINUOUS
 62
               7
100
AcDbLine
 10
13.0
 20
5.0
 30
0.0
 11
13.0
 21
-5.0
 31
0.0
  0
LINE
  5
496
100
AcDbEntity
  8
0
  6
CONTINUOUS
 62
               7
100
AcDbLine
 10
6.0
 20
5.5
 30
0.0
 11
11.0
 21
5.5
 31
0.0
  0
LINE
  5
497
100
AcDbEntity
  8
0
  6
CONTINUOUS
 62
               7
100
AcDbLine
 10
14.0
 20
-3.5
 30
0.0
 11
14.800000000000001
 21
-3.5
 31
0.0
  0
LINE
  5
498
100
AcDbEntity
  8
0
  6
CONTINUOUS
 62
               7
100
AcDbLine
 10
14.0
 20
3.5
 30
0.0
 11
14.800000000000001
 21
3.5
 31
0.0
  0
LINE
  5
499
100
AcDbEntity
  8
0
  6
CONTINUOUS
 62
               7
100
AcDbLine
 10
13.0
 20
5.0
 30
0.0
 11
14.0
 21
5.0
 31
0.0
  0
LINE
  5
49A
100
AcDbEntity
  8
0
  6
CONTINUOUS
 62
               7
100
AcDbLine
 10
13.0
 20
-5.0
 30
0.0
 11
14.0
 21
-5.0
 31
0.0
  0
LINE
  5
49B
100
AcDbEntity
  8
0
  6
CONTINUOUS
 62
               7
100
AcDbLine
 10
14.0
 20
5.0
 30
0.0
 11
14.0
 21
-5.0
 31
0.0
  0
LINE
  5
49C
100
AcDbEntity
  8
0
  6
CONTINUOUS
 62
               7
100
AcDbLine
 10
14.800000000000001
 20
5.9000000000000004
 30
0.0
 11
16.0
 21
5.9000000000000004
 31
0.0
  0
LINE
  5
49D
100
AcDbEntity
  8
0
  6
CONTINUOUS
 62
               7
100
AcDbLine
 10
14.800000000000001
 20
-5.9000000000000004
 30
0.0
 11
16.0
 21
-5.9000000000000004
 31
0.0
  0
LINE
  5
49E
100
AcDbEntity
  8
0
  6
CONTINUOUS
 62
               7
100
AcDbLine
 10
14.800000000000001
 20
5.9000000000000004
 30
0.0
 11
14.800000000000001
 21
-5.9000000000000004
 31
0.0
  0
LINE
  5
49F
100
AcDbEntity
  8
0
  6
CONTINUOUS
 62
               7
100
AcDbLine
 10
16.0
 20
5.9000000000000004
 30
0.0
 11
16.0
 21
-5.9000000000000004
 31
0.0
  0
ENDBLK
  5
4A0
100
AcDbEntity
  8
0
100
AcDbBlockEnd
  0
BLOCK
  5
4A1
100
AcDbEntity
  8
0
100
AcDbBlockBegin
  2
MS_27
 70
               0
 10
0.0
 20
0.0
 30
0.0
  3
MS_27
  1

  0
ARC
  5
4A2
100
AcDbEntity
  8
0
  6
CONTINUOUS
 62
               7
100
AcDbCircle
 10
-0.0013503846971015
 20
24.003099987075256
 30
0.0
 40
2.9986512176770557
100
AcDbArc
 50
99.572257041884242
 51
180.05923203290408
  0
ARC
  5
4A3
100
AcDbEntity
  8
0
  6
CONTINUOUS
 62
               7
100
AcDbCircle
 10
-0.0010828889577421
 20
23.096597346410519
 30
0.0
 40
4.5011386986886084
100
AcDbArc
 50
96.363879719679517
 51
228.22113538947335
  0
ARC
  5
4A4
100
AcDbEntity
  8
0
  6
CONTINUOUS
 62
               7
100
AcDbCircle
 10
0.0
 20
24.099990844726513
 30
0.0
 40
4.8993926127344487
100
AcDbArc
 50
32.327774534854029
 51
147.6722254651456
  0
ARC
  5
4A5
100
AcDbEntity
  8
0
  6
CONTINUOUS
 62
               7
100
AcDbCircle
 10
0.0010828889577421
 20
23.096597346410519
 30
0.0
 40
4.5011386986886084
100
AcDbArc
 50
311.77886461052543
 51
83.636120280320071
  0
ARC
  5
4A6
100
AcDbEntity
  8
0
  6
CONTINUOUS
 62
               7
100
AcDbCircle
 10
0.0
 20
23.099990844726563
 30
0.0
 40
5.5030194026979888
100
AcDbArc
 50
309.76563967047815
 51
230.23436032952065
  0
ARC
  5
4A7
100
AcDbEntity
  8
0
  6
CONTINUOUS
 62
               7
100
AcDbCircle
 10
2.0
 20
8.0767173767089844
 30
0.0
 40
5.7835336505181019
100
AcDbArc
 50
249.76879080816275
 51
290.23120919183606
  0
ARC
  5
4A8
100
AcDbEntity
  8
0
  6
CONTINUOUS
 62
               7
100
AcDbCircle
 10
-2.0
 20
8.076717376709059
 30
0.0
 40
5.7835336505181711
100
AcDbArc
 50
249.76879080816295
 51
290.23120919183577
  0
ARC
  5
4A9
100
AcDbEntity
  8
0
  6
CONTINUOUS
 62
               7
100
AcDbCircle
 10
-2.0
 20
12.023283004760668
 30
0.0
 40
5.7741512801895514
100
AcDbArc
 50
69.73447550848843
 51
110.26552449151119
  0
ARC
  5
4AA
100
AcDbEntity
  8
0
  6
CONTINUOUS
 62
               7
100
AcDbCircle
 10
2.0
 20
12.023281097412109
 30
0.0
 40
5.7741530694685412
100
AcDbArc
 50
69.734482063994776
 51
110.26551793600483
  0
ARC
  5
4AB
100
AcDbEntity
  8
0
  6
CONTINUOUS
 62
               7
100
AcDbCircle
 10
0.0013503846971015
 20
24.003099987075256
 30
0.0
 40
2.9986512176770557
100
AcDbArc
 50
359.9407679670947
 51
80.42774295811536
  0
LINE
  5
4AC
100
AcDbEntity
  8
0
  6
CONTINUOUS
 62
               7
100
AcDbLine
 10
4.5
 20
0.0
 30
0.0
 11
4.5
 21
0.8
 31
0.0
  0
LINE
  5
4AD
100
AcDbEntity
  8
0
  6
CONTINUOUS
 62
               7
100
AcDbLine
 10
-4.5
 20
0.8
 30
0.0
 11
4.5
 21
0.8
 31
0.0
  0
LINE
  5
4AE
100
AcDbEntity
  8
0
  6
CONTINUOUS
 62
               7
100
AcDbLine
 10
-4.5
 20
0.0
 30
0.0
 11
4.5
 21
0.0
 31
0.0
  0
LINE
  5
4AF
100
AcDbEntity
  8
0
  6
CONTINUOUS
 62
               7
100
AcDbLine
 10
-4.5
 20
0.0
 30
0.0
 11
-4.5
 21
0.8
 31
0.0
  0
LINE
  5
4B0
100
AcDbEntity
  8
0
  6
CONTINUOUS
 62
               7
100
AcDbLine
 10
-3.0
 20
-3.8999999999999999
 30
0.0
 11
-3.0
 21
0.0
 31
0.0
  0
LINE
  5
4B1
100
AcDbEntity
  8
0
  6
CONTINUOUS
 62
               2
100
AcDbLine
 10
-2.4500000000000002
 20
-3.8999999999999999
 30
0.0
 11
-2.4500000000000002
 21
0.0
 31
0.0
  0
LINE
  5
4B2
100
AcDbEntity
  8
0
  6
CONTINUOUS
 62
               7
100
AcDbLine
 10
-3.0
 20
-3.8999999999999999
 30
0.0
 11
3.0
 21
-3.8999999999999999
 31
0.0
  0
LINE
  5
4B3
100
AcDbEntity
  8
0
  6
CONTINUOUS
 62
               2
100
AcDbLine
 10
2.4500000000000002
 20
-3.8999999999999999
 30
0.0
 11
2.4500000000000002
 21
0.0
 31
0.0
  0
LINE
  5
4B4
100
AcDbEntity
  8
0
  6
CONTINUOUS
 62
               7
100
AcDbLine
 10
3.0
 20
-3.8999999999999999
 30
0.0
 11
3.0
 21
0.0
 31
0.0
  0
LINE
  5
4B5
100
AcDbEntity
  8
0
  6
CONTINUOUS
 62
               7
100
AcDbLine
 10
-0.5
 20
19.170000000000002
 30
0.0
 11
-3.0
 21
19.170000000000002
 31
0.0
  0
LINE
  5
4B6
100
AcDbEntity
  8
0
  6
CONTINUOUS
 62
               7
100
AcDbLine
 10
-0.5
 20
18.600000000000001
 30
0.0
 11
-0.5
 21
28.57
 31
0.0
  0
LINE
  5
4B7
100
AcDbEntity
  8
0
  6
CONTINUOUS
 62
               7
100
AcDbLine
 10
0.5
 20
18.600000000000001
 30
0.0
 11
0.5
 21
28.57
 31
0.0
  0
LINE
  5
4B8
100
AcDbEntity
  8
0
  6
CONTINUOUS
 62
               7
100
AcDbLine
 10
0.5
 20
19.170000000000002
 30
0.0
 11
3.0
 21
19.170000000000002
 31
0.0
  0
LINE
  5
4B9
100
AcDbEntity
  8
0
  6
CONTINUOUS
 62
               7
100
AcDbLine
 10
4.0
 20
18.600000000000001
 30
0.0
 11
3.0
 21
19.170000000000002
 31
0.0
  0
LINE
  5
4BA
100
AcDbEntity
  8
0
  6
CONTINUOUS
 62
               7
100
AcDbLine
 10
-4.0
 20
18.600000000000001
 30
0.0
 11
4.0
 21
18.600000000000001
 31
0.0
  0
LINE
  5
4BB
100
AcDbEntity
  8
0
  6
CONTINUOUS
 62
               7
100
AcDbLine
 10
-3.0
 20
19.170000000000002
 30
0.0
 11
-3.0
 21
24.0
 31
0.0
  0
LINE
  5
4BC
100
AcDbEntity
  8
0
  6
CONTINUOUS
 62
               7
100
AcDbLine
 10
3.0
 20
19.170000000000002
 30
0.0
 11
3.0
 21
24.0
 31
0.0
  0
LINE
  5
4BD
100
AcDbEntity
  8
0
  6
CONTINUOUS
 62
               7
100
AcDbLine
 10
-4.0
 20
18.600000000000001
 30
0.0
 11
-3.0
 21
19.170000000000002
 31
0.0
  0
LINE
  5
4BE
100
AcDbEntity
  8
0
  6
CONTINUOUS
 62
               7
100
AcDbLine
 10
-4.0
 20
2.2999999999999998
 30
0.0
 11
4.0
 21
2.2999999999999998
 31
0.0
  0
LINE
  5
4BF
100
AcDbEntity
  8
0
  6
CENTER
 62
               2
100
AcDbLine
 10
-6.4500000000000002
 20
23.100000000000001
 30
0.0
 11
6.3300000000000001
 21
23.100000000000001
 31
0.0
  0
LINE
  5
4C0
100
AcDbEntity
  8
0
  6
CONTINUOUS
 62
               7
100
AcDbLine
 10
0.0
 20
17.440000000000001
 30
0.0
 11
0.0
 21
2.6499999999999999
 31
0.0
  0
LINE
  5
4C1
100
AcDbEntity
  8
0
  6
CONTINUOUS
 62
               7
100
AcDbLine
 10
-4.0
 20
0.8
 30
0.0
 11
-4.0
 21
18.600000000000001
 31
0.0
  0
LINE
  5
4C2
100
AcDbEntity
  8
0
  6
CONTINUOUS
 62
               7
100
AcDbLine
 10
4.0
 20
0.8
 30
0.0
 11
4.0
 21
18.600000000000001
 31
0.0
  0
LINE
  5
4C3
100
AcDbEntity
  8
0
  6
CONTINUOUS
 62
               7
100
AcDbLine
 10
-4.0
 20
17.800000000000001
 30
0.0
 11
4.0
 21
17.800000000000001
 31
0.0
  0
LINE
  5
4C4
100
AcDbEntity
  8
0
  6
CENTER
 62
               2
100
AcDbLine
 10
0.0
 20
-5.7999999999999998
 30
0.0
 11
0.0
 21
30.719999999999999
 31
0.0
  0
ENDBLK
  5
4C5
100
AcDbEntity
  8
0
100
AcDbBlockEnd
  0
BLOCK
  5
4C6
100
AcDbEntity
  8
0
100
AcDbBlockBegin
  2
MS_28
 70
               0
 10
0.0
 20
0.0
 30
0.0
  3
MS_28
  1

  0
ARC
  5
4C7
100
AcDbEntity
  8
0
  6
CONTINUOUS
 62
               7
100
AcDbCircle
 10
0.0
 20
24.100000000000001
 30
0.0
 40
4.9000000000085535
100
AcDbArc
 50
0.0
 51
179.9999999999996
  0
ARC
  5
4C8
100
AcDbEntity
  8
0
  6
CONTINUOUS
 62
               7
100
AcDbCircle
 10
1.9933727856765169
 20
12.024664434513635
 30
0.0
 40
5.7751547220905852
100
AcDbArc
 50
69.668049281965565
 51
86.658399982308751
  0
ARC
  5
4C9
100
AcDbEntity
  8
0
  6
CONTINUOUS
 62
               7
100
AcDbCircle
 10
-0.0000038147030024
 20
23.100000000000001
 30
0.0
 40
5.4994573901209023
100
AcDbArc
 50
318.83370269797513
 51
41.166297302024027
  0
CIRCLE
  5
4CA
100
AcDbEntity
  8
0
  6
CONTINUOUS
 62
               7
100
AcDbCircle
 10
0.0
 20
23.099990844726563
 30
0.0
 40
3.0
  0
ARC
  5
4CB
100
AcDbEntity
  8
0
  6
CONTINUOUS
 62
               7
100
AcDbCircle
 10
0.0
 20
22.100000000000001
 30
0.0
 40
4.9000000000085535
100
AcDbArc
 50
179.9999999999996
 51
0.0
  0
ARC
  5
4CC
100
AcDbEntity
  8
0
  6
CONTINUOUS
 62
               7
100
AcDbCircle
 10
0.0000038147030024
 20
23.100000000000001
 30
0.0
 40
5.4994573901209023
100
AcDbArc
 50
138.83370269797555
 51
221.16629730202365
  0
ARC
  5
4CD
100
AcDbEntity
  8
0
  6
CONTINUOUS
 62
               7
100
AcDbCircle
 10
2.0
 20
8.0767173767101639
 30
0.0
 40
5.7835336505192094
100
AcDbArc
 50
249.76879080816676
 51
290.23120919183202
  0
ARC
  5
4CE
100
AcDbEntity
  8
0
  6
CONTINUOUS
 62
               7
100
AcDbCircle
 10
-2.0
 20
8.0767173767101639
 30
0.0
 40
5.7835336505192094
100
AcDbArc
 50
249.76879080816676
 51
290.23120919183202
  0
ARC
  5
4CF
100
AcDbEntity
  8
0
  6
CONTINUOUS
 62
               7
100
AcDbCircle
 10
-1.9933733283131887
 20
12.024667023665753
 30
0.0
 40
5.7751521057109878
100
AcDbArc
 50
93.341596140576954
 51
110.33195459514792
  0
LINE
  5
4D0
100
AcDbEntity
  8
0
  6
CONTINUOUS
 62
               7
100
AcDbLine
 10
4.5
 20
0.0
 30
0.0
 11
4.5
 21
0.8
 31
0.0
  0
LINE
  5
4D1
100
AcDbEntity
  8
0
  6
CONTINUOUS
 62
               7
100
AcDbLine
 10
-4.5
 20
0.0
 30
0.0
 11
-4.5
 21
0.8
 31
0.0
  0
LINE
  5
4D2
100
AcDbEntity
  8
0
  6
CONTINUOUS
 62
               2
100
AcDbLine
 10
2.4500000000000002
 20
-3.8999999999999999
 30
0.0
 11
2.4500000000000002
 21
0.0
 31
0.0
  0
LINE
  5
4D3
100
AcDbEntity
  8
0
  6
CONTINUOUS
 62
               2
100
AcDbLine
 10
-2.4500000000000002
 20
-3.8999999999999999
 30
0.0
 11
-2.4500000000000002
 21
0.0
 31
0.0
  0
LINE
  5
4D4
100
AcDbEntity
  8
0
  6
CONTINUOUS
 62
               7
100
AcDbLine
 10
3.0
 20
-3.8999999999999999
 30
0.0
 11
3.0
 21
0.0
 31
0.0
  0
LINE
  5
4D5
100
AcDbEntity
  8
0
  6
CONTINUOUS
 62
               7
100
AcDbLine
 10
-3.0
 20
-3.8999999999999999
 30
0.0
 11
-3.0
 21
0.0
 31
0.0
  0
LINE
  5
4D6
100
AcDbEntity
  8
0
  6
CONTINUOUS
 62
               7
100
AcDbLine
 10
-3.0
 20
-3.8999999999999999
 30
0.0
 11
3.0
 21
-3.8999999999999999
 31
0.0
  0
LINE
  5
4D7
100
AcDbEntity
  8
0
  6
CONTINUOUS
 62
               7
100
AcDbLine
 10
4.0
 20
17.800000000000001
 30
0.0
 11
2.3399999999999999
 21
17.800000000000001
 31
0.0
  0
LINE
  5
4D8
100
AcDbEntity
  8
0
  6
CONTINUOUS
 62
               7
100
AcDbLine
 10
4.0
 20
18.600000000000001
 30
0.0
 11
3.4199999999999999
 21
18.600000000000001
 31
0.0
  0
LINE
  5
4D9
100
AcDbEntity
  8
0
  6
CONTINUOUS
 62
               7
100
AcDbLine
 10
4.9000000000000004
 20
24.100000000000001
 30
0.0
 11
4.9000000000000004
 21
22.100000000000001
 31
0.0
  0
LINE
  5
4DA
100
AcDbEntity
  8
0
  6
CONTINUOUS
 62
               7
100
AcDbLine
 10
-4.9000000000000004
 20
24.100000000000001
 30
0.0
 11
-4.9000000000000004
 21
22.100000000000001
 31
0.0
  0
LINE
  5
4DB
100
AcDbEntity
  8
0
  6
CONTINUOUS
 62
               7
100
AcDbLine
 10
4.0
 20
18.600000000000001
 30
0.0
 11
3.6299999999999999
 21
18.809999999999999
 31
0.0
  0
LINE
  5
4DC
100
AcDbEntity
  8
0
  6
CONTINUOUS
 62
               7
100
AcDbLine
 10
-4.0
 20
18.600000000000001
 30
0.0
 11
-3.4199999999999999
 21
18.600000000000001
 31
0.0
  0
LINE
  5
4DD
100
AcDbEntity
  8
0
  6
CONTINUOUS
 62
               7
100
AcDbLine
 10
-4.0
 20
18.600000000000001
 30
0.0
 11
-3.6299999999999999
 21
18.809999999999999
 31
0.0
  0
LINE
  5
4DE
100
AcDbEntity
  8
0
  6
CONTINUOUS
 62
               7
100
AcDbLine
 10
-4.0
 20
2.2999999999999998
 30
0.0
 11
4.0
 21
2.2999999999999998
 31
0.0
  0
LINE
  5
4DF
100
AcDbEntity
  8
0
  6
CONTINUOUS
 62
               7
100
AcDbLine
 10
-4.5
 20
0.0
 30
0.0
 11
4.5
 21
0.0
 31
0.0
  0
LINE
  5
4E0
100
AcDbEntity
  8
0
  6
CONTINUOUS
 62
               7
100
AcDbLine
 10
-4.5
 20
0.8
 30
0.0
 11
4.5
 21
0.8
 31
0.0
  0
LINE
  5
4E1
100
AcDbEntity
  8
0
  6
CENTER
 62
               2
100
AcDbLine
 10
-6.4500000000000002
 20
23.100000000000001
 30
0.0
 11
6.3300000000000001
 21
23.100000000000001
 31
0.0
  0
LINE
  5
4E2
100
AcDbEntity
  8
0
  6
CONTINUOUS
 62
               7
100
AcDbLine
 10
0.0
 20
17.199999999999999
 30
0.0
 11
0.0
 21
2.9399999999999999
 31
0.0
  0
LINE
  5
4E3
100
AcDbEntity
  8
0
  6
CONTINUOUS
 62
               7
100
AcDbLine
 10
-4.0
 20
0.8
 30
0.0
 11
-4.0
 21
18.600000000000001
 31
0.0
  0
LINE
  5
4E4
100
AcDbEntity
  8
0
  6
CONTINUOUS
 62
               7
100
AcDbLine
 10
4.0
 20
0.8
 30
0.0
 11
4.0
 21
18.600000000000001
 31
0.0
  0
LINE
  5
4E5
100
AcDbEntity
  8
0
  6
CONTINUOUS
 62
               7
100
AcDbLine
 10
-4.0
 20
17.800000000000001
 30
0.0
 11
-2.3399999999999999
 21
17.800000000000001
 31
0.0
  0
LINE
  5
4E6
100
AcDbEntity
  8
0
  6
CENTER
 62
               2
100
AcDbLine
 10
0.0
 20
-5.9000000000000004
 30
0.0
 11
0.0
 21
30.719999999999999
 31
0.0
  0
ENDBLK
  5
4E7
100
AcDbEntity
  8
0
100
AcDbBlockEnd
  0
BLOCK
  5
4E8
100
AcDbEntity
  8
0
100
AcDbBlockBegin
  2
MS_29
 70
               0
 10
0.0
 20
0.0
 30
0.0
  3
MS_29
  1

  0
ARC
  5
4E9
100
AcDbEntity
  8
0
  6
CONTINUOUS
 62
               7
100
AcDbCircle
 10
10.61808813119144
 20
25.82
 30
0.0
 40
11.237713093051831
100
AcDbArc
 50
160.88478850850927
 51
199.1152114914899
  0
ARC
  5
4EA
100
AcDbEntity
  8
0
  6
CONTINUOUS
 62
               7
100
AcDbCircle
 10
-0.0012432616488471
 20
26.484777636654453
 30
0.0
 40
3.9987595924637374
100
AcDbArc
 50
94.715876994764145
 51
180.06845584865576
  0
ARC
  5
4EB
100
AcDbEntity
  8
0
  6
CONTINUOUS
 62
               7
100
AcDbCircle
 10
-0.0025307334501841
 20
26.484484582715385
 30
0.0
 40
2.9974726212916147
100
AcDbArc
 50
95.119402935351431
 51
180.08572146964758
  0
ARC
  5
4EC
100
AcDbEntity
  8
0
  6
CONTINUOUS
 62
               7
100
AcDbCircle
 10
0.0
 20
13.55341911315918
 30
0.0
 40
9.557657031516408
100
AcDbArc
 50
252.46255175832189
 51
287.53744824167688
  0
ARC
  5
4ED
100
AcDbEntity
  8
0
  6
CONTINUOUS
 62
               7
100
AcDbCircle
 10
-4.3107480387151904
 20
6.561691106395056
 30
0.0
 40
2.5617634478219951
100
AcDbArc
 50
269.56941125338386
 51
303.68300774747473
  0
ARC
  5
4EE
100
AcDbEntity
  8
0
  6
CONTINUOUS
 62
               7
100
AcDbCircle
 10
-4.3242759327293161
 20
17.642369674704046
 30
0.0
 40
2.5576367306205952
100
AcDbArc
 50
55.890123645897653
 51
90.128229770129849
  0
ARC
  5
4EF
100
AcDbEntity
  8
0
  6
CONTINUOUS
 62
               7
100
AcDbCircle
 10
4.3107480387151904
 20
6.561691106395056
 30
0.0
 40
2.5617634478219951
100
AcDbArc
 50
236.31699225252405
 51
270.43058874661494
  0
ARC
  5
4F0
100
AcDbEntity
  8
0
  6
CONTINUOUS
 62
               7
100
AcDbCircle
 10
0.0
 20
10.646577835083008
 30
0.0
 40
9.5481252145487687
100
AcDbArc
 50
72.444475313364933
 51
107.55552468663467
  0
ARC
  5
4F1
100
AcDbEntity
  8
0
  6
CONTINUOUS
 62
               7
100
AcDbCircle
 10
4.3242759327293161
 20
17.642369674704046
 30
0.0
 40
2.5576367306205952
100
AcDbArc
 50
89.871770229869753
 51
124.10987635410196
  0
LINE
  5
4F2
100
AcDbEntity
  8
0
  6
CONTINUOUS
 62
               7
100
AcDbLine
 10
-4.0
 20
21.0
 30
0.0
 11
-3.0
 21
21.57
 31
0.0
  0
LINE
  5
4F3
100
AcDbEntity
  8
0
  6
CONTINUOUS
 62
               7
100
AcDbLine
 10
0.0
 20
29.5
 30
0.0
 11
0.0
 21
22.140000000000001
 31
0.0
  0
LINE
  5
4F4
100
AcDbEntity
  8
0
  6
CONTINUOUS
 62
               7
100
AcDbLine
 10
0.0
 20
22.140000000000001
 30
0.0
 11
3.0
 21
21.57
 31
0.0
  0
LINE
  5
4F5
100
AcDbEntity
  8
0
  6
CONTINUOUS
 62
               7
100
AcDbLine
 10
3.73
 20
21.149999999999999
 30
0.0
 11
5.4199999999999999
 21
21.0
 31
0.0
  0
LINE
  5
4F6
100
AcDbEntity
  8
0
  6
CONTINUOUS
 62
               7
100
AcDbLine
 10
-0.27
 20
29.469999999999999
 30
0.0
 11
5.4199999999999999
 21
30.0
 31
0.0
  0
LINE
  5
4F7
100
AcDbEntity
  8
0
  6
CONTINUOUS
 62
               7
100
AcDbLine
 10
6.0
 20
31.0
 30
0.0
 11
5.4199999999999999
 21
30.0
 31
0.0
  0
LINE
  5
4F8
100
AcDbEntity
  8
0
  6
CONTINUOUS
 62
               7
100
AcDbLine
 10
6.0
 20
20.0
 30
0.0
 11
5.4199999999999999
 21
21.0
 31
0.0
  0
LINE
  5
4F9
100
AcDbEntity
  8
0
  6
CONTINUOUS
 62
               7
100
AcDbLine
 10
5.4199999999999999
 20
30.0
 30
0.0
 11
5.4199999999999999
 21
21.0
 31
0.0
  0
LINE
  5
4FA
100
AcDbEntity
  8
0
  6
CONTINUOUS
 62
               7
100
AcDbLine
 10
6.0
 20
31.0
 30
0.0
 11
6.0
 21
20.0
 31
0.0
  0
LINE
  5
4FB
100
AcDbEntity
  8
0
  6
CONTINUOUS
 62
               7
100
AcDbLine
 10
6.0
 20
20.0
 30
0.0
 11
11.0
 21
20.0
 31
0.0
  0
LINE
  5
4FC
100
AcDbEntity
  8
0
  6
CONTINUOUS
 62
               7
100
AcDbLine
 10
6.0
 20
31.0
 30
0.0
 11
11.0
 21
31.0
 31
0.0
  0
LINE
  5
4FD
100
AcDbEntity
  8
0
  6
CONTINUOUS
 62
               7
100
AcDbLine
 10
11.0
 20
31.0
 30
0.0
 11
11.0
 21
20.0
 31
0.0
  0
LINE
  5
4FE
100
AcDbEntity
  8
0
  6
CONTINUOUS
 62
               7
100
AcDbLine
 10
11.0
 20
31.0
 30
0.0
 11
13.0
 21
30.5
 31
0.0
  0
LINE
  5
4FF
100
AcDbEntity
  8
0
  6
CONTINUOUS
 62
               7
100
AcDbLine
 10
11.0
 20
20.0
 30
0.0
 11
13.0
 21
20.5
 31
0.0
  0
LINE
  5
500
100
AcDbEntity
  8
0
  6
CONTINUOUS
 62
               7
100
AcDbLine
 10
13.0
 20
30.5
 30
0.0
 11
13.0
 21
20.5
 31
0.0
  0
LINE
  5
501
100
AcDbEntity
  8
0
  6
CONTINUOUS
 62
               7
100
AcDbLine
 10
13.0
 20
20.5
 30
0.0
 11
14.0
 21
20.5
 31
0.0
  0
LINE
  5
502
100
AcDbEntity
  8
0
  6
CONTINUOUS
 62
               7
100
AcDbLine
 10
13.0
 20
30.5
 30
0.0
 11
14.0
 21
30.5
 31
0.0
  0
LINE
  5
503
100
AcDbEntity
  8
0
  6
CONTINUOUS
 62
               7
100
AcDbLine
 10
14.0
 20
30.5
 30
0.0
 11
14.0
 21
20.5
 31
0.0
  0
LINE
  5
504
100
AcDbEntity
  8
0
  6
CONTINUOUS
 62
               7
100
AcDbLine
 10
14.0
 20
29.0
 30
0.0
 11
14.800000000000001
 21
29.0
 31
0.0
  0
LINE
  5
505
100
AcDbEntity
  8
0
  6
CONTINUOUS
 62
               7
100
AcDbLine
 10
14.0
 20
22.0
 30
0.0
 11
14.800000000000001
 21
22.0
 31
0.0
  0
LINE
  5
506
100
AcDbEntity
  8
0
  6
CONTINUOUS
 62
               7
100
AcDbLine
 10
14.800000000000001
 20
19.600000000000001
 30
0.0
 11
16.0
 21
19.600000000000001
 31
0.0
  0
LINE
  5
507
100
AcDbEntity
  8
0
  6
CONTINUOUS
 62
               7
100
AcDbLine
 10
14.800000000000001
 20
31.399999999999999
 30
0.0
 11
14.800000000000001
 21
19.600000000000001
 31
0.0
  0
LINE
  5
508
100
AcDbEntity
  8
0
  6
CONTINUOUS
 62
               7
100
AcDbLine
 10
16.0
 20
31.399999999999999
 30
0.0
 11
16.0
 21
19.600000000000001
 31
0.0
  0
LINE
  5
509
100
AcDbEntity
  8
0
  6
CONTINUOUS
 62
               7
100
AcDbLine
 10
14.800000000000001
 20
31.399999999999999
 30
0.0
 11
16.0
 21
31.399999999999999
 31
0.0
  0
LINE
  5
50A
100
AcDbEntity
  8
0
  6
CONTINUOUS
 62
               7
100
AcDbLine
 10
4.0
 20
21.0
 30
0.0
 11
3.0
 21
21.57
 31
0.0
  0
LINE
  5
50B
100
AcDbEntity
  8
0
  6
CONTINUOUS
 62
               7
100
AcDbLine
 10
-0.33
 20
30.469999999999999
 30
0.0
 11
6.0
 21
31.0
 31
0.0
  0
LINE
  5
50C
100
AcDbEntity
  8
0
  6
CONTINUOUS
 62
               7
100
AcDbLine
 10
-4.0
 20
21.0
 30
0.0
 11
4.0
 21
21.0
 31
0.0
  0
LINE
  5
50D
100
AcDbEntity
  8
0
  6
CONTINUOUS
 62
               7
100
AcDbLine
 10
-3.0
 20
21.57
 30
0.0
 11
3.0
 21
21.57
 31
0.0
  0
LINE
  5
50E
100
AcDbEntity
  8
0
  6
CONTINUOUS
 62
               7
100
AcDbLine
 10
-3.0
 20
21.57
 30
0.0
 11
-3.0
 21
26.48
 31
0.0
  0
LINE
  5
50F
100
AcDbEntity
  8
0
  6
CONTINUOUS
 62
               7
100
AcDbLine
 10
4.0
 20
21.0
 30
0.0
 11
4.0
 21
20.199999999999999
 31
0.0
  0
LINE
  5
510
100
AcDbEntity
  8
0
  6
CONTINUOUS
 62
               7
100
AcDbLine
 10
-4.0
 20
26.48
 30
0.0
 11
-4.0
 21
20.199999999999999
 31
0.0
  0
LINE
  5
511
100
AcDbEntity
  8
0
  6
CENTER
 62
               2
100
AcDbLine
 10
-5.7999999999999998
 20
25.5
 30
0.0
 11
18.0
 21
25.5
 31
0.0
  0
LINE
  5
512
100
AcDbEntity
  8
0
  6
CONTINUOUS
 62
               7
100
AcDbLine
 10
-4.7300000000000004
 20
-4.0
 30
0.0
 11
4.7300000000000004
 21
-4.0
 31
0.0
  0
LINE
  5
513
100
AcDbEntity
  8
0
  6
CONTINUOUS
 62
               2
100
AcDbLine
 10
4.1500000000000004
 20
-4.0
 30
0.0
 11
4.4000000000000004
 21
4.0
 31
0.0
  0
LINE
  5
514
100
AcDbEntity
  8
0
  6
CONTINUOUS
 62
               7
100
AcDbLine
 10
4.7300000000000004
 20
-4.0
 30
0.0
 11
4.9900000000000002
 21
4.0
 31
0.0
  0
LINE
  5
515
100
AcDbEntity
  8
0
  6
CONTINUOUS
 62
               7
100
AcDbLine
 10
-4.7300000000000004
 20
-4.0
 30
0.0
 11
-4.9900000000000002
 21
4.0
 31
0.0
  0
LINE
  5
516
100
AcDbEntity
  8
0
  6
CONTINUOUS
 62
               2
100
AcDbLine
 10
-4.1500000000000004
 20
-4.0
 30
0.0
 11
-4.4000000000000004
 21
4.0
 31
0.0
  0
LINE
  5
517
100
AcDbEntity
  8
0
  6
CENTER
 62
               2
100
AcDbLine
 10
0.0
 20
-7.29
 30
0.0
 11
0.0
 21
33.030000000000001
 31
0.0
  0
LINE
  5
518
100
AcDbEntity
  8
0
  6
CONTINUOUS
 62
               7
100
AcDbLine
 10
-5.7699999999999996
 20
4.4400000000000004
 30
0.0
 11
-5.7699999999999996
 21
19.75
 31
0.0
  0
LINE
  5
519
100
AcDbEntity
  8
0
  6
CONTINUOUS
 62
               7
100
AcDbLine
 10
-5.7699999999999996
 20
4.4400000000000004
 30
0.0
 11
-5.0
 21
4.0
 31
0.0
  0
LINE
  5
51A
100
AcDbEntity
  8
0
  6
CONTINUOUS
 62
               7
100
AcDbLine
 10
-5.7699999999999996
 20
19.75
 30
0.0
 11
-5.0
 21
20.199999999999999
 31
0.0
  0
LINE
  5
51B
100
AcDbEntity
  8
0
  6
CONTINUOUS
 62
               7
100
AcDbLine
 10
5.7699999999999996
 20
4.4400000000000004
 30
0.0
 11
5.0
 21
4.0
 31
0.0
  0
LINE
  5
51C
100
AcDbEntity
  8
0
  6
CONTINUOUS
 62
               7
100
AcDbLine
 10
-2.8799999999999999
 20
4.4400000000000004
 30
0.0
 11
-2.8799999999999999
 21
19.75
 31
0.0
  0
LINE
  5
51D
100
AcDbEntity
  8
0
  6
CONTINUOUS
 62
               7
100
AcDbLine
 10
5.7699999999999996
 20
19.75
 30
0.0
 11
5.0
 21
20.199999999999999
 31
0.0
  0
LINE
  5
51E
100
AcDbEntity
  8
0
  6
CONTINUOUS
 62
               7
100
AcDbLine
 10
2.8799999999999999
 20
4.4400000000000004
 30
0.0
 11
2.8799999999999999
 21
19.75
 31
0.0
  0
LINE
  5
51F
100
AcDbEntity
  8
0
  6
CONTINUOUS
 62
               7
100
AcDbLine
 10
5.7699999999999996
 20
4.4400000000000004
 30
0.0
 11
5.7699999999999996
 21
19.75
 31
0.0
  0
LINE
  5
520
100
AcDbEntity
  8
0
  6
CONTINUOUS
 62
               7
100
AcDbLine
 10
-5.0
 20
20.199999999999999
 30
0.0
 11
5.0
 21
20.199999999999999
 31
0.0
  0
LINE
  5
521
100
AcDbEntity
  8
0
  6
CONTINUOUS
 62
               7
100
AcDbLine
 10
-5.0
 20
4.0
 30
0.0
 11
5.0
 21
4.0
 31
0.0
  0
ENDBLK
  5
522
100
AcDbEntity
  8
0
100
AcDbBlockEnd
  0
BLOCK
  5
523
100
AcDbEntity
  8
0
100
AcDbBlockBegin
  2
MS_30
 70
               0
 10
0.0
 20
0.0
 30
0.0
  3
MS_30
  1

  0
ARC
  5
524
100
AcDbEntity
  8
0
  6
CONTINUOUS
 62
               7
100
AcDbCircle
 10
0.0004626776754582
 20
-0.0004803844606698
 30
0.0
 40
2.9924488063564922
100
AcDbArc
 50
189.60917893849674
 51
258.22897268818087
  0
ARC
  5
525
100
AcDbEntity
  8
0
  6
CONTINUOUS
 62
               7
100
AcDbCircle
 10
0.0
 20
0.0
 30
0.0
 40
4.0
100
AcDbArc
 50
89.999999999999801
 51
269.99999999999937
  0
ARC
  5
526
100
AcDbEntity
  8
0
  6
CONTINUOUS
 62
               7
100
AcDbCircle
 10
0.0004626776754582
 20
0.0004803844606698
 30
0.0
 40
2.9924488063564922
100
AcDbArc
 50
101.77102731181832
 51
170.39082106150246
  0
ARC
  5
527
100
AcDbEntity
  8
0
  6
CONTINUOUS
 62
               7
100
AcDbCircle
 10
0.0
 20
0.0
 30
0.0
 40
4.9947172092121495
100
AcDbArc
 50
58.091893064346721
 51
301.90810693565243
  0
LINE
  5
528
100
AcDbEntity
  8
0
  6
CONTINUOUS
 62
               7
100
AcDbLine
 10
5.4199999999999999
 20
-0.5
 30
0.0
 11
5.4199999999999999
 21
-4.5
 31
0.0
  0
LINE
  5
529
100
AcDbEntity
  8
0
  6
CONTINUOUS
 62
               7
100
AcDbLine
 10
-3.96
 20
0.5
 30
0.0
 11
6.0
 21
0.5
 31
0.0
  0
LINE
  5
52A
100
AcDbEntity
  8
0
  6
CONTINUOUS
 62
               7
100
AcDbLine
 10
-3.96
 20
-0.5
 30
0.0
 11
6.0
 21
-0.5
 31
0.0
  0
LINE
  5
52B
100
AcDbEntity
  8
0
  6
CONTINUOUS
 62
               7
100
AcDbLine
 10
-0.61
 20
-2.9300000000000002
 30
0.0
 11
0.0
 21
-4.0
 31
0.0
  0
LINE
  5
52C
100
AcDbEntity
  8
0
  6
CONTINUOUS
 62
               7
100
AcDbLine
 10
-0.61
 20
-2.9300000000000002
 30
0.0
 11
-0.1
 21
-0.5
 31
0.0
  0
LINE
  5
52D
100
AcDbEntity
  8
0
  6
CONTINUOUS
 62
               7
100
AcDbLine
 10
0.0
 20
-4.0
 30
0.0
 11
0.0
 21
-0.5
 31
0.0
  0
LINE
  5
52E
100
AcDbEntity
  8
0
  6
CONTINUOUS
 62
               7
100
AcDbLine
 10
0.0
 20
4.0
 30
0.0
 11
0.0
 21
0.5
 31
0.0
  0
LINE
  5
52F
100
AcDbEntity
  8
0
  6
CONTINUOUS
 62
               7
100
AcDbLine
 10
-0.61
 20
2.9300000000000002
 30
0.0
 11
-0.1
 21
0.5
 31
0.0
  0
LINE
  5
530
100
AcDbEntity
  8
0
  6
CONTINUOUS
 62
               7
100
AcDbLine
 10
-0.61
 20
2.9300000000000002
 30
0.0
 11
0.0
 21
4.0
 31
0.0
  0
LINE
  5
531
100
AcDbEntity
  8
0
  6
CONTINUOUS
 62
               7
100
AcDbLine
 10
0.0
 20
-4.0
 30
0.0
 11
5.4199999999999999
 21
-4.5
 31
0.0
  0
LINE
  5
532
100
AcDbEntity
  8
0
  6
CONTINUOUS
 62
               7
100
AcDbLine
 10
0.0
 20
4.0
 30
0.0
 11
5.4199999999999999
 21
4.5
 31
0.0
  0
LINE
  5
533
100
AcDbEntity
  8
0
  6
CONTINUOUS
 62
               7
100
AcDbLine
 10
5.4199999999999999
 20
4.5
 30
0.0
 11
5.4199999999999999
 21
0.5
 31
0.0
  0
LINE
  5
534
100
AcDbEntity
  8
0
  6
CONTINUOUS
 62
               7
100
AcDbLine
 10
6.0
 20
-5.5
 30
0.0
 11
5.4199999999999999
 21
-4.5
 31
0.0
  0
LINE
  5
535
100
AcDbEntity
  8
0
  6
CONTINUOUS
 62
               7
100
AcDbLine
 10
6.0
 20
5.5
 30
0.0
 11
5.4199999999999999
 21
4.5
 31
0.0
  0
LINE
  5
536
100
AcDbEntity
  8
0
  6
CONTINUOUS
 62
               7
100
AcDbLine
 10
6.0
 20
-5.5
 30
0.0
 11
11.0
 21
-5.5
 31
0.0
  0
LINE
  5
537
100
AcDbEntity
  8
0
  6
CONTINUOUS
 62
               7
100
AcDbLine
 10
11.0
 20
-5.5
 30
0.0
 11
13.0
 21
-5.0
 31
0.0
  0
LINE
  5
538
100
AcDbEntity
  8
0
  6
CONTINUOUS
 62
               7
100
AcDbLine
 10
11.0
 20
5.5
 30
0.0
 11
13.0
 21
5.0
 31
0.0
  0
LINE
  5
539
100
AcDbEntity
  8
0
  6
CONTINUOUS
 62
               7
100
AcDbLine
 10
6.0
 20
5.5
 30
0.0
 11
6.0
 21
-5.5
 31
0.0
  0
LINE
  5
53A
100
AcDbEntity
  8
0
  6
CONTINUOUS
 62
               7
100
AcDbLine
 10
11.0
 20
5.5
 30
0.0
 11
11.0
 21
-5.5
 31
0.0
  0
LINE
  5
53B
100
AcDbEntity
  8
0
  6
CONTINUOUS
 62
               7
100
AcDbLine
 10
13.0
 20
5.0
 30
0.0
 11
13.0
 21
-5.0
 31
0.0
  0
LINE
  5
53C
100
AcDbEntity
  8
0
  6
CONTINUOUS
 62
               7
100
AcDbLine
 10
6.0
 20
5.5
 30
0.0
 11
11.0
 21
5.5
 31
0.0
  0
LINE
  5
53D
100
AcDbEntity
  8
0
  6
CONTINUOUS
 62
               7
100
AcDbLine
 10
14.0
 20
-3.5
 30
0.0
 11
14.800000000000001
 21
-3.5
 31
0.0
  0
LINE
  5
53E
100
AcDbEntity
  8
0
  6
CONTINUOUS
 62
               7
100
AcDbLine
 10
14.0
 20
3.5
 30
0.0
 11
14.800000000000001
 21
3.5
 31
0.0
  0
LINE
  5
53F
100
AcDbEntity
  8
0
  6
CONTINUOUS
 62
               7
100
AcDbLine
 10
13.0
 20
5.0
 30
0.0
 11
14.0
 21
5.0
 31
0.0
  0
LINE
  5
540
100
AcDbEntity
  8
0
  6
CONTINUOUS
 62
               7
100
AcDbLine
 10
13.0
 20
-5.0
 30
0.0
 11
14.0
 21
-5.0
 31
0.0
  0
LINE
  5
541
100
AcDbEntity
  8
0
  6
CONTINUOUS
 62
               7
100
AcDbLine
 10
14.0
 20
5.0
 30
0.0
 11
14.0
 21
-5.0
 31
0.0
  0
LINE
  5
542
100
AcDbEntity
  8
0
  6
CONTINUOUS
 62
               7
100
AcDbLine
 10
14.800000000000001
 20
5.9000000000000004
 30
0.0
 11
16.0
 21
5.9000000000000004
 31
0.0
  0
LINE
  5
543
100
AcDbEntity
  8
0
  6
CONTINUOUS
 62
               7
100
AcDbLine
 10
14.800000000000001
 20
-5.9000000000000004
 30
0.0
 11
16.0
 21
-5.9000000000000004
 31
0.0
  0
LINE
  5
544
100
AcDbEntity
  8
0
  6
CONTINUOUS
 62
               7
100
AcDbLine
 10
14.800000000000001
 20
5.9000000000000004
 30
0.0
 11
14.800000000000001
 21
-5.9000000000000004
 31
0.0
  0
LINE
  5
545
100
AcDbEntity
  8
0
  6
CONTINUOUS
 62
               7
100
AcDbLine
 10
16.0
 20
5.9000000000000004
 30
0.0
 11
16.0
 21
-5.9000000000000004
 31
0.0
  0
LINE
  5
546
100
AcDbEntity
  8
0
  6
CONTINUOUS
 62
               7
100
AcDbLine
 10
3.2799999999999998
 20
4.2999999999999998
 30
0.0
 11
2.8799999999999999
 21
5.0
 31
0.0
  0
LINE
  5
547
100
AcDbEntity
  8
0
  6
CONTINUOUS
 62
               7
100
AcDbLine
 10
2.8799999999999999
 20
5.0
 30
0.0
 11
-2.8799999999999999
 21
5.0
 31
0.0
  0
LINE
  5
548
100
AcDbEntity
  8
0
  6
CONTINUOUS
 62
               7
100
AcDbLine
 10
-2.8799999999999999
 20
5.0
 30
0.0
 11
-5.7699999999999996
 21
0.0
 31
0.0
  0
LINE
  5
549
100
AcDbEntity
  8
0
  6
CONTINUOUS
 62
               7
100
AcDbLine
 10
-5.7699999999999996
 20
0.0
 30
0.0
 11
-2.8799999999999999
 21
-5.0
 31
0.0
  0
LINE
  5
54A
100
AcDbEntity
  8
0
  6
CONTINUOUS
 62
               7
100
AcDbLine
 10
-2.8799999999999999
 20
-5.0
 30
0.0
 11
2.8799999999999999
 21
-5.0
 31
0.0
  0
LINE
  5
54B
100
AcDbEntity
  8
0
  6
CONTINUOUS
 62
               7
100
AcDbLine
 10
2.8799999999999999
 20
-5.0
 30
0.0
 11
3.2799999999999998
 21
-4.2999999999999998
 31
0.0
  0
LINE
  5
54C
100
AcDbEntity
  8
0
  6
CENTER
 62
               2
100
AcDbLine
 10
0.0
 20
6.1799999999999997
 30
0.0
 11
0.0
 21
-6.0899999999999999
 31
0.0
  0
LINE
  5
54D
100
AcDbEntity
  8
0
  6
CENTER
 62
               2
100
AcDbLine
 10
-7.25
 20
0.0
 30
0.0
 11
17.379999999999999
 21
0.0
 31
0.0
  0
ENDBLK
  5
54E
100
AcDbEntity
  8
0
100
AcDbBlockEnd
  0
BLOCK
  5
54F
100
AcDbEntity
  8
0
100
AcDbBlockBegin
  2
MS_31
 70
               0
 10
0.0
 20
0.0
 30
0.0
  3
MS_31
  1

  0
ARC
  5
550
100
AcDbEntity
  8
0
  6
CONTINUOUS
 62
               7
100
AcDbCircle
 10
0.0
 20
26.499984741210938
 30
0.0
 40
4.8993958766655625
100
AcDbArc
 50
32.32783484887122
 51
147.67216515112838
  0
ARC
  5
551
100
AcDbEntity
  8
0
  6
CONTINUOUS
 62
               7
100
AcDbCircle
 10
0.0010811222673883
 20
25.496596782333139
 30
0.0
 40
4.5011394551146928
100
AcDbArc
 50
311.77888616458205
 51
83.636098726263526
  0
ARC
  5
552
100
AcDbEntity
  8
0
  6
CONTINUOUS
 62
               7
100
AcDbCircle
 10
0.0
 20
25.499984741210937
 30
0.0
 40
5.5030147111267445
100
AcDbArc
 50
309.76568031889525
 51
230.2343196811035
  0
ARC
  5
553
100
AcDbEntity
  8
0
  6
CONTINUOUS
 62
               7
100
AcDbCircle
 10
0.0013473778525146
 20
26.403097447510568
 30
0.0
 40
2.9986542218957277
100
AcDbArc
 50
359.94081655034279
 51
80.427694374867301
  0
ARC
  5
554
100
AcDbEntity
  8
0
  6
CONTINUOUS
 62
               7
100
AcDbCircle
 10
2.5
 20
12.979087829588899
 30
0.0
 40
7.2177040407196786
100
AcDbArc
 50
69.734519299197856
 51
110.26548070080175
  0
ARC
  5
555
100
AcDbEntity
  8
0
  6
CONTINUOUS
 62
               7
100
AcDbCircle
 10
-2.5
 20
12.979087829589844
 30
0.0
 40
7.2177040407187913
100
AcDbArc
 50
69.73451929919527
 51
110.26548070080435
  0
ARC
  5
556
100
AcDbEntity
  8
0
  6
CONTINUOUS
 62
               7
100
AcDbCircle
 10
-2.5
 20
11.220914840698242
 30
0.0
 40
7.2270883540193189
100
AcDbArc
 50
249.76198661224015
 51
290.23801338775866
  0
ARC
  5
557
100
AcDbEntity
  8
0
  6
CONTINUOUS
 62
               7
100
AcDbCircle
 10
2.5
 20
11.220911026001922
 30
0.0
 40
7.2270847748282581
100
AcDbArc
 50
249.76197615068858
 51
290.2380238493102
  0
ARC
  5
558
100
AcDbEntity
  8
0
  6
CONTINUOUS
 62
               7
100
AcDbCircle
 10
-0.0013473778525146
 20
26.403097447510568
 30
0.0
 40
2.9986542218957277
100
AcDbArc
 50
99.57230562513233
 51
180.05918344965599
  0
ARC
  5
559
100
AcDbEntity
  8
0
  6
CONTINUOUS
 62
               7
100
AcDbCircle
 10
-0.0010811222673883
 20
25.496596782333139
 30
0.0
 40
4.5011394551146928
100
AcDbArc
 50
96.363901273736076
 51
228.22111383541676
  0
LINE
  5
55A
100
AcDbEntity
  8
0
  6
CONTINUOUS
 62
               7
100
AcDbLine
 10
-0.5
 20
21.57
 30
0.0
 11
-3.0
 21
21.57
 31
0.0
  0
LINE
  5
55B
100
AcDbEntity
  8
0
  6
CONTINUOUS
 62
               7
100
AcDbLine
 10
0.5
 20
21.57
 30
0.0
 11
3.0
 21
21.57
 31
0.0
  0
LINE
  5
55C
100
AcDbEntity
  8
0
  6
CONTINUOUS
 62
               7
100
AcDbLine
 10
4.0
 20
21.0
 30
0.0
 11
3.0
 21
21.57
 31
0.0
  0
LINE
  5
55D
100
AcDbEntity
  8
0
  6
CONTINUOUS
 62
               7
100
AcDbLine
 10
-4.0
 20
21.0
 30
0.0
 11
-3.0
 21
21.57
 31
0.0
  0
LINE
  5
55E
100
AcDbEntity
  8
0
  6
CONTINUOUS
 62
               7
100
AcDbLine
 10
-4.0
 20
21.0
 30
0.0
 11
4.0
 21
21.0
 31
0.0
  0
LINE
  5
55F
100
AcDbEntity
  8
0
  6
CONTINUOUS
 62
               7
100
AcDbLine
 10
-4.0
 20
20.199999999999999
 30
0.0
 11
-4.0
 21
21.0
 31
0.0
  0
LINE
  5
560
100
AcDbEntity
  8
0
  6
CONTINUOUS
 62
               7
100
AcDbLine
 10
4.0
 20
20.199999999999999
 30
0.0
 11
4.0
 21
21.0
 31
0.0
  0
LINE
  5
561
100
AcDbEntity
  8
0
  6
CONTINUOUS
 62
               7
100
AcDbLine
 10
-0.5
 20
21.0
 30
0.0
 11
-0.5
 21
30.969999999999999
 31
0.0
  0
LINE
  5
562
100
AcDbEntity
  8
0
  6
CONTINUOUS
 62
               7
100
AcDbLine
 10
0.5
 20
21.0
 30
0.0
 11
0.5
 21
30.969999999999999
 31
0.0
  0
LINE
  5
563
100
AcDbEntity
  8
0
  6
CONTINUOUS
 62
               7
100
AcDbLine
 10
-3.0
 20
21.57
 30
0.0
 11
-3.0
 21
26.399999999999999
 31
0.0
  0
LINE
  5
564
100
AcDbEntity
  8
0
  6
CONTINUOUS
 62
               7
100
AcDbLine
 10
3.0
 20
21.57
 30
0.0
 11
3.0
 21
26.399999999999999
 31
0.0
  0
LINE
  5
565
100
AcDbEntity
  8
0
  6
CENTER
 62
               2
100
AcDbLine
 10
-6.4299999999999997
 20
25.5
 30
0.0
 11
6.3499999999999996
 21
25.5
 31
0.0
  0
LINE
  5
566
100
AcDbEntity
  8
0
  6
CONTINUOUS
 62
               7
100
AcDbLine
 10
5.0
 20
4.0
 30
0.0
 11
5.0
 21
20.199999999999999
 31
0.0
  0
LINE
  5
567
100
AcDbEntity
  8
0
  6
CONTINUOUS
 62
               7
100
AcDbLine
 10
-5.0
 20
20.199999999999999
 30
0.0
 11
5.0
 21
20.199999999999999
 31
0.0
  0
LINE
  5
568
100
AcDbEntity
  8
0
  6
CONTINUOUS
 62
               7
100
AcDbLine
 10
-5.0
 20
4.0
 30
0.0
 11
-5.0
 21
20.199999999999999
 31
0.0
  0
LINE
  5
569
100
AcDbEntity
  8
0
  6
CONTINUOUS
 62
               7
100
AcDbLine
 10
0.0
 20
4.4400000000000004
 30
0.0
 11
0.0
 21
19.75
 31
0.0
  0
LINE
  5
56A
100
AcDbEntity
  8
0
  6
CONTINUOUS
 62
               7
100
AcDbLine
 10
-5.0
 20
4.0
 30
0.0
 11
5.0
 21
4.0
 31
0.0
  0
LINE
  5
56B
100
AcDbEntity
  8
0
  6
CONTINUOUS
 62
               7
100
AcDbLine
 10
4.7300000000000004
 20
-4.0
 30
0.0
 11
4.9900000000000002
 21
4.0
 31
0.0
  0
LINE
  5
56C
100
AcDbEntity
  8
0
  6
CONTINUOUS
 62
               2
100
AcDbLine
 10
4.1500000000000004
 20
-4.0
 30
0.0
 11
4.4000000000000004
 21
4.0
 31
0.0
  0
LINE
  5
56D
100
AcDbEntity
  8
0
  6
CONTINUOUS
 62
               7
100
AcDbLine
 10
-4.7300000000000004
 20
-4.0
 30
0.0
 11
-4.9900000000000002
 21
4.0
 31
0.0
  0
LINE
  5
56E
100
AcDbEntity
  8
0
  6
CONTINUOUS
 62
               2
100
AcDbLine
 10
-4.1500000000000004
 20
-4.0
 30
0.0
 11
-4.4000000000000004
 21
4.0
 31
0.0
  0
LINE
  5
56F
100
AcDbEntity
  8
0
  6
CONTINUOUS
 62
               7
100
AcDbLine
 10
-4.7300000000000004
 20
-4.0
 30
0.0
 11
4.7300000000000004
 21
-4.0
 31
0.0
  0
LINE
  5
570
100
AcDbEntity
  8
0
  6
CENTER
 62
               2
100
AcDbLine
 10
0.0
 20
-6.6200000000000001
 30
0.0
 11
0.0
 21
33.030000000000001
 31
0.0
  0
ENDBLK
  5
571
100
AcDbEntity
  8
0
100
AcDbBlockEnd
  0
BLOCK
  5
572
100
AcDbEntity
  8
0
100
AcDbBlockBegin
  2
MS_32
 70
               0
 10
0.0
 20
0.0
 30
0.0
  3
MS_32
  1

  0
ARC
  5
573
100
AcDbEntity
  8
0
  6
CONTINUOUS
 62
               7
100
AcDbCircle
 10
0.0000076294104678
 20
25.5
 30
0.0
 40
5.499460261841782
100
AcDbArc
 50
138.83372885886664
 51
221.16627114113257
  0
ARC
  5
574
100
AcDbEntity
  8
0
  6
CONTINUOUS
 62
               7
100
AcDbCircle
 10
2.5
 20
11.220911026001922
 30
0.0
 40
7.2270847748282581
100
AcDbArc
 50
249.76197615068858
 51
290.2380238493102
  0
ARC
  5
575
100
AcDbEntity
  8
0
  6
CONTINUOUS
 62
               7
100
AcDbCircle
 10
-2.5132440760732457
 20
12.97688464171555
 30
0.0
 40
7.215195540095463
100
AcDbArc
 50
88.624138685957007
 51
110.16075999568045
  0
ARC
  5
576
100
AcDbEntity
  8
0
  6
CONTINUOUS
 62
               7
100
AcDbCircle
 10
2.5132439733539611
 20
12.976884020730783
 30
0.0
 40
7.2151961584348054
100
AcDbArc
 50
69.839240938180325
 51
91.375860380181422
  0
ARC
  5
577
100
AcDbEntity
  8
0
  6
CONTINUOUS
 62
               7
100
AcDbCircle
 10
-2.5
 20
11.220914840698242
 30
0.0
 40
7.2270883540193189
100
AcDbArc
 50
249.76198661224015
 51
290.23801338775866
  0
ARC
  5
578
100
AcDbEntity
  8
0
  6
CONTINUOUS
 62
               7
100
AcDbCircle
 10
0.0
 20
26.5
 30
0.0
 40
4.9000000000237582
100
AcDbArc
 50
0.0
 51
179.9999999999996
  0
ARC
  5
579
100
AcDbEntity
  8
0
  6
CONTINUOUS
 62
               7
100
AcDbCircle
 10
0.0
 20
24.5
 30
0.0
 40
4.9000000000237582
100
AcDbArc
 50
179.9999999999996
 51
0.0
  0
ARC
  5
57A
100
AcDbEntity
  8
0
  6
CONTINUOUS
 62
               7
100
AcDbCircle
 10
-0.0000000000159357
 20
25.5
 30
0.0
 40
5.4994545184165267
100
AcDbArc
 50
318.83367653719665
 51
41.166323462802545
  0
CIRCLE
  5
57B
100
AcDbEntity
  8
0
  6
CONTINUOUS
 62
               7
100
AcDbCircle
 10
0.0000038146972656
 20
25.499984741210937
 30
0.0
 40
3.0
  0
LINE
  5
57C
100
AcDbEntity
  8
0
  6
CONTINUOUS
 62
               7
100
AcDbLine
 10
4.0
 20
21.0
 30
0.0
 11
3.4199999999999999
 21
21.0
 31
0.0
  0
LINE
  5
57D
100
AcDbEntity
  8
0
  6
CONTINUOUS
 62
               7
100
AcDbLine
 10
-4.0
 20
20.199999999999999
 30
0.0
 11
-4.0
 21
21.0
 31
0.0
  0
LINE
  5
57E
100
AcDbEntity
  8
0
  6
CONTINUOUS
 62
               7
100
AcDbLine
 10
4.0
 20
20.199999999999999
 30
0.0
 11
4.0
 21
21.0
 31
0.0
  0
LINE
  5
57F
100
AcDbEntity
  8
0
  6
CONTINUOUS
 62
               7
100
AcDbLine
 10
4.9000000000000004
 20
26.5
 30
0.0
 11
4.9000000000000004
 21
24.5
 31
0.0
  0
LINE
  5
580
100
AcDbEntity
  8
0
  6
CONTINUOUS
 62
               7
100
AcDbLine
 10
-4.9000000000000004
 20
26.5
 30
0.0
 11
-4.9000000000000004
 21
24.5
 31
0.0
  0
LINE
  5
581
100
AcDbEntity
  8
0
  6
CONTINUOUS
 62
               7
100
AcDbLine
 10
4.0
 20
21.0
 30
0.0
 11
3.6299999999999999
 21
21.210000000000001
 31
0.0
  0
LINE
  5
582
100
AcDbEntity
  8
0
  6
CONTINUOUS
 62
               7
100
AcDbLine
 10
-4.0
 20
21.0
 30
0.0
 11
-3.4199999999999999
 21
21.0
 31
0.0
  0
LINE
  5
583
100
AcDbEntity
  8
0
  6
CONTINUOUS
 62
               7
100
AcDbLine
 10
-4.0
 20
21.0
 30
0.0
 11
-3.6299999999999999
 21
21.210000000000001
 31
0.0
  0
LINE
  5
584
100
AcDbEntity
  8
0
  6
CENTER
 62
               2
100
AcDbLine
 10
-6.4299999999999997
 20
25.5
 30
0.0
 11
6.3499999999999996
 21
25.5
 31
0.0
  0
LINE
  5
585
100
AcDbEntity
  8
0
  6
CONTINUOUS
 62
               7
100
AcDbLine
 10
2.3399999999999999
 20
20.199999999999999
 30
0.0
 11
5.0
 21
20.199999999999999
 31
0.0
  0
LINE
  5
586
100
AcDbEntity
  8
0
  6
CONTINUOUS
 62
               7
100
AcDbLine
 10
-5.0
 20
4.0
 30
0.0
 11
-5.0
 21
20.199999999999999
 31
0.0
  0
LINE
  5
587
100
AcDbEntity
  8
0
  6
CONTINUOUS
 62
               7
100
AcDbLine
 10
0.0
 20
4.4400000000000004
 30
0.0
 11
0.0
 21
19.600000000000001
 31
0.0
  0
LINE
  5
588
100
AcDbEntity
  8
0
  6
CONTINUOUS
 62
               7
100
AcDbLine
 10
5.0
 20
4.0
 30
0.0
 11
5.0
 21
20.199999999999999
 31
0.0
  0
LINE
  5
589
100
AcDbEntity
  8
0
  6
CONTINUOUS
 62
               7
100
AcDbLine
 10
-5.0
 20
20.199999999999999
 30
0.0
 11
-2.3399999999999999
 21
20.199999999999999
 31
0.0
  0
LINE
  5
58A
100
AcDbEntity
  8
0
  6
CONTINUOUS
 62
               7
100
AcDbLine
 10
-5.0
 20
4.0
 30
0.0
 11
5.0
 21
4.0
 31
0.0
  0
LINE
  5
58B
100
AcDbEntity
  8
0
  6
CENTER
 62
               2
100
AcDbLine
 10
0.0
 20
-6.96
 30
0.0
 11
0.0
 21
33.100000000000001
 31
0.0
  0
LINE
  5
58C
100
AcDbEntity
  8
0
  6
CONTINUOUS
 62
               2
100
AcDbLine
 10
-4.1500000000000004
 20
-4.0
 30
0.0
 11
-4.4000000000000004
 21
4.0
 31
0.0
  0
LINE
  5
58D
100
AcDbEntity
  8
0
  6
CONTINUOUS
 62
               7
100
AcDbLine
 10
-4.7300000000000004
 20
-4.0
 30
0.0
 11
-4.9900000000000002
 21
4.0
 31
0.0
  0
LINE
  5
58E
100
AcDbEntity
  8
0
  6
CONTINUOUS
 62
               2
100
AcDbLine
 10
4.1500000000000004
 20
-4.0
 30
0.0
 11
4.4000000000000004
 21
4.0
 31
0.0
  0
LINE
  5
58F
100
AcDbEntity
  8
0
  6
CONTINUOUS
 62
               7
100
AcDbLine
 10
4.7300000000000004
 20
-4.0
 30
0.0
 11
4.9900000000000002
 21
4.0
 31
0.0
  0
LINE
  5
590
100
AcDbEntity
  8
0
  6
CONTINUOUS
 62
               7
100
AcDbLine
 10
-4.7300000000000004
 20
-4.0
 30
0.0
 11
4.7300000000000004
 21
-4.0
 31
0.0
  0
ENDBLK
  5
591
100
AcDbEntity
  8
0
100
AcDbBlockEnd
  0
ENDSEC
  0
SECTION
  2
ENTITIES
  0
MTEXT
  5
592
100
AcDbEntity
  8
0
  6
CONTINUOUS
 62
               7
100
AcDbMText
 10
212.24000305175781
 20
-166.5
 30
0.0
 40
7.0
 41
0.0
 71
               2
 72
               1
  1
\T1.254;\W0.968;\A1;KOGANEI CORP.
  7
MX_NOTE_STANDARD
  0
MTEXT
  5
593
100
AcDbEntity
  8
0
  6
CONTINUOUS
 62
               7
100
AcDbMText
 10
189.24030238985688
 20
169.88499999999999
 30
0.0
 40
5.8000001907348633
 41
0.0
 71
               4
 72
               1
  1
\W1.273;\A1;Ver.1.0
  7
MX_NOTE_STANDARD
  0
INSERT
  5
594
100
AcDbEntity
  8
0
100
AcDbBlockReference
  2
MS_32
 10
222.41574096679687
 20
-110.00001525878906
 30
0.0
  0
INSERT
  5
595
100
AcDbEntity
  8
0
100
AcDbBlockReference
  2
MS_31
 10
122.41574096679687
 20
-110.00001525878906
 30
0.0
  0
INSERT
  5
596
100
AcDbEntity
  8
0
100
AcDbBlockReference
  2
MS_30
 10
172.41574096679687
 20
-55.000015258789063
 30
0.0
  0
INSERT
  5
597
100
AcDbEntity
  8
0
100
AcDbBlockReference
  2
MS_29
 10
172.41574096679687
 20
-110.00001525878906
 30
0.0
  0
INSERT
  5
598
100
AcDbEntity
  8
0
100
AcDbBlockReference
  2
MS_28
 10
222.41574096679687
 20
50.000030517578125
 30
0.0
  0
INSERT
  5
599
100
AcDbEntity
  8
0
100
AcDbBlockReference
  2
MS_27
 10
122.41574096679687
 20
50.000030517578125
 30
0.0
  0
INSERT
  5
59A
100
AcDbEntity
  8
0
100
AcDbBlockReference
  2
MS_26
 10
172.41574096679687
 20
105.00001525878906
 30
0.0
  0
INSERT
  5
59B
100
AcDbEntity
  8
0
100
AcDbBlockReference
  2
MS_25
 10
172.41574096679687
 20
50.000030517578125
 30
0.0
 50
359.99999548225372
  0
INSERT
  5
59C
100
AcDbEntity
  8
0
100
AcDbBlockReference
  2
MS_24
 10
47.584259033203125
 20
-155.00003051757812
 30
0.0
  0
INSERT
  5
59D
100
AcDbEntity
  8
0
100
AcDbBlockReference
  2
MS_23
 10
-52.415740966796875
 20
-155.00003051757812
 30
0.0
  0
INSERT
  5
59E
100
AcDbEntity
  8
0
100
AcDbBlockReference
  2
MS_22
 10
-2.415740966796875
 20
-100.00003051757812
 30
0.0
  0
INSERT
  5
59F
100
AcDbEntity
  8
0
100
AcDbBlockReference
  2
MS_21
 10
-2.415740966796875
 20
-155.00003051757812
 30
0.0
  0
INSERT
  5
5A0
100
AcDbEntity
  8
0
100
AcDbBlockReference
  2
MS_20
 10
47.584259033203125
 20
-35.0
 30
0.0
  0
INSERT
  5
5A1
100
AcDbEntity
  8
0
100
AcDbBlockReference
  2
MS_19
 10
-52.415740966796875
 20
-35.0
 30
0.0
  0
INSERT
  5
5A2
100
AcDbEntity
  8
0
100
AcDbBlockReference
  2
MS_18
 10
-2.415740966796875
 20
19.999984741210937
 30
0.0
  0
INSERT
  5
5A3
100
AcDbEntity
  8
0
100
AcDbBlockReference
  2
MS_17
 10
-2.415740966796875
 20
-35.0
 30
0.0
  0
INSERT
  5
5A4
100
AcDbEntity
  8
0
100
AcDbBlockReference
  2
MS_16
 10
47.584259033203125
 20
85.000030517578125
 30
0.0
  0
INSERT
  5
5A5
100
AcDbEntity
  8
0
100
AcDbBlockReference
  2
MS_15
 10
-52.415740966796875
 20
85.000030517578125
 30
0.0
  0
INSERT
  5
5A6
100
AcDbEntity
  8
0
100
AcDbBlockReference
  2
MS_14
 10
-2.415740966796875
 20
140.00003051757812
 30
0.0
  0
INSERT
  5
5A7
100
AcDbEntity
  8
0
100
AcDbBlockReference
  2
MS_13
 10
-2.415740966796875
 20
85.000030517578125
 30
0.0
  0
INSERT
  5
5A8
100
AcDbEntity
  8
0
100
AcDbBlockReference
  2
MS_12
 10
-127.24722290039062
 20
-155.00003051757812
 30
0.0
  0
INSERT
  5
5A9
100
AcDbEntity
  8
0
100
AcDbBlockReference
  2
MS_11
 10
-227.24722290039062
 20
-155.00003051757812
 30
0.0
  0
INSERT
  5
5AA
100
AcDbEntity
  8
0
100
AcDbBlockReference
  2
MS_10
 10
-177.24722290039062
 20
-100.00003051757812
 30
0.0
  0
INSERT
  5
5AB
100
AcDbEntity
  8
0
100
AcDbBlockReference
  2
MS_9
 10
-177.24722290039062
 20
-155.00003051757812
 30
0.0
  0
INSERT
  5
5AC
100
AcDbEntity
  8
0
100
AcDbBlockReference
  2
MS_8
 10
-127.24722290039062
 20
-35.0
 30
0.0
  0
INSERT
  5
5AD
100
AcDbEntity
  8
0
100
AcDbBlockReference
  2
MS_7
 10
-227.24722290039062
 20
-35.0
 30
0.0
  0
INSERT
  5
5AE
100
AcDbEntity
  8
0
100
AcDbBlockReference
  2
MS_6
 10
-177.24722290039062
 20
19.999984741210937
 30
0.0
  0
INSERT
  5
5AF
100
AcDbEntity
  8
0
100
AcDbBlockReference
  2
MS_5
 10
-177.24722290039062
 20
-35.0
 30
0.0
  0
INSERT
  5
5B0
100
AcDbEntity
  8
0
100
AcDbBlockReference
  2
MS_4
 10
-127.24722290039062
 20
85.000015258789063
 30
0.0
  0
INSERT
  5
5B1
100
AcDbEntity
  8
0
100
AcDbBlockReference
  2
MS_3
 10
-227.24722290039062
 20
85.000015258789063
 30
0.0
  0
INSERT
  5
5B2
100
AcDbEntity
  8
0
100
AcDbBlockReference
  2
MS_2
 10
-177.24722290039062
 20
125.00001525878906
 30
0.0
  0
INSERT
  5
5B3
100
AcDbEntity
  8
0
100
AcDbBlockReference
  2
MS_1
 10
-177.24722290039062
 20
85.000015258789063
 30
0.0
 50
359.99997640122615
  0
MTEXT
  5
5B4
100
AcDbEntity
  8
0
  6
CONTINUOUS
 62
               7
100
AcDbMText
 10
-69.701455253249705
 20
-66.500015258789063
 30
0.0
 40
7.0
 41
0.0
 71
               1
 72
               1
  1
\W1.041;\A1;MODEL:CS-TLL6-M5M
  7
MX_NOTE_STANDARD
  0
MTEXT
  5
5B5
100
AcDbEntity
  8
0
  6
CONTINUOUS
 62
               7
100
AcDbMText
 10
-69.663109388635434
 20
53.500015258789063
 30
0.0
 40
7.0
 41
0.0
 71
               1
 72
               1
  1
\W1.074;\A1;MODEL:CS-TLL4-01M
  7
MX_NOTE_STANDARD
  0
MTEXT
  5
5B6
100
AcDbEntity
  8
0
  6
CONTINUOUS
 62
               7
100
AcDbMText
 10
-69.701455253249705
 20
173.50004577636719
 30
0.0
 40
7.0
 41
0.0
 71
               1
 72
               1
  1
\W1.041;\A1;MODEL:CS-TLL4-M6M
  7
MX_NOTE_STANDARD
  0
MTEXT
  5
5B7
100
AcDbEntity
  8
0
  6
CONTINUOUS
 62
               7
100
AcDbMText
 10
-244.53293718684344
 20
53.500015258789063
 30
0.0
 40
7.0
 41
0.0
 71
               1
 72
               1
  1
\W1.041;\A1;MODEL:CS-TLL4-M3M
  7
MX_NOTE_STANDARD
  0
MTEXT
  5
5B8
100
AcDbEntity
  8
0
  6
CONTINUOUS
 62
               7
100
AcDbMText
 10
105.16837254495832
 20
-6.5
 30
0.0
 40
7.0
 41
0.0
 71
               1
 72
               1
  1
\W1.074;\A1;MODEL:CS-TLL6-01M
  7
MX_NOTE_STANDARD
  0
MTEXT
  5
5B9
100
AcDbEntity
  8
0
  6
CONTINUOUS
 62
               7
100
AcDbMText
 10
-244.53293718684344
 20
-66.500015258789063
 30
0.0
 40
7.0
 41
0.0
 71
               1
 72
               1
  1
\W1.041;\A1;MODEL:CS-TLL4-M5M
  7
MX_NOTE_STANDARD
  0
MTEXT
  5
5BA
100
AcDbEntity
  8
0
  6
CONTINUOUS
 62
               7
100
AcDbMText
 10
105.13002668034405
 20
153.50004577636719
 30
0.0
 40
7.0
 41
0.0
 71
               1
 72
               1
  1
\W1.041;\A1;MODEL:CS-TLL6-M6M
  7
MX_NOTE_STANDARD
  0
MTEXT
  5
5BB
100
AcDbEntity
  8
0
  6
CONTINUOUS
 62
               7
100
AcDbMText
 10
-244.53293718684344
 20
153.50004577636719
 30
0.0
 40
7.0
 41
0.0
 71
               1
 72
               1
  1
\W1.041;\A1;MODEL:CS-TLL3-M3M
  7
MX_NOTE_STANDARD
  0
MTEXT
  5
5BC
100
AcDbEntity
  8
0
  6
CONTINUOUS
 62
               7
100
AcDbMText
 10
-254.98564970564772
 20
173.3876953125
 30
0.0
 40
7.0
 41
0.0
 71
               1
 72
               1
  1
\W0.711;\A1;CS-QUICK FITTING,TLLM
  7
MX_NOTE_STANDARD
  0
LINE
  5
5BD
100
AcDbEntity
  8
0
  6
CONTINUOUS
 62
               7
100
AcDbLine
 10
87.409999999999997
 20
0.0
 30
0.0
 11
262.24000000000001
 21
0.0
 31
0.0
  0
LINE
  5
5BE
100
AcDbEntity
  8
0
  6
CONTINUOUS
 62
               7
100
AcDbLine
 10
-262.24000000000001
 20
-60.0
 30
0.0
 11
87.409999999999997
 21
-60.0
 31
0.0
  0
LINE
  5
5BF
100
AcDbEntity
  8
0
  6
CONTINUOUS
 62
               7
100
AcDbLine
 10
-262.24000000000001
 20
60.0
 30
0.0
 11
87.409999999999997
 21
60.0
 31
0.0
  0
LINE
  5
5C0
100
AcDbEntity
  8
0
  6
CONTINUOUS
 62
               7
100
AcDbLine
 10
87.409999999999997
 20
180.0
 30
0.0
 11
87.409999999999997
 21
-180.0
 31
0.0
  0
LINE
  5
5C1
100
AcDbEntity
  8
0
  6
CONTINUOUS
 62
               7
100
AcDbLine
 10
-87.409999999999997
 20
180.0
 30
0.0
 11
-87.409999999999997
 21
-180.0
 31
0.0
  0
LINE
  5
5C2
100
AcDbEntity
  8
0
  6
CONTINUOUS
 62
               7
100
AcDbLine
 10
154.38
 20
-159.77000000000001
 30
0.0
 11
154.38
 21
-180.0
 31
0.0
  0
LINE
  5
5C3
100
AcDbEntity
  8
0
  6
CONTINUOUS
 62
               7
100
AcDbLine
 10
154.38
 20
180.0
 30
0.0
 11
154.38
 21
159.77000000000001
 31
0.0
  0
LINE
  5
5C4
100
AcDbEntity
  8
0
  6
CONTINUOUS
 62
               7
100
AcDbLine
 10
154.38
 20
159.77000000000001
 30
0.0
 11
262.24000000000001
 21
159.77000000000001
 31
0.0
  0
LINE
  5
5C5
100
AcDbEntity
  8
0
  6
CONTINUOUS
 62
               7
100
AcDbLine
 10
154.38
 20
-159.77000000000001
 30
0.0
 11
262.24000000000001
 21
-159.77000000000001
 31
0.0
  0
LINE
  5
5C6
100
AcDbEntity
  8
0
  6
CONTINUOUS
 62
               7
100
AcDbLine
 10
-154.38
 20
159.77000000000001
 30
0.0
 11
-154.38
 21
180.0
 31
0.0
  0
LINE
  5
5C7
100
AcDbEntity
  8
0
  6
CONTINUOUS
 62
               7
100
AcDbLine
 10
-262.24000000000001
 20
159.77000000000001
 30
0.0
 11
-154.38
 21
159.77000000000001
 31
0.0
  0
LINE
  5
5C8
100
AcDbEntity
  8
0
  6
CONTINUOUS
 62
               7
100
AcDbLine
 10
-262.24000000000001
 20
180.0
 30
0.0
 11
262.24000000000001
 21
180.0
 31
0.0
  0
LINE
  5
5C9
100
AcDbEntity
  8
0
  6
CONTINUOUS
 62
               7
100
AcDbLine
 10
-262.24000000000001
 20
-180.0
 30
0.0
 11
262.24000000000001
 21
-180.0
 31
0.0
  0
LINE
  5
5CA
100
AcDbEntity
  8
0
  6
CONTINUOUS
 62
               7
100
AcDbLine
 10
262.24000000000001
 20
180.0
 30
0.0
 11
262.24000000000001
 21
-180.0
 31
0.0
  0
LINE
  5
5CB
100
AcDbEntity
  8
0
  6
CONTINUOUS
 62
               7
100
AcDbLine
 10
-262.24000000000001
 20
-180.0
 30
0.0
 11
-262.24000000000001
 21
180.0
 31
0.0
  0
ENDSEC
  0
SECTION
  2
OBJECTS
  0
DICTIONARY
  5
19
100
AcDbDictionary
  3
ACAD_GROUP
350
1A
  3
ACAD_MLINESTYLE
350
1B
  0
DICTIONARY
  5
1A
102
{ACAD_REACTORS
330
19
102
}
100
AcDbDictionary
  0
DICTIONARY
  5
1B
102
{ACAD_REACTORS
330
19
102
}
100
AcDbDictionary
  3
STANDARD
350
1C
  0
MLINESTYLE
  5
1C
102
{ACAD_REACTORS
330
1B
102
}
100
AcDbMlineStyle
  2
Standard
 70
               0
  3

 62
               0
 51
90.0
 52
90.0
 71
               2
 49
0.5
 62
             256
  6
ByLayer
 49
-0.5
 62
             256
  6
ByLayer
  0
ENDSEC
  0
EOF
