  0
SECTION
  2
HEADER
  9
$ACADVER
  1
AC1012
  9
$DWGCODEPAGE
  3
dos932
  9
$INSBASE
 10
0.0
 20
0.0
 30
0.0
  9
$EXTMIN
 10
-262.24000000000001
 20
-180.0
 30
0.0
  9
$EXTMAX
 10
262.24000000000001
 20
180.0
 30
0.0
  9
$LIMMIN
 10
-262.24000000000001
 20
-180.0
  9
$LIMMAX
 10
262.24000000000001
 20
180.0
  9
$ORTHOMODE
 70
               0
  9
$REGENMODE
 70
               1
  9
$FILLMODE
 70
               1
  9
$QTEXTMODE
 70
               0
  9
$MIRRTEXT
 70
               1
  9
$DRAGMODE
 70
               2
  9
$LTSCALE
 40
1.0
  9
$OSMODE
 70
               0
  9
$ATTMODE
 70
               1
  9
$TEXTSIZE
 40
3.2000000476837158
  9
$TRACEWID
 40
0.05
  9
$TEXTSTYLE
  7
MX_NOTE_STANDARD
  9
$CLAYER
  8
0
  9
$CELTYPE
  6
CONTINUOUS
  9
$CECOLOR
 62
             256
  9
$CELTSCALE
 40
1.0
  9
$DELOBJ
 70
               1
  9
$DISPSILH
 70
               0
  9
$DIMSCALE
 40
1.0
  9
$DIMASZ
 40
2.5
  9
$DIMEXO
 40
1.5
  9
$DIMDLI
 40
3.75
  9
$DIMRND
 40
0.0
  9
$DIMDLE
 40
0.0
  9
$DIMEXE
 40
1.5
  9
$DIMTP
 40
0.0
  9
$DIMTM
 40
0.0
  9
$DIMTXT
 40
3.2000000476837158
  9
$DIMCEN
 40
2.5
  9
$DIMTSZ
 40
0.0
  9
$DIMTOL
 70
               0
  9
$DIMLIM
 70
               0
  9
$DIMTIH
 70
               0
  9
$DIMTOH
 70
               0
  9
$DIMSE1
 70
               0
  9
$DIMSE2
 70
               0
  9
$DIMTAD
 70
               1
  9
$DIMZIN
 70
               8
  9
$DIMBLK
  1

  9
$DIMASO
 70
               1
  9
$DIMSHO
 70
               1
  9
$DIMPOST
  1

  9
$DIMAPOST
  1

  9
$DIMALT
 70
               0
  9
$DIMALTD
 70
               4
  9
$DIMALTF
 40
0.0394
  9
$DIMLFAC
 40
1.0
  9
$DIMTOFL
 70
               1
  9
$DIMTVP
 40
0.0
  9
$DIMTIX
 70
               0
  9
$DIMSOXD
 70
               0
  9
$DIMSAH
 70
               0
  9
$DIMBLK1
  1

  9
$DIMBLK2
  1

  9
$DIMSTYLE
  2
MXDIMSTYLE
  9
$DIMCLRD
 70
               0
  9
$DIMCLRE
 70
               0
  9
$DIMCLRT
 70
               0
  9
$DIMTFAC
 40
1.0
  9
$DIMGAP
 40
1.0
  9
$DIMJUST
 70
               0
  9
$DIMSD1
 70
               0
  9
$DIMSD2
 70
               0
  9
$DIMTOLJ
 70
               1
  9
$DIMTZIN
 70
               0
  9
$DIMALTZ
 70
               0
  9
$DIMALTTZ
 70
               0
  9
$DIMFIT
 70
               3
  9
$DIMUPT
 70
               1
  9
$DIMUNIT
 70
               2
  9
$DIMDEC
 70
               4
  9
$DIMTDEC
 70
               4
  9
$DIMALTU
 70
               8
  9
$DIMALTTD
 70
               4
  9
$DIMTXSTY
  7
MX_NOTE_STANDARD
  9
$DIMAUNIT
 70
               0
  9
$LUNITS
 70
               2
  9
$LUPREC
 70
               4
  9
$SKETCHINC
 40
0.1
  9
$FILLETRAD
 40
0.0
  9
$AUNITS
 70
               0
  9
$AUPREC
 70
               0
  9
$MENU
  1
acad
  9
$ELEVATION
 40
0.0
  9
$PELEVATION
 40
0.0
  9
$THICKNESS
 40
0.0
  9
$LIMCHECK
 70
               0
  9
$BLIPMODE
 70
               1
  9
$CHAMFERA
 40
0.0
  9
$CHAMFERB
 40
0.0
  9
$CHAMFERC
 40
0.0
  9
$CHAMFERD
 40
0.0
  9
$SKPOLY
 70
               0
  9
$TDCREATE
 40
2452220.697696759
  9
$TDUPDATE
 40
2452220.697696759
  9
$TDINDWG
 40
0.0000000000
  9
$TDUSRTIMER
 40
0.0000000000
  9
$USRTIMER
 70
               1
  9
$ANGBASE
 50
0.0
  9
$ANGDIR
 70
               0
  9
$PDMODE
 70
               0
  9
$PDSIZE
 40
0.0
  9
$PLINEWID
 40
0.0
  9
$COORDS
 70
               1
  9
$SPLFRAME
 70
               0
  9
$SPLINETYPE
 70
               6
  9
$SPLINESEGS
 70
               8
  9
$ATTDIA
 70
               0
  9
$ATTREQ
 70
               1
  9
$HANDLING
 70
               1
  9
$HANDSEED
  5
74A
  9
$SURFTAB1
 70
               6
  9
$SURFTAB2
 70
               6
  9
$SURFTYPE
 70
               6
  9
$SURFU
 70
               6
  9
$SURFV
 70
               6
  9
$UCSNAME
  2

  9
$UCSORG
 10
0.0
 20
0.0
 30
0.0
  9
$UCSXDIR
 10
1.0
 20
0.0
 30
0.0
  9
$UCSYDIR
 10
0.0
 20
1.0
 30
0.0
  9
$PUCSNAME
  2

  9
$PUCSORG
 10
0.0
 20
0.0
 30
0.0
  9
$PUCSXDIR
 10
1.0
 20
0.0
 30
0.0
  9
$PUCSYDIR
 10
0.0
 20
1.0
 30
0.0
  9
$USERI1
 70
               0
  9
$USERI2
 70
               0
  9
$USERI3
 70
               0
  9
$USERI4
 70
               0
  9
$USERI5
 70
               0
  9
$USERR1
 40
0.0
  9
$USERR2
 40
0.0
  9
$USERR3
 40
0.0
  9
$USERR4
 40
0.0
  9
$USERR5
 40
0.0
  9
$WORLDVIEW
 70
               1
  9
$SHADEDGE
 70
               3
  9
$SHADEDIF
 70
              70
  9
$TILEMODE
 70
               1
  9
$MAXACTVP
 70
              16
  9
$PINSBASE
 10
0.0
 20
0.0
 30
0.0
  9
$PLIMCHECK
 70
               0
  9
$PEXTMIN
 10
1.0000000000000000E+20
 20
1.0000000000000000E+20
 30
1.0000000000000000E+20
  9
$PEXTMAX
 10
-1.0000000000000000E+20
 20
-1.0000000000000000E+20
 30
-1.0000000000000000E+20
  9
$PLIMMIN
 10
0.0
 20
0.0
  9
$PLIMMAX
 10
12.0
 20
9.0
  9
$UNITMODE
 70
               0
  9
$VISRETAIN
 70
               0
  9
$PLINEGEN
 70
               1
  9
$PSLTSCALE
 70
               0
  9
$TREEDEPTH
 70
            3020
  9
$PICKSTYLE
 70
               1
  9
$CMLSTYLE
  2
Standard
  9
$CMLJUST
 70
               0
  9
$CMLSCALE
 40
1.0
  9
$SAVEIMAGES
 70
               0
  0
ENDSEC
  0
SECTION
  2
CLASSES
  0
CLASS
  1
LWPOLYLINE
  2
AcDbPolyline
  3
"AutoCAD"
 90
        0
280
               0
281
               1
  0
CLASS
  1
IMAGE
  2
AcDbRasterImage
  3
ISM
 90
      127
280
               0
281
               1
  0
CLASS
  1
OLE2FRAME
  2
AcDbOle2Frame
  3
""
 90
        0
280
               0
281
               1
  0
CLASS
  1
HATCH
  2
AcDbHatch
  3
"ACAD_SEDONA"
 90
        0
280
               0
281
               1
  0
CLASS
  1
DICTIONARYVAR
  2
AcDbDictionaryVar
  3
"AutoCAD"
 90
        0
280
               0
281
               0
  0
CLASS
  1
RASTERVARIABLES
  2
AcDbRasterVariables
  3
ISM
 90
        0
280
               0
281
               0
  0
CLASS
  1
IMAGEDEF
  2
AcDbRasterImageDef
  3
ISM
 90
        0
280
               0
281
               0
  0
CLASS
  1
IMAGEDEF_REACTOR
  2
AcDbRasterImageDefReactor
  3
ISM
 90
        1
280
               0
281
               0
  0
CLASS
  1
IDBUFFER
  2
AcDbIdBuffer
  3
"Acad"
 90
        0
280
               0
281
               0
  0
CLASS
  1
SPATIAL_FILTER
  2
AcDbSpatialFilter
  3
"Acad"
 90
        0
280
               0
281
               0
  0
CLASS
  1
XRECORD
  2
AcDbXrecord
  3
"<Built In>"
 90
        0
280
               0
281
               0
  0
CLASS
  1
SORTENTSTABLE
  2
AcDbSortentsTable
  3
"AutoCAD"
 90
        0
280
               0
281
               0
  0
CLASS
  1
LAYER_INDEX
  2
AcDbLayerIndex
  3
"Acad"
 90
        0
280
               0
281
               0
  0
CLASS
  1
SPATIAL_INDEX
  2
AcDbSpatialIndex
  3
"Acad"
 90
        0
280
               0
281
               0
  0
CLASS
  1
OBJECT_PTR
  2
CAseDLPNTableRecord
  3
"ASE-LPNTableRecord"
 90
        1
280
               0
281
               0
  0
CLASS
  1
LAYOUT
  2
AcDbLayout
  3
"AutoCAD 2000"
 90
        1
280
               0
281
               0
  0
CLASS
  1
PLOTSETTINGS
  2
AcDbPlotSettings
  3
"AutoCAD 2000"
 90
        1
280
               0
281
               0
  0
CLASS
  1
ACDBDICTIONARYWDFLT
  2
AcDbDictionaryWithDefault
  3
"AutoCAD 2000"
 90
        1
280
               0
281
               0
  0
CLASS
  1
ACDBPLACEHOLDER
  2
AcDbPlaceHolder
  3
"AutoCAD 2000"
 90
        1
280
               0
281
               0
  0
CLASS
  1
VBA_PROJECT
  2
AcDbVbaProject
  3
"acadvba"
 90
        1
280
               0
281
               0
  0
CLASS
  1
WIPEOUT
  2
AcDbWipeout
  3
WipeOut|AutoCAD Express Tool|expresstools@autodesk.com
 90
      127
280
               0
281
               1
  0
CLASS
  1
WIPEOUTVARIABLES
  2
AcDbWipeoutVariables
  3
WipeOut|AutoCAD Express Tool|expresstools@autodesk.com
 90
        0
280
               0
281
               0
  0
CLASS
  1
RTEXT
  2
RText
  3
RText|AutoCAD Express Tool|expresstools@autodesk.com
 90
        0
280
               0
281
               1
  0
CLASS
  1
ARCALIGNEDTEXT
  2
AcDbArcAlignedText
  3
ATEXT|AutoCAD Express Tool|expresstools@autodesk.com
 90
        0
280
               0
281
               1
  0
ENDSEC
  0
SECTION
  2
TABLES
  0
TABLE
  2
VPORT
  5
7
100
AcDbSymbolTable
 70
               1
  0
VPORT
  5
15
100
AcDbSymbolTableRecord
100
AcDbViewportTableRecord
  2
*ACTIVE
 70
               0
 10
0.0
 20
0.0
 11
1.0
 21
1.0
 12
0.0
 22
0.0
 13
0.0
 23
0.0
 14
1.0
 24
1.0
 15
0.0
 25
0.0
 16
0.0
 26
0.0
 36
1.0
 17
0.0
 27
0.0
 37
0.0
 40
363.60000000000002
 41
1.7320508075688772
 42
50.0
 43
0.0
 44
0.0
 50
0.0
 51
0.0
 71
               0
 72
             100
 73
               1
 74
               1
 75
               0
 76
               0
 77
               0
 78
               0
  0
ENDTAB
  0
TABLE
  2
LTYPE
  5
4
100
AcDbSymbolTable
 70
               4
  0
LTYPE
  5
11
100
AcDbSymbolTableRecord
100
AcDbLinetypeTableRecord
  2
BYBLOCK
 70
              64
  3

 72
              65
 73
               0
 40
0.0
  0
LTYPE
  5
12
100
AcDbSymbolTableRecord
100
AcDbLinetypeTableRecord
  2
BYLAYER
 70
              64
  3

 72
              65
 73
               0
 40
0.0
  0
LTYPE
  5
13
100
AcDbSymbolTableRecord
100
AcDbLinetypeTableRecord
  2
CONTINUOUS
 70
              64
  3
Solid line
 72
              65
 73
               0
 40
0.0
  0
LTYPE
  5
6B
100
AcDbSymbolTableRecord
100
AcDbLinetypeTableRecord
  2
CENTER
 70
              64
  3
Center ____ _ ____ _ ____ _ ____ _ ____ _ ____
 72
              65
 73
               4
 40
50.800000000000004
 49
31.75
 74
               0
 49
-6.3499999999999996
 74
               0
 49
6.3499999999999996
 74
               0
 49
-6.3499999999999996
 74
               0
  0
ENDTAB
  0
TABLE
  2
LAYER
  5
2
100
AcDbSymbolTable
 70
               2
  0
LAYER
  5
14
100
AcDbSymbolTableRecord
100
AcDbLayerTableRecord
  2
0
 70
               0
 62
               7
  6
CONTINUOUS
  0
LAYER
  5
1D
100
AcDbSymbolTableRecord
100
AcDbLayerTableRecord
  2
DEFPOINTS
 70
               0
 62
               7
  6
CONTINUOUS
  0
ENDTAB
  0
TABLE
  2
STYLE
  5
3
100
AcDbSymbolTable
 70
               1
  0
STYLE
  5
17
100
AcDbSymbolTableRecord
100
AcDbTextStyleTableRecord
  2
MX_NOTE_STANDARD
 70
               0
 40
3.2000000476837158
 41
1.0
 50
0.0
 71
               0
 42
3.2000000476837158
  3
txt.shx
  4
extfont.shx
  0
ENDTAB
  0
TABLE
  2
VIEW
  5
5
100
AcDbSymbolTable
 70
               0
  0
ENDTAB
  0
TABLE
  2
UCS
  5
6
100
AcDbSymbolTable
 70
               0
  0
ENDTAB
  0
TABLE
  2
APPID
  5
8
100
AcDbSymbolTable
 70
               1
  0
APPID
  5
16
100
AcDbSymbolTableRecord
100
AcDbRegAppTableRecord
  2
ACAD
 70
               0
  0
ENDTAB
  0
TABLE
  2
DIMSTYLE
  5
9
100
AcDbSymbolTable
 70
               1
  0
DIMSTYLE
105
18
100
AcDbSymbolTableRecord
100
AcDbDimStyleTableRecord
  2
MXDIMSTYLE
 70
               0
  3

  4

  5

  6

  7

 40
1.0
 41
2.5
 42
1.5
 43
3.75
 44
1.5
 45
0.0
 46
0.0
 47
0.0
 48
0.0
 71
               0
 72
               0
 73
               0
 74
               0
 75
               0
 76
               0
 77
               1
 78
               8
140
3.2000000476837158
141
2.5
142
0.0
143
0.0394
144
1.0
145
0.0
146
1.0
147
1.0
170
               0
171
               4
172
               1
173
               0
174
               0
175
               0
176
               0
177
               0
178
               0
270
               2
271
               4
272
               4
273
               8
274
               4
275
               0
280
               0
281
               0
282
               0
283
               1
284
               0
285
               0
286
               0
287
               3
288
               1
340
17
  0
ENDTAB
  0
TABLE
  2
BLOCK_RECORD
  5
1
100
AcDbSymbolTable
 70
              40
  0
BLOCK_RECORD
  5
A
100
AcDbSymbolTableRecord
100
AcDbBlockTableRecord
  2
*MODEL_SPACE
  0
BLOCK_RECORD
  5
B
100
AcDbSymbolTableRecord
100
AcDbBlockTableRecord
  2
*PAPER_SPACE
  0
BLOCK_RECORD
  5
1E
100
AcDbSymbolTableRecord
100
AcDbBlockTableRecord
  2
MS_1
  0
BLOCK_RECORD
  5
1F
100
AcDbSymbolTableRecord
100
AcDbBlockTableRecord
  2
MS_2
  0
BLOCK_RECORD
  5
20
100
AcDbSymbolTableRecord
100
AcDbBlockTableRecord
  2
MS_3
  0
BLOCK_RECORD
  5
21
100
AcDbSymbolTableRecord
100
AcDbBlockTableRecord
  2
MS_4
  0
BLOCK_RECORD
  5
22
100
AcDbSymbolTableRecord
100
AcDbBlockTableRecord
  2
MS_5
  0
BLOCK_RECORD
  5
23
100
AcDbSymbolTableRecord
100
AcDbBlockTableRecord
  2
MS_6
  0
BLOCK_RECORD
  5
24
100
AcDbSymbolTableRecord
100
AcDbBlockTableRecord
  2
MS_7
  0
BLOCK_RECORD
  5
25
100
AcDbSymbolTableRecord
100
AcDbBlockTableRecord
  2
MS_8
  0
BLOCK_RECORD
  5
26
100
AcDbSymbolTableRecord
100
AcDbBlockTableRecord
  2
MS_9
  0
BLOCK_RECORD
  5
27
100
AcDbSymbolTableRecord
100
AcDbBlockTableRecord
  2
MS_10
  0
BLOCK_RECORD
  5
28
100
AcDbSymbolTableRecord
100
AcDbBlockTableRecord
  2
MS_11
  0
BLOCK_RECORD
  5
29
100
AcDbSymbolTableRecord
100
AcDbBlockTableRecord
  2
MS_12
  0
BLOCK_RECORD
  5
2A
100
AcDbSymbolTableRecord
100
AcDbBlockTableRecord
  2
MS_13
  0
BLOCK_RECORD
  5
2B
100
AcDbSymbolTableRecord
100
AcDbBlockTableRecord
  2
MS_14
  0
BLOCK_RECORD
  5
2C
100
AcDbSymbolTableRecord
100
AcDbBlockTableRecord
  2
MS_15
  0
BLOCK_RECORD
  5
2D
100
AcDbSymbolTableRecord
100
AcDbBlockTableRecord
  2
MS_16
  0
BLOCK_RECORD
  5
2E
100
AcDbSymbolTableRecord
100
AcDbBlockTableRecord
  2
MS_17
  0
BLOCK_RECORD
  5
2F
100
AcDbSymbolTableRecord
100
AcDbBlockTableRecord
  2
MS_18
  0
BLOCK_RECORD
  5
30
100
AcDbSymbolTableRecord
100
AcDbBlockTableRecord
  2
MS_19
  0
BLOCK_RECORD
  5
31
100
AcDbSymbolTableRecord
100
AcDbBlockTableRecord
  2
MS_20
  0
BLOCK_RECORD
  5
32
100
AcDbSymbolTableRecord
100
AcDbBlockTableRecord
  2
MS_21
  0
BLOCK_RECORD
  5
33
100
AcDbSymbolTableRecord
100
AcDbBlockTableRecord
  2
MS_22
  0
BLOCK_RECORD
  5
34
100
AcDbSymbolTableRecord
100
AcDbBlockTableRecord
  2
MS_23
  0
BLOCK_RECORD
  5
35
100
AcDbSymbolTableRecord
100
AcDbBlockTableRecord
  2
MS_24
  0
BLOCK_RECORD
  5
36
100
AcDbSymbolTableRecord
100
AcDbBlockTableRecord
  2
MS_25
  0
BLOCK_RECORD
  5
37
100
AcDbSymbolTableRecord
100
AcDbBlockTableRecord
  2
MS_26
  0
BLOCK_RECORD
  5
38
100
AcDbSymbolTableRecord
100
AcDbBlockTableRecord
  2
MS_27
  0
BLOCK_RECORD
  5
39
100
AcDbSymbolTableRecord
100
AcDbBlockTableRecord
  2
MS_28
  0
BLOCK_RECORD
  5
3A
100
AcDbSymbolTableRecord
100
AcDbBlockTableRecord
  2
MS_29
  0
BLOCK_RECORD
  5
3B
100
AcDbSymbolTableRecord
100
AcDbBlockTableRecord
  2
MS_30
  0
BLOCK_RECORD
  5
3C
100
AcDbSymbolTableRecord
100
AcDbBlockTableRecord
  2
MS_31
  0
BLOCK_RECORD
  5
3D
100
AcDbSymbolTableRecord
100
AcDbBlockTableRecord
  2
MS_32
  0
BLOCK_RECORD
  5
3E
100
AcDbSymbolTableRecord
100
AcDbBlockTableRecord
  2
MS_33
  0
BLOCK_RECORD
  5
3F
100
AcDbSymbolTableRecord
100
AcDbBlockTableRecord
  2
MS_34
  0
BLOCK_RECORD
  5
40
100
AcDbSymbolTableRecord
100
AcDbBlockTableRecord
  2
MS_35
  0
BLOCK_RECORD
  5
41
100
AcDbSymbolTableRecord
100
AcDbBlockTableRecord
  2
MS_36
  0
BLOCK_RECORD
  5
42
100
AcDbSymbolTableRecord
100
AcDbBlockTableRecord
  2
MS_37
  0
BLOCK_RECORD
  5
43
100
AcDbSymbolTableRecord
100
AcDbBlockTableRecord
  2
MS_38
  0
BLOCK_RECORD
  5
44
100
AcDbSymbolTableRecord
100
AcDbBlockTableRecord
  2
MS_39
  0
BLOCK_RECORD
  5
45
100
AcDbSymbolTableRecord
100
AcDbBlockTableRecord
  2
MS_40
  0
ENDTAB
  0
ENDSEC
  0
SECTION
  2
BLOCKS
  0
BLOCK
  5
D
100
AcDbEntity
  8
0
100
AcDbBlockBegin
  2
*MODEL_SPACE
 70
               0
 10
0.0
 20
0.0
 30
0.0
  3
*MODEL_SPACE
  1

  0
ENDBLK
  5
E
100
AcDbEntity
  8
0
100
AcDbBlockEnd
  0
BLOCK
  5
F
100
AcDbEntity
 67
               1
  8
0
100
AcDbBlockBegin
  2
*PAPER_SPACE
 70
               0
 10
0.0
 20
0.0
 30
0.0
  3
*PAPER_SPACE
  1

  0
ENDBLK
  5
10
100
AcDbEntity
 67
               1
  8
0
100
AcDbBlockEnd
  0
BLOCK
  5
46
100
AcDbEntity
  8
0
100
AcDbBlockBegin
  2
MS_1
 70
               0
 10
0.0
 20
0.0
 30
0.0
  3
MS_1
  1

  0
ARC
  5
47
100
AcDbEntity
  8
0
  6
CONTINUOUS
 62
               7
100
AcDbCircle
 10
-0.0000002861022796
 20
10.15000028610228
 30
0.0
 40
2.749999713897735
100
AcDbArc
 50
89.999994039107136
 51
180.00000596089225
  0
ARC
  5
48
100
AcDbEntity
  8
0
  6
CONTINUOUS
 62
               7
100
AcDbCircle
 10
-0.0000002861022745
 20
10.150000286102275
 30
0.0
 40
1.9999997138977461
100
AcDbArc
 50
89.999991803772218
 51
180.00000819622718
  0
ARC
  5
49
100
AcDbEntity
  8
0
  6
CONTINUOUS
 62
               7
100
AcDbCircle
 10
0.0
 20
7.1812505722045907
 30
0.0
 40
4.9786149645802267
100
AcDbArc
 50
251.49681695994587
 51
288.50318304005293
  0
ARC
  5
4A
100
AcDbEntity
  8
0
  6
CONTINUOUS
 62
               7
100
AcDbCircle
 10
-2.3871186152691335
 20
3.5827541475692248
 30
0.0
 40
1.382757149682424
100
AcDbArc
 50
269.88060715958125
 51
305.71137068827818
  0
ARC
  5
4B
100
AcDbEntity
  8
0
  6
CONTINUOUS
 62
               7
100
AcDbCircle
 10
2.3871185248359579
 20
3.5827538658350999
 30
0.0
 40
1.3827568681373577
100
AcDbArc
 50
234.2886255402224
 51
270.1193966119157
  0
ARC
  5
4C
100
AcDbEntity
  8
0
  6
CONTINUOUS
 62
               7
100
AcDbCircle
 10
-2.3871190031902034
 20
4.3172446439074426
 30
0.0
 40
1.382758357394839
100
AcDbArc
 50
54.28864548987729
 51
90.119376662261686
  0
ARC
  5
4D
100
AcDbEntity
  8
0
  6
CONTINUOUS
 62
               7
100
AcDbCircle
 10
2.387118912757106
 20
4.3172449256413223
 30
0.0
 40
1.3827580758499924
100
AcDbArc
 50
89.880619566249578
 51
125.71135828161066
  0
ARC
  5
4E
100
AcDbEntity
  8
0
  6
CONTINUOUS
 62
               7
100
AcDbCircle
 10
0.0
 20
0.7187487483024597
 30
0.0
 40
4.9786156089474911
100
AcDbArc
 50
71.496819441636305
 51
108.50318055836331
  0
LINE
  5
4F
100
AcDbEntity
  8
0
  6
CONTINUOUS
 62
               7
100
AcDbLine
 10
2.3100000000000001
 20
7.0499999999999998
 30
0.0
 11
2.75
 21
6.2999999999999998
 31
0.0
  0
LINE
  5
50
100
AcDbEntity
  8
0
  6
CONTINUOUS
 62
               7
100
AcDbLine
 10
2.3100000000000001
 20
12.15
 30
0.0
 11
2.75
 21
12.9
 31
0.0
  0
LINE
  5
51
100
AcDbEntity
  8
0
  6
CONTINUOUS
 62
               7
100
AcDbLine
 10
2.3100000000000001
 20
12.15
 30
0.0
 11
2.3100000000000001
 21
7.0499999999999998
 31
0.0
  0
LINE
  5
52
100
AcDbEntity
  8
0
  6
CONTINUOUS
 62
               7
100
AcDbLine
 10
0.0
 20
12.9
 30
0.0
 11
6.5
 21
12.9
 31
0.0
  0
LINE
  5
53
100
AcDbEntity
  8
0
  6
CONTINUOUS
 62
               7
100
AcDbLine
 10
-2.75
 20
6.2999999999999998
 30
0.0
 11
6.5
 21
6.2999999999999998
 31
0.0
  0
LINE
  5
54
100
AcDbEntity
  8
0
  6
CONTINUOUS
 62
               7
100
AcDbLine
 10
6.5
 20
6.2999999999999998
 30
0.0
 11
8.0
 21
6.8499999999999996
 31
0.0
  0
LINE
  5
55
100
AcDbEntity
  8
0
  6
CONTINUOUS
 62
               7
100
AcDbLine
 10
6.5
 20
12.9
 30
0.0
 11
6.5
 21
6.2999999999999998
 31
0.0
  0
LINE
  5
56
100
AcDbEntity
  8
0
  6
CONTINUOUS
 62
               7
100
AcDbLine
 10
6.5
 20
12.9
 30
0.0
 11
8.0
 21
12.35
 31
0.0
  0
LINE
  5
57
100
AcDbEntity
  8
0
  6
CONTINUOUS
 62
               7
100
AcDbLine
 10
8.0
 20
12.35
 30
0.0
 11
8.0
 21
6.8499999999999996
 31
0.0
  0
LINE
  5
58
100
AcDbEntity
  8
0
  6
CONTINUOUS
 62
               7
100
AcDbLine
 10
8.0
 20
12.35
 30
0.0
 11
9.1999999999999993
 21
12.35
 31
0.0
  0
LINE
  5
59
100
AcDbEntity
  8
0
  6
CONTINUOUS
 62
               7
100
AcDbLine
 10
9.1999999999999993
 20
12.35
 30
0.0
 11
9.1999999999999993
 21
6.8499999999999996
 31
0.0
  0
LINE
  5
5A
100
AcDbEntity
  8
0
  6
CONTINUOUS
 62
               7
100
AcDbLine
 10
8.0
 20
6.8499999999999996
 30
0.0
 11
9.1999999999999993
 21
6.8499999999999996
 31
0.0
  0
LINE
  5
5B
100
AcDbEntity
  8
0
  6
CONTINUOUS
 62
               7
100
AcDbLine
 10
9.5999999999999996
 20
6.0999999999999996
 30
0.0
 11
10.800000000000001
 21
6.0999999999999996
 31
0.0
  0
LINE
  5
5C
100
AcDbEntity
  8
0
  6
CONTINUOUS
 62
               7
100
AcDbLine
 10
9.1999999999999993
 20
7.5999999999999996
 30
0.0
 11
9.5999999999999996
 21
7.5999999999999996
 31
0.0
  0
LINE
  5
5D
100
AcDbEntity
  8
0
  6
CONTINUOUS
 62
               7
100
AcDbLine
 10
9.1999999999999993
 20
11.6
 30
0.0
 11
9.5999999999999996
 21
11.6
 31
0.0
  0
LINE
  5
5E
100
AcDbEntity
  8
0
  6
CONTINUOUS
 62
               7
100
AcDbLine
 10
9.5999999999999996
 20
13.1
 30
0.0
 11
9.5999999999999996
 21
6.0999999999999996
 31
0.0
  0
LINE
  5
5F
100
AcDbEntity
  8
0
  6
CONTINUOUS
 62
               7
100
AcDbLine
 10
10.800000000000001
 20
13.1
 30
0.0
 11
10.800000000000001
 21
6.0999999999999996
 31
0.0
  0
LINE
  5
60
100
AcDbEntity
  8
0
  6
CONTINUOUS
 62
               7
100
AcDbLine
 10
9.5999999999999996
 20
13.1
 30
0.0
 11
10.800000000000001
 21
13.1
 31
0.0
  0
LINE
  5
61
100
AcDbEntity
  8
0
  6
CONTINUOUS
 62
               7
100
AcDbLine
 10
2.75
 20
6.2999999999999998
 30
0.0
 11
2.0
 21
6.7300000000000004
 31
0.0
  0
LINE
  5
62
100
AcDbEntity
  8
0
  6
CONTINUOUS
 62
               7
100
AcDbLine
 10
-2.75
 20
6.2999999999999998
 30
0.0
 11
-2.0
 21
6.7300000000000004
 31
0.0
  0
LINE
  5
63
100
AcDbEntity
  8
0
  6
CONTINUOUS
 62
               7
100
AcDbLine
 10
0.0
 20
9.5999999999999996
 30
0.0
 11
2.0
 21
7.0499999999999998
 31
0.0
  0
LINE
  5
64
100
AcDbEntity
  8
0
  6
CONTINUOUS
 62
               7
100
AcDbLine
 10
2.0
 20
6.7300000000000004
 30
0.0
 11
2.0
 21
7.0499999999999998
 31
0.0
  0
LINE
  5
65
100
AcDbEntity
  8
0
  6
CONTINUOUS
 62
               7
100
AcDbLine
 10
2.0
 20
7.0499999999999998
 30
0.0
 11
2.3100000000000001
 21
7.0499999999999998
 31
0.0
  0
LINE
  5
66
100
AcDbEntity
  8
0
  6
CONTINUOUS
 62
               7
100
AcDbLine
 10
-2.0
 20
6.7300000000000004
 30
0.0
 11
2.0
 21
6.7300000000000004
 31
0.0
  0
LINE
  5
67
100
AcDbEntity
  8
0
  6
CONTINUOUS
 62
               7
100
AcDbLine
 10
0.0
 20
12.15
 30
0.0
 11
2.3100000000000001
 21
12.15
 31
0.0
  0
LINE
  5
68
100
AcDbEntity
  8
0
  6
CONTINUOUS
 62
               7
100
AcDbLine
 10
2.75
 20
5.7000000000000002
 30
0.0
 11
2.75
 21
12.9
 31
0.0
  0
LINE
  5
69
100
AcDbEntity
  8
0
  6
CONTINUOUS
 62
               7
100
AcDbLine
 10
-2.75
 20
5.7000000000000002
 30
0.0
 11
-2.75
 21
10.15
 31
0.0
  0
LINE
  5
6A
100
AcDbEntity
  8
0
  6
CONTINUOUS
 62
               7
100
AcDbLine
 10
-2.0
 20
6.7300000000000004
 30
0.0
 11
-2.0
 21
10.15
 31
0.0
  0
LINE
  5
6C
100
AcDbEntity
  8
0
  6
CENTER
 62
               2
100
AcDbLine
 10
-3.6400000000000001
 20
9.5999999999999996
 30
0.0
 11
11.800000000000001
 21
9.5999999999999996
 31
0.0
  0
LINE
  5
6D
100
AcDbEntity
  8
0
  6
CONTINUOUS
 62
               7
100
AcDbLine
 10
-2.75
 20
0.0
 30
0.0
 11
2.75
 21
0.0
 31
0.0
  0
LINE
  5
6E
100
AcDbEntity
  8
0
  6
CONTINUOUS
 62
               7
100
AcDbLine
 10
-2.75
 20
0.7
 30
0.0
 11
2.75
 21
0.7
 31
0.0
  0
LINE
  5
6F
100
AcDbEntity
  8
0
  6
CONTINUOUS
 62
               7
100
AcDbLine
 10
-2.75
 20
2.2000000000000002
 30
0.0
 11
-3.2000000000000002
 21
2.46
 31
0.0
  0
LINE
  5
70
100
AcDbEntity
  8
0
  6
CONTINUOUS
 62
               7
100
AcDbLine
 10
2.75
 20
2.2000000000000002
 30
0.0
 11
3.2000000000000002
 21
2.46
 31
0.0
  0
LINE
  5
71
100
AcDbEntity
  8
0
  6
CONTINUOUS
 62
               7
100
AcDbLine
 10
-2.75
 20
5.7000000000000002
 30
0.0
 11
-3.2000000000000002
 21
5.4400000000000004
 31
0.0
  0
LINE
  5
72
100
AcDbEntity
  8
0
  6
CONTINUOUS
 62
               7
100
AcDbLine
 10
2.75
 20
5.7000000000000002
 30
0.0
 11
3.2000000000000002
 21
5.4400000000000004
 31
0.0
  0
LINE
  5
73
100
AcDbEntity
  8
0
  6
CONTINUOUS
 62
               7
100
AcDbLine
 10
-1.5800000000000001
 20
2.46
 30
0.0
 11
-1.5800000000000001
 21
5.4400000000000004
 31
0.0
  0
LINE
  5
74
100
AcDbEntity
  8
0
  6
CONTINUOUS
 62
               7
100
AcDbLine
 10
1.5800000000000001
 20
2.46
 30
0.0
 11
1.5800000000000001
 21
5.4400000000000004
 31
0.0
  0
LINE
  5
75
100
AcDbEntity
  8
0
  6
CONTINUOUS
 62
               7
100
AcDbLine
 10
-2.75
 20
2.2000000000000002
 30
0.0
 11
2.75
 21
2.2000000000000002
 31
0.0
  0
LINE
  5
76
100
AcDbEntity
  8
0
  6
CONTINUOUS
 62
               7
100
AcDbLine
 10
-2.75
 20
5.7000000000000002
 30
0.0
 11
2.75
 21
5.7000000000000002
 31
0.0
  0
LINE
  5
77
100
AcDbEntity
  8
0
  6
CONTINUOUS
 62
               7
100
AcDbLine
 10
3.2000000000000002
 20
2.46
 30
0.0
 11
3.2000000000000002
 21
5.4400000000000004
 31
0.0
  0
LINE
  5
78
100
AcDbEntity
  8
0
  6
CONTINUOUS
 62
               7
100
AcDbLine
 10
-3.2000000000000002
 20
2.46
 30
0.0
 11
-3.2000000000000002
 21
5.4400000000000004
 31
0.0
  0
LINE
  5
79
100
AcDbEntity
  8
0
  6
CONTINUOUS
 62
               7
100
AcDbLine
 10
-2.75
 20
0.0
 30
0.0
 11
-2.75
 21
2.2000000000000002
 31
0.0
  0
LINE
  5
7A
100
AcDbEntity
  8
0
  6
CONTINUOUS
 62
               7
100
AcDbLine
 10
2.75
 20
0.0
 30
0.0
 11
2.75
 21
2.2000000000000002
 31
0.0
  0
LINE
  5
7B
100
AcDbEntity
  8
0
  6
CONTINUOUS
 62
               2
100
AcDbLine
 10
-1.22
 20
-2.3999999999999999
 30
0.0
 11
-1.22
 21
0.0
 31
0.0
  0
LINE
  5
7C
100
AcDbEntity
  8
0
  6
CONTINUOUS
 62
               2
100
AcDbLine
 10
1.22
 20
-2.3999999999999999
 30
0.0
 11
1.22
 21
0.0
 31
0.0
  0
LINE
  5
7D
100
AcDbEntity
  8
0
  6
CONTINUOUS
 62
               7
100
AcDbLine
 10
-1.5
 20
-2.3999999999999999
 30
0.0
 11
-1.5
 21
0.0
 31
0.0
  0
LINE
  5
7E
100
AcDbEntity
  8
0
  6
CONTINUOUS
 62
               7
100
AcDbLine
 10
1.5
 20
-2.3999999999999999
 30
0.0
 11
1.5
 21
0.0
 31
0.0
  0
LINE
  5
7F
100
AcDbEntity
  8
0
  6
CENTER
 62
               2
100
AcDbLine
 10
0.0
 20
-3.6899999999999999
 30
0.0
 11
0.0
 21
14.66
 31
0.0
  0
LINE
  5
80
100
AcDbEntity
  8
0
  6
CONTINUOUS
 62
               7
100
AcDbLine
 10
-1.5
 20
-2.3999999999999999
 30
0.0
 11
1.5
 21
-2.3999999999999999
 31
0.0
  0
ENDBLK
  5
81
100
AcDbEntity
  8
0
100
AcDbBlockEnd
  0
BLOCK
  5
82
100
AcDbEntity
  8
0
100
AcDbBlockBegin
  2
MS_2
 70
               0
 10
0.0
 20
0.0
 30
0.0
  3
MS_2
  1

  0
ARC
  5
83
100
AcDbEntity
  8
0
  6
CONTINUOUS
 62
               7
100
AcDbCircle
 10
0.0040570785687867
 20
-0.0031465589081612
 30
0.0
 40
1.9968575625434157
100
AcDbArc
 50
194.40755887533339
 51
269.88359027532476
  0
ARC
  5
84
100
AcDbEntity
  8
0
  6
CONTINUOUS
 62
               7
100
AcDbCircle
 10
0.0040570785687867
 20
0.0031465589081612
 30
0.0
 40
1.9968575625434157
100
AcDbArc
 50
90.116409724674455
 51
165.59244112466581
  0
ARC
  5
85
100
AcDbEntity
  8
0
  6
CONTINUOUS
 62
               7
100
AcDbCircle
 10
0.0000000000000002
 20
0.0
 30
0.0
 40
2.7475807540452744
100
AcDbArc
 50
58.392497753750966
 51
301.6075022462482
  0
LINE
  5
86
100
AcDbEntity
  8
0
  6
CONTINUOUS
 62
               7
100
AcDbLine
 10
2.75
 20
-0.5
 30
0.0
 11
2.75
 21
-3.2999999999999998
 31
0.0
  0
LINE
  5
87
100
AcDbEntity
  8
0
  6
CONTINUOUS
 62
               7
100
AcDbLine
 10
2.3100000000000001
 20
-2.5499999999999998
 30
0.0
 11
2.3100000000000001
 21
-0.5
 31
0.0
  0
LINE
  5
88
100
AcDbEntity
  8
0
  6
CONTINUOUS
 62
               7
100
AcDbLine
 10
-2.7000000000000002
 20
-0.5
 30
0.0
 11
2.75
 21
-0.5
 31
0.0
  0
LINE
  5
89
100
AcDbEntity
  8
0
  6
CONTINUOUS
 62
               7
100
AcDbLine
 10
-2.7000000000000002
 20
0.5
 30
0.0
 11
2.75
 21
0.5
 31
0.0
  0
LINE
  5
8A
100
AcDbEntity
  8
0
  6
CONTINUOUS
 62
               7
100
AcDbLine
 10
0.0
 20
2.0
 30
0.0
 11
2.3100000000000001
 21
2.5499999999999998
 31
0.0
  0
LINE
  5
8B
100
AcDbEntity
  8
0
  6
CONTINUOUS
 62
               7
100
AcDbLine
 10
0.0
 20
-2.0
 30
0.0
 11
2.3100000000000001
 21
-2.5499999999999998
 31
0.0
  0
LINE
  5
8C
100
AcDbEntity
  8
0
  6
CONTINUOUS
 62
               7
100
AcDbLine
 10
2.75
 20
3.2999999999999998
 30
0.0
 11
2.75
 21
0.5
 31
0.0
  0
LINE
  5
8D
100
AcDbEntity
  8
0
  6
CONTINUOUS
 62
               7
100
AcDbLine
 10
-1.5800000000000001
 20
-2.75
 30
0.0
 11
1.5800000000000001
 21
-2.75
 31
0.0
  0
LINE
  5
8E
100
AcDbEntity
  8
0
  6
CONTINUOUS
 62
               7
100
AcDbLine
 10
-3.1699999999999999
 20
0.0
 30
0.0
 11
-1.5800000000000001
 21
-2.75
 31
0.0
  0
LINE
  5
8F
100
AcDbEntity
  8
0
  6
CONTINUOUS
 62
               7
100
AcDbLine
 10
-1.5800000000000001
 20
2.75
 30
0.0
 11
-3.1699999999999999
 21
0.0
 31
0.0
  0
LINE
  5
90
100
AcDbEntity
  8
0
  6
CONTINUOUS
 62
               7
100
AcDbLine
 10
1.5800000000000001
 20
2.75
 30
0.0
 11
-1.5800000000000001
 21
2.75
 31
0.0
  0
LINE
  5
91
100
AcDbEntity
  8
0
  6
CONTINUOUS
 62
               7
100
AcDbLine
 10
1.77
 20
2.4199999999999999
 30
0.0
 11
1.5800000000000001
 21
2.75
 31
0.0
  0
LINE
  5
92
100
AcDbEntity
  8
0
  6
CONTINUOUS
 62
               7
100
AcDbLine
 10
1.5800000000000001
 20
-2.75
 30
0.0
 11
1.77
 21
-2.4199999999999999
 31
0.0
  0
LINE
  5
93
100
AcDbEntity
  8
0
  6
CENTER
 62
               2
100
AcDbLine
 10
0.0
 20
4.2699999999999996
 30
0.0
 11
0.0
 21
-4.1100000000000003
 31
0.0
  0
LINE
  5
94
100
AcDbEntity
  8
0
  6
CENTER
 62
               2
100
AcDbLine
 10
-4.1299999999999999
 20
0.0
 30
0.0
 11
11.800000000000001
 21
0.0
 31
0.0
  0
LINE
  5
95
100
AcDbEntity
  8
0
  6
CONTINUOUS
 62
               7
100
AcDbLine
 10
2.3100000000000001
 20
-2.5499999999999998
 30
0.0
 11
2.75
 21
-3.2999999999999998
 31
0.0
  0
LINE
  5
96
100
AcDbEntity
  8
0
  6
CONTINUOUS
 62
               7
100
AcDbLine
 10
2.3100000000000001
 20
2.5499999999999998
 30
0.0
 11
2.3100000000000001
 21
0.5
 31
0.0
  0
LINE
  5
97
100
AcDbEntity
  8
0
  6
CONTINUOUS
 62
               7
100
AcDbLine
 10
2.3100000000000001
 20
2.5499999999999998
 30
0.0
 11
2.75
 21
3.2999999999999998
 31
0.0
  0
LINE
  5
98
100
AcDbEntity
  8
0
  6
CONTINUOUS
 62
               7
100
AcDbLine
 10
2.75
 20
3.2999999999999998
 30
0.0
 11
6.5
 21
3.2999999999999998
 31
0.0
  0
LINE
  5
99
100
AcDbEntity
  8
0
  6
CONTINUOUS
 62
               7
100
AcDbLine
 10
6.5
 20
-3.2999999999999998
 30
0.0
 11
8.0
 21
-2.75
 31
0.0
  0
LINE
  5
9A
100
AcDbEntity
  8
0
  6
CONTINUOUS
 62
               7
100
AcDbLine
 10
6.5
 20
3.2999999999999998
 30
0.0
 11
8.0
 21
2.75
 31
0.0
  0
LINE
  5
9B
100
AcDbEntity
  8
0
  6
CONTINUOUS
 62
               7
100
AcDbLine
 10
6.5
 20
3.2999999999999998
 30
0.0
 11
6.5
 21
-3.2999999999999998
 31
0.0
  0
LINE
  5
9C
100
AcDbEntity
  8
0
  6
CONTINUOUS
 62
               7
100
AcDbLine
 10
8.0
 20
2.75
 30
0.0
 11
8.0
 21
-2.75
 31
0.0
  0
LINE
  5
9D
100
AcDbEntity
  8
0
  6
CONTINUOUS
 62
               7
100
AcDbLine
 10
2.75
 20
-3.2999999999999998
 30
0.0
 11
6.5
 21
-3.2999999999999998
 31
0.0
  0
LINE
  5
9E
100
AcDbEntity
  8
0
  6
CONTINUOUS
 62
               7
100
AcDbLine
 10
9.1999999999999993
 20
2.75
 30
0.0
 11
9.1999999999999993
 21
-2.75
 31
0.0
  0
LINE
  5
9F
100
AcDbEntity
  8
0
  6
CONTINUOUS
 62
               7
100
AcDbLine
 10
9.1999999999999993
 20
-2.0
 30
0.0
 11
9.5999999999999996
 21
-2.0
 31
0.0
  0
LINE
  5
A0
100
AcDbEntity
  8
0
  6
CONTINUOUS
 62
               7
100
AcDbLine
 10
9.1999999999999993
 20
2.0
 30
0.0
 11
9.5999999999999996
 21
2.0
 31
0.0
  0
LINE
  5
A1
100
AcDbEntity
  8
0
  6
CONTINUOUS
 62
               7
100
AcDbLine
 10
8.0
 20
-2.75
 30
0.0
 11
9.1999999999999993
 21
-2.75
 31
0.0
  0
LINE
  5
A2
100
AcDbEntity
  8
0
  6
CONTINUOUS
 62
               7
100
AcDbLine
 10
8.0
 20
2.75
 30
0.0
 11
9.1999999999999993
 21
2.75
 31
0.0
  0
LINE
  5
A3
100
AcDbEntity
  8
0
  6
CONTINUOUS
 62
               7
100
AcDbLine
 10
9.5999999999999996
 20
3.5
 30
0.0
 11
9.5999999999999996
 21
-3.5
 31
0.0
  0
LINE
  5
A4
100
AcDbEntity
  8
0
  6
CONTINUOUS
 62
               7
100
AcDbLine
 10
9.5999999999999996
 20
3.5
 30
0.0
 11
10.800000000000001
 21
3.5
 31
0.0
  0
LINE
  5
A5
100
AcDbEntity
  8
0
  6
CONTINUOUS
 62
               7
100
AcDbLine
 10
10.800000000000001
 20
3.5
 30
0.0
 11
10.800000000000001
 21
-3.5
 31
0.0
  0
LINE
  5
A6
100
AcDbEntity
  8
0
  6
CONTINUOUS
 62
               7
100
AcDbLine
 10
9.5999999999999996
 20
-3.5
 30
0.0
 11
10.800000000000001
 21
-3.5
 31
0.0
  0
ENDBLK
  5
A7
100
AcDbEntity
  8
0
100
AcDbBlockEnd
  0
BLOCK
  5
A8
100
AcDbEntity
  8
0
100
AcDbBlockBegin
  2
MS_3
 70
               0
 10
0.0
 20
0.0
 30
0.0
  3
MS_3
  1

  0
ARC
  5
A9
100
AcDbEntity
  8
0
  6
CONTINUOUS
 62
               7
100
AcDbCircle
 10
0.0002424489489459
 20
10.16369261516671
 30
0.0
 40
1.9997609603131268
100
AcDbArc
 50
359.89420166267354
 51
75.527893690105259
  0
ARC
  5
AA
100
AcDbEntity
  8
0
  6
CONTINUOUS
 62
               7
100
AcDbCircle
 10
-0.0002424489489459
 20
10.16369261516671
 30
0.0
 40
1.9997609603131268
100
AcDbArc
 50
104.47210630989434
 51
180.10579833732524
  0
ARC
  5
AB
100
AcDbEntity
  8
0
  6
CONTINUOUS
 62
               7
100
AcDbCircle
 10
-0.0011090010195112
 20
9.5969715162663238
 30
0.0
 40
2.5522624902712989
100
AcDbArc
 50
101.27218670843729
 51
218.44697428285099
  0
ARC
  5
AC
100
AcDbEntity
  8
0
  6
CONTINUOUS
 62
               7
100
AcDbCircle
 10
0.0
 20
9.5999984741210937
 30
0.0
 40
3.304072029160273
100
AcDbArc
 50
307.25141745214711
 51
232.74858254785167
  0
ARC
  5
AD
100
AcDbEntity
  8
0
  6
CONTINUOUS
 62
               7
100
AcDbCircle
 10
-1.375
 20
1.931604385375977
 30
0.0
 40
3.7682177204499583
100
AcDbArc
 50
68.5989411724848
 51
111.4010588275148
  0
ARC
  5
AE
100
AcDbEntity
  8
0
  6
CONTINUOUS
 62
               7
100
AcDbCircle
 10
1.375
 20
1.931604385375977
 30
0.0
 40
3.7682177204499583
100
AcDbArc
 50
68.5989411724848
 51
111.4010588275148
  0
ARC
  5
AF
100
AcDbEntity
  8
0
  6
CONTINUOUS
 62
               7
100
AcDbCircle
 10
-1.375
 20
5.9683952331542969
 30
0.0
 40
3.7682173652829256
100
AcDbArc
 50
248.59893905600774
 51
291.40106094399101
  0
ARC
  5
B0
100
AcDbEntity
  8
0
  6
CONTINUOUS
 62
               7
100
AcDbCircle
 10
1.375
 20
5.9683952331542969
 30
0.0
 40
3.7682173652829256
100
AcDbArc
 50
248.59893905600774
 51
291.40106094399101
  0
ARC
  5
B1
100
AcDbEntity
  8
0
  6
CONTINUOUS
 62
               7
100
AcDbCircle
 10
0.0011090010195112
 20
9.5969715162663238
 30
0.0
 40
2.5522624902712989
100
AcDbArc
 50
321.55302571714776
 51
78.727813291562313
  0
ARC
  5
B2
100
AcDbEntity
  8
0
  6
CONTINUOUS
 62
               7
100
AcDbCircle
 10
0.0
 20
10.099998474121094
 30
0.0
 40
2.9982836765198084
100
AcDbArc
 50
33.160081342008645
 51
146.83991865799095
  0
LINE
  5
B3
100
AcDbEntity
  8
0
  6
CONTINUOUS
 62
               7
100
AcDbLine
 10
0.5
 20
6.7300000000000004
 30
0.0
 11
2.0
 21
6.7300000000000004
 31
0.0
  0
LINE
  5
B4
100
AcDbEntity
  8
0
  6
CONTINUOUS
 62
               7
100
AcDbLine
 10
-0.5
 20
6.2999999999999998
 30
0.0
 11
-2.75
 21
6.2999999999999998
 31
0.0
  0
LINE
  5
B5
100
AcDbEntity
  8
0
  6
CONTINUOUS
 62
               7
100
AcDbLine
 10
-0.5
 20
6.2999999999999998
 30
0.0
 11
-0.5
 21
12.859999999999999
 31
0.0
  0
LINE
  5
B6
100
AcDbEntity
  8
0
  6
CONTINUOUS
 62
               7
100
AcDbLine
 10
0.5
 20
6.2999999999999998
 30
0.0
 11
0.5
 21
12.859999999999999
 31
0.0
  0
LINE
  5
B7
100
AcDbEntity
  8
0
  6
CONTINUOUS
 62
               7
100
AcDbLine
 10
-2.0
 20
6.7300000000000004
 30
0.0
 11
-0.5
 21
6.7300000000000004
 31
0.0
  0
LINE
  5
B8
100
AcDbEntity
  8
0
  6
CONTINUOUS
 62
               7
100
AcDbLine
 10
-2.0
 20
6.7300000000000004
 30
0.0
 11
-2.0
 21
10.16
 31
0.0
  0
LINE
  5
B9
100
AcDbEntity
  8
0
  6
CONTINUOUS
 62
               7
100
AcDbLine
 10
2.0
 20
6.7300000000000004
 30
0.0
 11
2.0
 21
10.16
 31
0.0
  0
LINE
  5
BA
100
AcDbEntity
  8
0
  6
CONTINUOUS
 62
               7
100
AcDbLine
 10
2.75
 20
6.2999999999999998
 30
0.0
 11
0.5
 21
6.2999999999999998
 31
0.0
  0
LINE
  5
BB
100
AcDbEntity
  8
0
  6
CONTINUOUS
 62
               7
100
AcDbLine
 10
0.0
 20
2.46
 30
0.0
 11
0.0
 21
5.4400000000000004
 31
0.0
  0
LINE
  5
BC
100
AcDbEntity
  8
0
  6
CONTINUOUS
 62
               7
100
AcDbLine
 10
-2.75
 20
0.7
 30
0.0
 11
2.75
 21
0.7
 31
0.0
  0
LINE
  5
BD
100
AcDbEntity
  8
0
  6
CONTINUOUS
 62
               7
100
AcDbLine
 10
-2.75
 20
0.0
 30
0.0
 11
2.75
 21
0.0
 31
0.0
  0
LINE
  5
BE
100
AcDbEntity
  8
0
  6
CONTINUOUS
 62
               7
100
AcDbLine
 10
-2.75
 20
2.2000000000000002
 30
0.0
 11
2.75
 21
2.2000000000000002
 31
0.0
  0
LINE
  5
BF
100
AcDbEntity
  8
0
  6
CONTINUOUS
 62
               7
100
AcDbLine
 10
-2.75
 20
5.7000000000000002
 30
0.0
 11
2.75
 21
5.7000000000000002
 31
0.0
  0
LINE
  5
C0
100
AcDbEntity
  8
0
  6
CONTINUOUS
 62
               7
100
AcDbLine
 10
-2.75
 20
0.0
 30
0.0
 11
-2.75
 21
6.2999999999999998
 31
0.0
  0
LINE
  5
C1
100
AcDbEntity
  8
0
  6
CONTINUOUS
 62
               7
100
AcDbLine
 10
2.75
 20
0.0
 30
0.0
 11
2.75
 21
6.2999999999999998
 31
0.0
  0
LINE
  5
C2
100
AcDbEntity
  8
0
  6
CONTINUOUS
 62
               2
100
AcDbLine
 10
-1.22
 20
-2.3999999999999999
 30
0.0
 11
-1.22
 21
0.0
 31
0.0
  0
LINE
  5
C3
100
AcDbEntity
  8
0
  6
CONTINUOUS
 62
               2
100
AcDbLine
 10
1.22
 20
-2.3999999999999999
 30
0.0
 11
1.22
 21
0.0
 31
0.0
  0
LINE
  5
C4
100
AcDbEntity
  8
0
  6
CONTINUOUS
 62
               7
100
AcDbLine
 10
-1.5
 20
-2.3999999999999999
 30
0.0
 11
-1.5
 21
0.0
 31
0.0
  0
LINE
  5
C5
100
AcDbEntity
  8
0
  6
CONTINUOUS
 62
               7
100
AcDbLine
 10
1.5
 20
-2.3999999999999999
 30
0.0
 11
1.5
 21
0.0
 31
0.0
  0
LINE
  5
C6
100
AcDbEntity
  8
0
  6
CONTINUOUS
 62
               7
100
AcDbLine
 10
-1.5
 20
-2.3999999999999999
 30
0.0
 11
1.5
 21
-2.3999999999999999
 31
0.0
  0
LINE
  5
C7
100
AcDbEntity
  8
0
  6
CONTINUOUS
 62
               7
100
AcDbLine
 10
2.75
 20
6.2999999999999998
 30
0.0
 11
2.0
 21
6.7300000000000004
 31
0.0
  0
LINE
  5
C8
100
AcDbEntity
  8
0
  6
CONTINUOUS
 62
               7
100
AcDbLine
 10
-2.75
 20
6.2999999999999998
 30
0.0
 11
-2.0
 21
6.7300000000000004
 31
0.0
  0
LINE
  5
C9
100
AcDbEntity
  8
0
  6
CENTER
 62
               2
100
AcDbLine
 10
4.2300000000000004
 20
9.5999999999999996
 30
0.0
 11
-4.2300000000000004
 21
9.5999999999999996
 31
0.0
  0
LINE
  5
CA
100
AcDbEntity
  8
0
  6
CENTER
 62
               2
100
AcDbLine
 10
0.0
 20
-3.6899999999999999
 30
0.0
 11
0.0
 21
14.66
 31
0.0
  0
ENDBLK
  5
CB
100
AcDbEntity
  8
0
100
AcDbBlockEnd
  0
BLOCK
  5
CC
100
AcDbEntity
  8
0
100
AcDbBlockBegin
  2
MS_4
 70
               0
 10
0.0
 20
0.0
 30
0.0
  3
MS_4
  1

  0
ARC
  5
CD
100
AcDbEntity
  8
0
  6
CONTINUOUS
 62
               7
100
AcDbCircle
 10
0.0000000000002687
 20
9.5999999999999996
 30
0.0
 40
3.2984390247511546
100
AcDbArc
 50
139.54943379258819
 51
220.45056620741099
  0
ARC
  5
CE
100
AcDbEntity
  8
0
  6
CONTINUOUS
 62
               7
100
AcDbCircle
 10
0.0
 20
9.0999999999999996
 30
0.0
 40
3.0000000000003881
100
AcDbArc
 50
179.9999999999996
 51
0.0
  0
ARC
  5
CF
100
AcDbEntity
  8
0
  6
CONTINUOUS
 62
               7
100
AcDbCircle
 10
0.0
 20
10.1
 30
0.0
 40
3.0000000000003881
100
AcDbArc
 50
0.0
 51
179.9999999999996
  0
ARC
  5
D0
100
AcDbEntity
  8
0
  6
CONTINUOUS
 62
               7
100
AcDbCircle
 10
-0.0000000000002687
 20
9.5999999999999996
 30
0.0
 40
3.2984390247511546
100
AcDbArc
 50
319.54943379258782
 51
40.450566207411391
  0
ARC
  5
D1
100
AcDbEntity
  8
0
  6
CONTINUOUS
 62
               7
100
AcDbCircle
 10
-1.375
 20
1.931604385375977
 30
0.0
 40
3.7682177204499583
100
AcDbArc
 50
68.5989411724848
 51
111.4010588275148
  0
ARC
  5
D2
100
AcDbEntity
  8
0
  6
CONTINUOUS
 62
               7
100
AcDbCircle
 10
1.375
 20
1.931604385375977
 30
0.0
 40
3.7682177204499583
100
AcDbArc
 50
68.5989411724848
 51
111.4010588275148
  0
ARC
  5
D3
100
AcDbEntity
  8
0
  6
CONTINUOUS
 62
               7
100
AcDbCircle
 10
-1.375
 20
5.9683952331542969
 30
0.0
 40
3.7682173652829256
100
AcDbArc
 50
248.59893905600774
 51
291.40106094399101
  0
ARC
  5
D4
100
AcDbEntity
  8
0
  6
CONTINUOUS
 62
               7
100
AcDbCircle
 10
1.375
 20
5.9683952331542969
 30
0.0
 40
3.7682173652829256
100
AcDbArc
 50
248.59893905600774
 51
291.40106094399101
  0
CIRCLE
  5
D5
100
AcDbEntity
  8
0
  6
CONTINUOUS
 62
               7
100
AcDbCircle
 10
0.0
 20
9.5999984741210937
 30
0.0
 40
1.5
  0
LINE
  5
D6
100
AcDbEntity
  8
0
  6
CONTINUOUS
 62
               7
100
AcDbLine
 10
2.0
 20
6.8600000000000003
 30
0.0
 11
2.0
 21
6.7300000000000004
 31
0.0
  0
LINE
  5
D7
100
AcDbEntity
  8
0
  6
CONTINUOUS
 62
               7
100
AcDbLine
 10
-2.0
 20
6.8600000000000003
 30
0.0
 11
-2.0
 21
6.7300000000000004
 31
0.0
  0
LINE
  5
D8
100
AcDbEntity
  8
0
  6
CONTINUOUS
 62
               7
100
AcDbLine
 10
1.8400000000000001
 20
6.7300000000000004
 30
0.0
 11
2.0
 21
6.7300000000000004
 31
0.0
  0
LINE
  5
D9
100
AcDbEntity
  8
0
  6
CONTINUOUS
 62
               7
100
AcDbLine
 10
-1.0700000000000001
 20
6.2999999999999998
 30
0.0
 11
-2.75
 21
6.2999999999999998
 31
0.0
  0
LINE
  5
DA
100
AcDbEntity
  8
0
  6
CONTINUOUS
 62
               7
100
AcDbLine
 10
-3.0
 20
10.1
 30
0.0
 11
-3.0
 21
9.0999999999999996
 31
0.0
  0
LINE
  5
DB
100
AcDbEntity
  8
0
  6
CONTINUOUS
 62
               7
100
AcDbLine
 10
3.0
 20
10.1
 30
0.0
 11
3.0
 21
9.0999999999999996
 31
0.0
  0
LINE
  5
DC
100
AcDbEntity
  8
0
  6
CONTINUOUS
 62
               7
100
AcDbLine
 10
-2.0
 20
6.7300000000000004
 30
0.0
 11
-1.8400000000000001
 21
6.7300000000000004
 31
0.0
  0
LINE
  5
DD
100
AcDbEntity
  8
0
  6
CONTINUOUS
 62
               7
100
AcDbLine
 10
2.75
 20
6.2999999999999998
 30
0.0
 11
1.0700000000000001
 21
6.2999999999999998
 31
0.0
  0
LINE
  5
DE
100
AcDbEntity
  8
0
  6
CONTINUOUS
 62
               7
100
AcDbLine
 10
0.0
 20
2.46
 30
0.0
 11
0.0
 21
5.4400000000000004
 31
0.0
  0
LINE
  5
DF
100
AcDbEntity
  8
0
  6
CONTINUOUS
 62
               7
100
AcDbLine
 10
-2.75
 20
0.7
 30
0.0
 11
2.75
 21
0.7
 31
0.0
  0
LINE
  5
E0
100
AcDbEntity
  8
0
  6
CONTINUOUS
 62
               7
100
AcDbLine
 10
-2.75
 20
0.0
 30
0.0
 11
2.75
 21
0.0
 31
0.0
  0
LINE
  5
E1
100
AcDbEntity
  8
0
  6
CONTINUOUS
 62
               7
100
AcDbLine
 10
-2.75
 20
2.2000000000000002
 30
0.0
 11
2.75
 21
2.2000000000000002
 31
0.0
  0
LINE
  5
E2
100
AcDbEntity
  8
0
  6
CONTINUOUS
 62
               7
100
AcDbLine
 10
-2.75
 20
5.7000000000000002
 30
0.0
 11
2.75
 21
5.7000000000000002
 31
0.0
  0
LINE
  5
E3
100
AcDbEntity
  8
0
  6
CONTINUOUS
 62
               7
100
AcDbLine
 10
-2.75
 20
0.0
 30
0.0
 11
-2.75
 21
6.2999999999999998
 31
0.0
  0
LINE
  5
E4
100
AcDbEntity
  8
0
  6
CONTINUOUS
 62
               7
100
AcDbLine
 10
2.75
 20
0.0
 30
0.0
 11
2.75
 21
6.2999999999999998
 31
0.0
  0
LINE
  5
E5
100
AcDbEntity
  8
0
  6
CONTINUOUS
 62
               2
100
AcDbLine
 10
-1.22
 20
-2.3999999999999999
 30
0.0
 11
-1.22
 21
0.0
 31
0.0
  0
LINE
  5
E6
100
AcDbEntity
  8
0
  6
CONTINUOUS
 62
               2
100
AcDbLine
 10
1.22
 20
-2.3999999999999999
 30
0.0
 11
1.22
 21
0.0
 31
0.0
  0
LINE
  5
E7
100
AcDbEntity
  8
0
  6
CONTINUOUS
 62
               7
100
AcDbLine
 10
-1.5
 20
-2.3999999999999999
 30
0.0
 11
-1.5
 21
0.0
 31
0.0
  0
LINE
  5
E8
100
AcDbEntity
  8
0
  6
CONTINUOUS
 62
               7
100
AcDbLine
 10
1.5
 20
-2.3999999999999999
 30
0.0
 11
1.5
 21
0.0
 31
0.0
  0
LINE
  5
E9
100
AcDbEntity
  8
0
  6
CONTINUOUS
 62
               7
100
AcDbLine
 10
-1.5
 20
-2.3999999999999999
 30
0.0
 11
1.5
 21
-2.3999999999999999
 31
0.0
  0
LINE
  5
EA
100
AcDbEntity
  8
0
  6
CONTINUOUS
 62
               7
100
AcDbLine
 10
2.75
 20
6.2999999999999998
 30
0.0
 11
2.0
 21
6.7300000000000004
 31
0.0
  0
LINE
  5
EB
100
AcDbEntity
  8
0
  6
CONTINUOUS
 62
               7
100
AcDbLine
 10
-2.75
 20
6.2999999999999998
 30
0.0
 11
-2.0
 21
6.7300000000000004
 31
0.0
  0
LINE
  5
EC
100
AcDbEntity
  8
0
  6
CENTER
 62
               2
100
AcDbLine
 10
-4.6200000000000001
 20
9.5999999999999996
 30
0.0
 11
4.5899999999999999
 21
9.5999999999999996
 31
0.0
  0
LINE
  5
ED
100
AcDbEntity
  8
0
  6
CENTER
 62
               2
100
AcDbLine
 10
0.0
 20
14.66
 30
0.0
 11
0.0
 21
-3.6899999999999999
 31
0.0
  0
ENDBLK
  5
EE
100
AcDbEntity
  8
0
100
AcDbBlockEnd
  0
BLOCK
  5
EF
100
AcDbEntity
  8
0
100
AcDbBlockBegin
  2
MS_5
 70
               0
 10
0.0
 20
0.0
 30
0.0
  3
MS_5
  1

  0
ARC
  5
F0
100
AcDbEntity
  8
0
  6
CONTINUOUS
 62
               7
100
AcDbCircle
 10
-0.0000021934500525
 20
11.150002193450053
 30
0.0
 40
2.7499978065508222
100
AcDbArc
 50
89.999954299806774
 51
180.00004570019263
  0
ARC
  5
F1
100
AcDbEntity
  8
0
  6
CONTINUOUS
 62
               7
100
AcDbCircle
 10
-0.000002193449725
 20
11.150002193449726
 30
0.0
 40
1.9999978065514781
100
AcDbArc
 50
89.999937162224981
 51
180.00006283777444
  0
ARC
  5
F2
100
AcDbEntity
  8
0
  6
CONTINUOUS
 62
               7
100
AcDbCircle
 10
0.0
 20
9.9427347183227521
 30
0.0
 40
7.6468280791338605
100
AcDbArc
 50
252.49564399417093
 51
287.50435600582784
  0
ARC
  5
F3
100
AcDbEntity
  8
0
  6
CONTINUOUS
 62
               7
100
AcDbCircle
 10
-3.4458132157249941
 20
4.3502666578314093
 30
0.0
 40
2.05031573984673
100
AcDbArc
 50
269.60354918306655
 51
303.97611155930161
  0
ARC
  5
F4
100
AcDbEntity
  8
0
  6
CONTINUOUS
 62
               7
100
AcDbCircle
 10
-3.4591650318821374
 20
4.6538015639353363
 30
0.0
 40
2.0461986064224638
100
AcDbArc
 50
55.493701188880223
 51
90.023380013239489
  0
ARC
  5
F5
100
AcDbEntity
  8
0
  6
CONTINUOUS
 62
               7
100
AcDbCircle
 10
3.4458132157249941
 20
4.3502666578314093
 30
0.0
 40
2.05031573984673
100
AcDbArc
 50
236.02388844069716
 51
270.3964508169322
  0
ARC
  5
F6
100
AcDbEntity
  8
0
  6
CONTINUOUS
 62
               7
100
AcDbCircle
 10
3.4591649474482513
 20
4.6538018360000795
 30
0.0
 40
2.0461983343921988
100
AcDbArc
 50
89.97661761941103
 51
124.50630117846848
  0
ARC
  5
F7
100
AcDbEntity
  8
0
  6
CONTINUOUS
 62
               7
100
AcDbCircle
 10
0.0
 20
-0.9427337646484411
 30
0.0
 40
7.6372908211453137
100
AcDbArc
 50
72.473077128667711
 51
107.52692287133189
  0
LINE
  5
F8
100
AcDbEntity
  8
0
  6
CONTINUOUS
 62
               7
100
AcDbLine
 10
2.3100000000000001
 20
8.0500000000000007
 30
0.0
 11
2.75
 21
7.2999999999999998
 31
0.0
  0
LINE
  5
F9
100
AcDbEntity
  8
0
  6
CONTINUOUS
 62
               7
100
AcDbLine
 10
2.3100000000000001
 20
13.15
 30
0.0
 11
2.75
 21
13.9
 31
0.0
  0
LINE
  5
FA
100
AcDbEntity
  8
0
  6
CONTINUOUS
 62
               7
100
AcDbLine
 10
2.3100000000000001
 20
13.15
 30
0.0
 11
2.3100000000000001
 21
8.0500000000000007
 31
0.0
  0
LINE
  5
FB
100
AcDbEntity
  8
0
  6
CONTINUOUS
 62
               7
100
AcDbLine
 10
0.0
 20
13.9
 30
0.0
 11
6.5
 21
13.9
 31
0.0
  0
LINE
  5
FC
100
AcDbEntity
  8
0
  6
CONTINUOUS
 62
               7
100
AcDbLine
 10
-2.75
 20
7.2999999999999998
 30
0.0
 11
6.5
 21
7.2999999999999998
 31
0.0
  0
LINE
  5
FD
100
AcDbEntity
  8
0
  6
CONTINUOUS
 62
               7
100
AcDbLine
 10
6.5
 20
7.2999999999999998
 30
0.0
 11
8.0
 21
7.8499999999999996
 31
0.0
  0
LINE
  5
FE
100
AcDbEntity
  8
0
  6
CONTINUOUS
 62
               7
100
AcDbLine
 10
6.5
 20
13.9
 30
0.0
 11
6.5
 21
7.2999999999999998
 31
0.0
  0
LINE
  5
FF
100
AcDbEntity
  8
0
  6
CONTINUOUS
 62
               7
100
AcDbLine
 10
6.5
 20
13.9
 30
0.0
 11
8.0
 21
13.35
 31
0.0
  0
LINE
  5
100
100
AcDbEntity
  8
0
  6
CONTINUOUS
 62
               7
100
AcDbLine
 10
8.0
 20
13.35
 30
0.0
 11
8.0
 21
7.8499999999999996
 31
0.0
  0
LINE
  5
101
100
AcDbEntity
  8
0
  6
CONTINUOUS
 62
               7
100
AcDbLine
 10
8.0
 20
13.35
 30
0.0
 11
9.1999999999999993
 21
13.35
 31
0.0
  0
LINE
  5
102
100
AcDbEntity
  8
0
  6
CONTINUOUS
 62
               7
100
AcDbLine
 10
9.1999999999999993
 20
13.35
 30
0.0
 11
9.1999999999999993
 21
7.8499999999999996
 31
0.0
  0
LINE
  5
103
100
AcDbEntity
  8
0
  6
CONTINUOUS
 62
               7
100
AcDbLine
 10
8.0
 20
7.8499999999999996
 30
0.0
 11
9.1999999999999993
 21
7.8499999999999996
 31
0.0
  0
LINE
  5
104
100
AcDbEntity
  8
0
  6
CONTINUOUS
 62
               7
100
AcDbLine
 10
9.5999999999999996
 20
7.0999999999999996
 30
0.0
 11
10.800000000000001
 21
7.0999999999999996
 31
0.0
  0
LINE
  5
105
100
AcDbEntity
  8
0
  6
CONTINUOUS
 62
               7
100
AcDbLine
 10
9.1999999999999993
 20
8.5999999999999996
 30
0.0
 11
9.5999999999999996
 21
8.5999999999999996
 31
0.0
  0
LINE
  5
106
100
AcDbEntity
  8
0
  6
CONTINUOUS
 62
               7
100
AcDbLine
 10
9.1999999999999993
 20
12.6
 30
0.0
 11
9.5999999999999996
 21
12.6
 31
0.0
  0
LINE
  5
107
100
AcDbEntity
  8
0
  6
CONTINUOUS
 62
               7
100
AcDbLine
 10
9.5999999999999996
 20
14.1
 30
0.0
 11
9.5999999999999996
 21
7.0999999999999996
 31
0.0
  0
LINE
  5
108
100
AcDbEntity
  8
0
  6
CONTINUOUS
 62
               7
100
AcDbLine
 10
10.800000000000001
 20
14.1
 30
0.0
 11
10.800000000000001
 21
7.0999999999999996
 31
0.0
  0
LINE
  5
109
100
AcDbEntity
  8
0
  6
CONTINUOUS
 62
               7
100
AcDbLine
 10
9.5999999999999996
 20
14.1
 30
0.0
 11
10.800000000000001
 21
14.1
 31
0.0
  0
LINE
  5
10A
100
AcDbEntity
  8
0
  6
CONTINUOUS
 62
               7
100
AcDbLine
 10
2.75
 20
7.2999999999999998
 30
0.0
 11
2.0
 21
7.7300000000000004
 31
0.0
  0
LINE
  5
10B
100
AcDbEntity
  8
0
  6
CONTINUOUS
 62
               7
100
AcDbLine
 10
-2.75
 20
7.2999999999999998
 30
0.0
 11
-2.0
 21
7.7300000000000004
 31
0.0
  0
LINE
  5
10C
100
AcDbEntity
  8
0
  6
CONTINUOUS
 62
               7
100
AcDbLine
 10
0.0
 20
10.6
 30
0.0
 11
2.0
 21
8.0500000000000007
 31
0.0
  0
LINE
  5
10D
100
AcDbEntity
  8
0
  6
CONTINUOUS
 62
               7
100
AcDbLine
 10
2.0
 20
7.7300000000000004
 30
0.0
 11
2.0
 21
8.0500000000000007
 31
0.0
  0
LINE
  5
10E
100
AcDbEntity
  8
0
  6
CONTINUOUS
 62
               7
100
AcDbLine
 10
2.0
 20
8.0500000000000007
 30
0.0
 11
2.3100000000000001
 21
8.0500000000000007
 31
0.0
  0
LINE
  5
10F
100
AcDbEntity
  8
0
  6
CONTINUOUS
 62
               7
100
AcDbLine
 10
-2.0
 20
7.7300000000000004
 30
0.0
 11
2.0
 21
7.7300000000000004
 31
0.0
  0
LINE
  5
110
100
AcDbEntity
  8
0
  6
CONTINUOUS
 62
               7
100
AcDbLine
 10
0.0
 20
13.15
 30
0.0
 11
2.3100000000000001
 21
13.15
 31
0.0
  0
LINE
  5
111
100
AcDbEntity
  8
0
  6
CONTINUOUS
 62
               7
100
AcDbLine
 10
2.75
 20
6.7000000000000002
 30
0.0
 11
2.75
 21
13.9
 31
0.0
  0
LINE
  5
112
100
AcDbEntity
  8
0
  6
CONTINUOUS
 62
               7
100
AcDbLine
 10
-2.75
 20
6.7000000000000002
 30
0.0
 11
-2.75
 21
11.15
 31
0.0
  0
LINE
  5
113
100
AcDbEntity
  8
0
  6
CONTINUOUS
 62
               7
100
AcDbLine
 10
-2.0
 20
7.7300000000000004
 30
0.0
 11
-2.0
 21
11.15
 31
0.0
  0
LINE
  5
114
100
AcDbEntity
  8
0
  6
CENTER
 62
               2
100
AcDbLine
 10
-3.6400000000000001
 20
10.6
 30
0.0
 11
11.800000000000001
 21
10.6
 31
0.0
  0
LINE
  5
115
100
AcDbEntity
  8
0
  6
CENTER
 62
               2
100
AcDbLine
 10
0.0
 20
-4.3700000000000001
 30
0.0
 11
0.0
 21
15.66
 31
0.0
  0
LINE
  5
116
100
AcDbEntity
  8
0
  6
CONTINUOUS
 62
               7
100
AcDbLine
 10
-4.0
 20
6.7000000000000002
 30
0.0
 11
4.0
 21
6.7000000000000002
 31
0.0
  0
LINE
  5
117
100
AcDbEntity
  8
0
  6
CONTINUOUS
 62
               7
100
AcDbLine
 10
4.0
 20
0.0
 30
0.0
 11
4.0
 21
2.2999999999999998
 31
0.0
  0
LINE
  5
118
100
AcDbEntity
  8
0
  6
CONTINUOUS
 62
               7
100
AcDbLine
 10
-4.0
 20
0.0
 30
0.0
 11
-4.0
 21
2.2999999999999998
 31
0.0
  0
LINE
  5
119
100
AcDbEntity
  8
0
  6
CONTINUOUS
 62
               7
100
AcDbLine
 10
-2.5
 20
-2.8999999999999999
 30
0.0
 11
2.5
 21
-2.8999999999999999
 31
0.0
  0
LINE
  5
11A
100
AcDbEntity
  8
0
  6
CONTINUOUS
 62
               2
100
AcDbLine
 10
-2.0600000000000001
 20
-2.8999999999999999
 30
0.0
 11
-2.0600000000000001
 21
0.0
 31
0.0
  0
LINE
  5
11B
100
AcDbEntity
  8
0
  6
CONTINUOUS
 62
               2
100
AcDbLine
 10
2.0600000000000001
 20
-2.8999999999999999
 30
0.0
 11
2.0600000000000001
 21
0.0
 31
0.0
  0
LINE
  5
11C
100
AcDbEntity
  8
0
  6
CONTINUOUS
 62
               7
100
AcDbLine
 10
-4.6100000000000003
 20
2.6499999999999999
 30
0.0
 11
-4.6100000000000003
 21
6.3399999999999999
 31
0.0
  0
LINE
  5
11D
100
AcDbEntity
  8
0
  6
CONTINUOUS
 62
               7
100
AcDbLine
 10
-4.6100000000000003
 20
2.6499999999999999
 30
0.0
 11
-4.0
 21
2.2999999999999998
 31
0.0
  0
LINE
  5
11E
100
AcDbEntity
  8
0
  6
CONTINUOUS
 62
               7
100
AcDbLine
 10
-4.6100000000000003
 20
6.3399999999999999
 30
0.0
 11
-4.0
 21
6.7000000000000002
 31
0.0
  0
LINE
  5
11F
100
AcDbEntity
  8
0
  6
CONTINUOUS
 62
               7
100
AcDbLine
 10
4.6100000000000003
 20
2.6499999999999999
 30
0.0
 11
4.0
 21
2.2999999999999998
 31
0.0
  0
LINE
  5
120
100
AcDbEntity
  8
0
  6
CONTINUOUS
 62
               7
100
AcDbLine
 10
-2.2999999999999998
 20
2.6499999999999999
 30
0.0
 11
-2.2999999999999998
 21
6.3399999999999999
 31
0.0
  0
LINE
  5
121
100
AcDbEntity
  8
0
  6
CONTINUOUS
 62
               7
100
AcDbLine
 10
2.2999999999999998
 20
2.6499999999999999
 30
0.0
 11
2.2999999999999998
 21
6.3399999999999999
 31
0.0
  0
LINE
  5
122
100
AcDbEntity
  8
0
  6
CONTINUOUS
 62
               7
100
AcDbLine
 10
4.6100000000000003
 20
2.6499999999999999
 30
0.0
 11
4.6100000000000003
 21
6.3399999999999999
 31
0.0
  0
LINE
  5
123
100
AcDbEntity
  8
0
  6
CONTINUOUS
 62
               7
100
AcDbLine
 10
4.6100000000000003
 20
6.3399999999999999
 30
0.0
 11
4.0
 21
6.7000000000000002
 31
0.0
  0
LINE
  5
124
100
AcDbEntity
  8
0
  6
CONTINUOUS
 62
               7
100
AcDbLine
 10
-4.0
 20
2.2999999999999998
 30
0.0
 11
4.0
 21
2.2999999999999998
 31
0.0
  0
LINE
  5
125
100
AcDbEntity
  8
0
  6
CONTINUOUS
 62
               7
100
AcDbLine
 10
-4.0
 20
0.8
 30
0.0
 11
4.0
 21
0.8
 31
0.0
  0
LINE
  5
126
100
AcDbEntity
  8
0
  6
CONTINUOUS
 62
               7
100
AcDbLine
 10
-4.0
 20
0.0
 30
0.0
 11
4.0
 21
0.0
 31
0.0
  0
LINE
  5
127
100
AcDbEntity
  8
0
  6
CONTINUOUS
 62
               7
100
AcDbLine
 10
-2.5
 20
-2.8999999999999999
 30
0.0
 11
-2.5
 21
0.0
 31
0.0
  0
LINE
  5
128
100
AcDbEntity
  8
0
  6
CONTINUOUS
 62
               7
100
AcDbLine
 10
2.5
 20
-2.8999999999999999
 30
0.0
 11
2.5
 21
0.0
 31
0.0
  0
ENDBLK
  5
129
100
AcDbEntity
  8
0
100
AcDbBlockEnd
  0
BLOCK
  5
12A
100
AcDbEntity
  8
0
100
AcDbBlockBegin
  2
MS_6
 70
               0
 10
0.0
 20
0.0
 30
0.0
  3
MS_6
  1

  0
ARC
  5
12B
100
AcDbEntity
  8
0
  6
CONTINUOUS
 62
               7
100
AcDbCircle
 10
0.0000000000000002
 20
0.0
 30
0.0
 40
2.7475807540452744
100
AcDbArc
 50
58.392497753750966
 51
301.6075022462482
  0
ARC
  5
12C
100
AcDbEntity
  8
0
  6
CONTINUOUS
 62
               7
100
AcDbCircle
 10
0.0040570785687867
 20
-0.0031465589081612
 30
0.0
 40
1.9968575625434157
100
AcDbArc
 50
194.40755887533339
 51
269.88359027532476
  0
ARC
  5
12D
100
AcDbEntity
  8
0
  6
CONTINUOUS
 62
               7
100
AcDbCircle
 10
0.0000000000000009
 20
0.0
 30
0.0
 40
4.0001999950002496
100
AcDbArc
 50
49.460848258516457
 51
310.53915174148273
  0
ARC
  5
12E
100
AcDbEntity
  8
0
  6
CONTINUOUS
 62
               7
100
AcDbCircle
 10
0.0040570785687867
 20
0.0031465589081612
 30
0.0
 40
1.9968575625434157
100
AcDbArc
 50
90.116409724674455
 51
165.59244112466581
  0
LINE
  5
12F
100
AcDbEntity
  8
0
  6
CONTINUOUS
 62
               7
100
AcDbLine
 10
2.75
 20
-3.2999999999999998
 30
0.0
 11
2.75
 21
-0.5
 31
0.0
  0
LINE
  5
130
100
AcDbEntity
  8
0
  6
CONTINUOUS
 62
               7
100
AcDbLine
 10
2.3100000000000001
 20
-2.5499999999999998
 30
0.0
 11
2.3100000000000001
 21
-0.5
 31
0.0
  0
LINE
  5
131
100
AcDbEntity
  8
0
  6
CONTINUOUS
 62
               7
100
AcDbLine
 10
-2.7000000000000002
 20
-0.5
 30
0.0
 11
2.75
 21
-0.5
 31
0.0
  0
LINE
  5
132
100
AcDbEntity
  8
0
  6
CONTINUOUS
 62
               7
100
AcDbLine
 10
-2.7000000000000002
 20
0.5
 30
0.0
 11
2.75
 21
0.5
 31
0.0
  0
LINE
  5
133
100
AcDbEntity
  8
0
  6
CONTINUOUS
 62
               7
100
AcDbLine
 10
-2.2999999999999998
 20
-4.0
 30
0.0
 11
2.2999999999999998
 21
-4.0
 31
0.0
  0
LINE
  5
134
100
AcDbEntity
  8
0
  6
CONTINUOUS
 62
               7
100
AcDbLine
 10
-4.6100000000000003
 20
0.0
 30
0.0
 11
-2.2999999999999998
 21
-4.0
 31
0.0
  0
LINE
  5
135
100
AcDbEntity
  8
0
  6
CONTINUOUS
 62
               7
100
AcDbLine
 10
-2.2999999999999998
 20
4.0
 30
0.0
 11
-4.6100000000000003
 21
0.0
 31
0.0
  0
LINE
  5
136
100
AcDbEntity
  8
0
  6
CONTINUOUS
 62
               7
100
AcDbLine
 10
2.2999999999999998
 20
4.0
 30
0.0
 11
-2.2999999999999998
 21
4.0
 31
0.0
  0
LINE
  5
137
100
AcDbEntity
  8
0
  6
CONTINUOUS
 62
               7
100
AcDbLine
 10
2.73
 20
3.2599999999999998
 30
0.0
 11
2.2999999999999998
 21
4.0
 31
0.0
  0
LINE
  5
138
100
AcDbEntity
  8
0
  6
CONTINUOUS
 62
               7
100
AcDbLine
 10
2.2999999999999998
 20
-4.0
 30
0.0
 11
2.73
 21
-3.2599999999999998
 31
0.0
  0
LINE
  5
139
100
AcDbEntity
  8
0
  6
CONTINUOUS
 62
               7
100
AcDbLine
 10
0.0
 20
2.0
 30
0.0
 11
2.3100000000000001
 21
2.5499999999999998
 31
0.0
  0
LINE
  5
13A
100
AcDbEntity
  8
0
  6
CONTINUOUS
 62
               7
100
AcDbLine
 10
0.0
 20
-2.0
 30
0.0
 11
2.3100000000000001
 21
-2.5499999999999998
 31
0.0
  0
LINE
  5
13B
100
AcDbEntity
  8
0
  6
CONTINUOUS
 62
               7
100
AcDbLine
 10
2.75
 20
3.2999999999999998
 30
0.0
 11
2.75
 21
0.5
 31
0.0
  0
LINE
  5
13C
100
AcDbEntity
  8
0
  6
CENTER
 62
               2
100
AcDbLine
 10
0.0
 20
4.9000000000000004
 30
0.0
 11
0.0
 21
-4.8700000000000001
 31
0.0
  0
LINE
  5
13D
100
AcDbEntity
  8
0
  6
CENTER
 62
               2
100
AcDbLine
 10
-5.6600000000000001
 20
0.0
 30
0.0
 11
11.800000000000001
 21
0.0
 31
0.0
  0
LINE
  5
13E
100
AcDbEntity
  8
0
  6
CONTINUOUS
 62
               7
100
AcDbLine
 10
2.3100000000000001
 20
-2.5499999999999998
 30
0.0
 11
2.75
 21
-3.2999999999999998
 31
0.0
  0
LINE
  5
13F
100
AcDbEntity
  8
0
  6
CONTINUOUS
 62
               7
100
AcDbLine
 10
2.3100000000000001
 20
2.5499999999999998
 30
0.0
 11
2.3100000000000001
 21
0.5
 31
0.0
  0
LINE
  5
140
100
AcDbEntity
  8
0
  6
CONTINUOUS
 62
               7
100
AcDbLine
 10
2.3100000000000001
 20
2.5499999999999998
 30
0.0
 11
2.75
 21
3.2999999999999998
 31
0.0
  0
LINE
  5
141
100
AcDbEntity
  8
0
  6
CONTINUOUS
 62
               7
100
AcDbLine
 10
2.75
 20
3.2999999999999998
 30
0.0
 11
6.5
 21
3.2999999999999998
 31
0.0
  0
LINE
  5
142
100
AcDbEntity
  8
0
  6
CONTINUOUS
 62
               7
100
AcDbLine
 10
6.5
 20
-3.2999999999999998
 30
0.0
 11
8.0
 21
-2.75
 31
0.0
  0
LINE
  5
143
100
AcDbEntity
  8
0
  6
CONTINUOUS
 62
               7
100
AcDbLine
 10
6.5
 20
3.2999999999999998
 30
0.0
 11
8.0
 21
2.75
 31
0.0
  0
LINE
  5
144
100
AcDbEntity
  8
0
  6
CONTINUOUS
 62
               7
100
AcDbLine
 10
6.5
 20
3.2999999999999998
 30
0.0
 11
6.5
 21
-3.2999999999999998
 31
0.0
  0
LINE
  5
145
100
AcDbEntity
  8
0
  6
CONTINUOUS
 62
               7
100
AcDbLine
 10
8.0
 20
2.75
 30
0.0
 11
8.0
 21
-2.75
 31
0.0
  0
LINE
  5
146
100
AcDbEntity
  8
0
  6
CONTINUOUS
 62
               7
100
AcDbLine
 10
2.75
 20
-3.2999999999999998
 30
0.0
 11
6.5
 21
-3.2999999999999998
 31
0.0
  0
LINE
  5
147
100
AcDbEntity
  8
0
  6
CONTINUOUS
 62
               7
100
AcDbLine
 10
9.1999999999999993
 20
2.75
 30
0.0
 11
9.1999999999999993
 21
-2.75
 31
0.0
  0
LINE
  5
148
100
AcDbEntity
  8
0
  6
CONTINUOUS
 62
               7
100
AcDbLine
 10
9.1999999999999993
 20
-2.0
 30
0.0
 11
9.5999999999999996
 21
-2.0
 31
0.0
  0
LINE
  5
149
100
AcDbEntity
  8
0
  6
CONTINUOUS
 62
               7
100
AcDbLine
 10
9.1999999999999993
 20
2.0
 30
0.0
 11
9.5999999999999996
 21
2.0
 31
0.0
  0
LINE
  5
14A
100
AcDbEntity
  8
0
  6
CONTINUOUS
 62
               7
100
AcDbLine
 10
8.0
 20
-2.75
 30
0.0
 11
9.1999999999999993
 21
-2.75
 31
0.0
  0
LINE
  5
14B
100
AcDbEntity
  8
0
  6
CONTINUOUS
 62
               7
100
AcDbLine
 10
8.0
 20
2.75
 30
0.0
 11
9.1999999999999993
 21
2.75
 31
0.0
  0
LINE
  5
14C
100
AcDbEntity
  8
0
  6
CONTINUOUS
 62
               7
100
AcDbLine
 10
9.5999999999999996
 20
3.5
 30
0.0
 11
9.5999999999999996
 21
-3.5
 31
0.0
  0
LINE
  5
14D
100
AcDbEntity
  8
0
  6
CONTINUOUS
 62
               7
100
AcDbLine
 10
9.5999999999999996
 20
3.5
 30
0.0
 11
10.800000000000001
 21
3.5
 31
0.0
  0
LINE
  5
14E
100
AcDbEntity
  8
0
  6
CONTINUOUS
 62
               7
100
AcDbLine
 10
10.800000000000001
 20
3.5
 30
0.0
 11
10.800000000000001
 21
-3.5
 31
0.0
  0
LINE
  5
14F
100
AcDbEntity
  8
0
  6
CONTINUOUS
 62
               7
100
AcDbLine
 10
9.5999999999999996
 20
-3.5
 30
0.0
 11
10.800000000000001
 21
-3.5
 31
0.0
  0
ENDBLK
  5
150
100
AcDbEntity
  8
0
100
AcDbBlockEnd
  0
BLOCK
  5
151
100
AcDbEntity
  8
0
100
AcDbBlockBegin
  2
MS_7
 70
               0
 10
0.0
 20
0.0
 30
0.0
  3
MS_7
  1

  0
ARC
  5
152
100
AcDbEntity
  8
0
  6
CONTINUOUS
 62
               7
100
AcDbCircle
 10
-2.0
 20
0.92333984375
 30
0.0
 40
5.7740979597081887
100
AcDbArc
 50
69.73428015252658
 51
110.26571984747304
  0
ARC
  5
153
100
AcDbEntity
  8
0
  6
CONTINUOUS
 62
               7
100
AcDbCircle
 10
2.0
 20
0.92333984375
 30
0.0
 40
5.7740979597081887
100
AcDbArc
 50
69.73428015252658
 51
110.26571984747304
  0
ARC
  5
154
100
AcDbEntity
  8
0
  6
CONTINUOUS
 62
               7
100
AcDbCircle
 10
-2.0
 20
8.0766563415527326
 30
0.0
 40
5.7834763809766265
100
AcDbArc
 50
249.76858170988498
 51
290.23141829011382
  0
ARC
  5
155
100
AcDbEntity
  8
0
  6
CONTINUOUS
 62
               7
100
AcDbCircle
 10
2.0
 20
8.0766563415527326
 30
0.0
 40
5.7834763809766265
100
AcDbArc
 50
249.76858170988498
 51
290.23141829011382
  0
ARC
  5
156
100
AcDbEntity
  8
0
  6
CONTINUOUS
 62
               7
100
AcDbCircle
 10
0.0002424489489459
 20
11.16369261516671
 30
0.0
 40
1.9997609603131268
100
AcDbArc
 50
359.89420166267354
 51
75.527893690105259
  0
ARC
  5
157
100
AcDbEntity
  8
0
  6
CONTINUOUS
 62
               7
100
AcDbCircle
 10
-0.0002424489489459
 20
11.16369261516671
 30
0.0
 40
1.9997609603131268
100
AcDbArc
 50
104.47210630989434
 51
180.10579833732524
  0
ARC
  5
158
100
AcDbEntity
  8
0
  6
CONTINUOUS
 62
               7
100
AcDbCircle
 10
-0.0011090010195112
 20
10.596971516266324
 30
0.0
 40
2.5522624902712989
100
AcDbArc
 50
101.27218670843729
 51
218.44697428285099
  0
ARC
  5
159
100
AcDbEntity
  8
0
  6
CONTINUOUS
 62
               7
100
AcDbCircle
 10
0.0
 20
10.599998474121094
 30
0.0
 40
3.304072029160273
100
AcDbArc
 50
307.25141745214711
 51
232.74858254785167
  0
ARC
  5
15A
100
AcDbEntity
  8
0
  6
CONTINUOUS
 62
               7
100
AcDbCircle
 10
0.0011090010195112
 20
10.596971516266324
 30
0.0
 40
2.5522624902712989
100
AcDbArc
 50
321.55302571714776
 51
78.727813291562313
  0
ARC
  5
15B
100
AcDbEntity
  8
0
  6
CONTINUOUS
 62
               7
100
AcDbCircle
 10
0.0
 20
11.099998474121094
 30
0.0
 40
2.9982836765198084
100
AcDbArc
 50
33.160081342008645
 51
146.83991865799095
  0
LINE
  5
15C
100
AcDbEntity
  8
0
  6
CONTINUOUS
 62
               7
100
AcDbLine
 10
0.0
 20
2.6499999999999999
 30
0.0
 11
0.0
 21
6.3399999999999999
 31
0.0
  0
LINE
  5
15D
100
AcDbEntity
  8
0
  6
CONTINUOUS
 62
               7
100
AcDbLine
 10
-2.5
 20
-2.8999999999999999
 30
0.0
 11
2.5
 21
-2.8999999999999999
 31
0.0
  0
LINE
  5
15E
100
AcDbEntity
  8
0
  6
CONTINUOUS
 62
               2
100
AcDbLine
 10
-2.0600000000000001
 20
-2.8999999999999999
 30
0.0
 11
-2.0600000000000001
 21
0.0
 31
0.0
  0
LINE
  5
15F
100
AcDbEntity
  8
0
  6
CONTINUOUS
 62
               2
100
AcDbLine
 10
2.0600000000000001
 20
-2.8999999999999999
 30
0.0
 11
2.0600000000000001
 21
0.0
 31
0.0
  0
LINE
  5
160
100
AcDbEntity
  8
0
  6
CONTINUOUS
 62
               7
100
AcDbLine
 10
-4.0
 20
0.0
 30
0.0
 11
-4.0
 21
6.7000000000000002
 31
0.0
  0
LINE
  5
161
100
AcDbEntity
  8
0
  6
CONTINUOUS
 62
               7
100
AcDbLine
 10
4.0
 20
0.0
 30
0.0
 11
4.0
 21
6.7000000000000002
 31
0.0
  0
LINE
  5
162
100
AcDbEntity
  8
0
  6
CONTINUOUS
 62
               7
100
AcDbLine
 10
-4.0
 20
2.2999999999999998
 30
0.0
 11
4.0
 21
2.2999999999999998
 31
0.0
  0
LINE
  5
163
100
AcDbEntity
  8
0
  6
CONTINUOUS
 62
               7
100
AcDbLine
 10
-4.0
 20
0.8
 30
0.0
 11
4.0
 21
0.8
 31
0.0
  0
LINE
  5
164
100
AcDbEntity
  8
0
  6
CONTINUOUS
 62
               7
100
AcDbLine
 10
-4.0
 20
0.0
 30
0.0
 11
4.0
 21
0.0
 31
0.0
  0
LINE
  5
165
100
AcDbEntity
  8
0
  6
CONTINUOUS
 62
               7
100
AcDbLine
 10
-2.5
 20
-2.8999999999999999
 30
0.0
 11
-2.5
 21
0.0
 31
0.0
  0
LINE
  5
166
100
AcDbEntity
  8
0
  6
CONTINUOUS
 62
               7
100
AcDbLine
 10
2.5
 20
-2.8999999999999999
 30
0.0
 11
2.5
 21
0.0
 31
0.0
  0
LINE
  5
167
100
AcDbEntity
  8
0
  6
CONTINUOUS
 62
               7
100
AcDbLine
 10
-4.0
 20
6.7000000000000002
 30
0.0
 11
4.0
 21
6.7000000000000002
 31
0.0
  0
LINE
  5
168
100
AcDbEntity
  8
0
  6
CONTINUOUS
 62
               7
100
AcDbLine
 10
0.5
 20
7.7300000000000004
 30
0.0
 11
2.0
 21
7.7300000000000004
 31
0.0
  0
LINE
  5
169
100
AcDbEntity
  8
0
  6
CONTINUOUS
 62
               7
100
AcDbLine
 10
-0.5
 20
7.2999999999999998
 30
0.0
 11
-2.75
 21
7.2999999999999998
 31
0.0
  0
LINE
  5
16A
100
AcDbEntity
  8
0
  6
CONTINUOUS
 62
               7
100
AcDbLine
 10
-0.5
 20
7.2999999999999998
 30
0.0
 11
-0.5
 21
13.859999999999999
 31
0.0
  0
LINE
  5
16B
100
AcDbEntity
  8
0
  6
CONTINUOUS
 62
               7
100
AcDbLine
 10
0.5
 20
7.2999999999999998
 30
0.0
 11
0.5
 21
13.859999999999999
 31
0.0
  0
LINE
  5
16C
100
AcDbEntity
  8
0
  6
CONTINUOUS
 62
               7
100
AcDbLine
 10
-2.0
 20
7.7300000000000004
 30
0.0
 11
-0.5
 21
7.7300000000000004
 31
0.0
  0
LINE
  5
16D
100
AcDbEntity
  8
0
  6
CONTINUOUS
 62
               7
100
AcDbLine
 10
-2.0
 20
7.7300000000000004
 30
0.0
 11
-2.0
 21
11.16
 31
0.0
  0
LINE
  5
16E
100
AcDbEntity
  8
0
  6
CONTINUOUS
 62
               7
100
AcDbLine
 10
2.0
 20
7.7300000000000004
 30
0.0
 11
2.0
 21
11.16
 31
0.0
  0
LINE
  5
16F
100
AcDbEntity
  8
0
  6
CONTINUOUS
 62
               7
100
AcDbLine
 10
2.75
 20
7.2999999999999998
 30
0.0
 11
0.5
 21
7.2999999999999998
 31
0.0
  0
LINE
  5
170
100
AcDbEntity
  8
0
  6
CONTINUOUS
 62
               7
100
AcDbLine
 10
-2.75
 20
6.7000000000000002
 30
0.0
 11
-2.75
 21
7.2999999999999998
 31
0.0
  0
LINE
  5
171
100
AcDbEntity
  8
0
  6
CONTINUOUS
 62
               7
100
AcDbLine
 10
2.75
 20
6.7000000000000002
 30
0.0
 11
2.75
 21
7.2999999999999998
 31
0.0
  0
LINE
  5
172
100
AcDbEntity
  8
0
  6
CONTINUOUS
 62
               7
100
AcDbLine
 10
2.75
 20
7.2999999999999998
 30
0.0
 11
2.0
 21
7.7300000000000004
 31
0.0
  0
LINE
  5
173
100
AcDbEntity
  8
0
  6
CONTINUOUS
 62
               7
100
AcDbLine
 10
-2.75
 20
7.2999999999999998
 30
0.0
 11
-2.0
 21
7.7300000000000004
 31
0.0
  0
LINE
  5
174
100
AcDbEntity
  8
0
  6
CENTER
 62
               2
100
AcDbLine
 10
4.2300000000000004
 20
10.6
 30
0.0
 11
-4.2300000000000004
 21
10.6
 31
0.0
  0
LINE
  5
175
100
AcDbEntity
  8
0
  6
CENTER
 62
               2
100
AcDbLine
 10
0.0
 20
-4.4900000000000002
 30
0.0
 11
0.0
 21
15.66
 31
0.0
  0
ENDBLK
  5
176
100
AcDbEntity
  8
0
100
AcDbBlockEnd
  0
BLOCK
  5
177
100
AcDbEntity
  8
0
100
AcDbBlockBegin
  2
MS_8
 70
               0
 10
0.0
 20
0.0
 30
0.0
  3
MS_8
  1

  0
ARC
  5
178
100
AcDbEntity
  8
0
  6
CONTINUOUS
 62
               7
100
AcDbCircle
 10
-2.0
 20
0.92333984375
 30
0.0
 40
5.7740979597081887
100
AcDbArc
 50
69.73428015252658
 51
110.26571984747304
  0
ARC
  5
179
100
AcDbEntity
  8
0
  6
CONTINUOUS
 62
               7
100
AcDbCircle
 10
2.0
 20
0.92333984375
 30
0.0
 40
5.7740979597081887
100
AcDbArc
 50
69.73428015252658
 51
110.26571984747304
  0
ARC
  5
17A
100
AcDbEntity
  8
0
  6
CONTINUOUS
 62
               7
100
AcDbCircle
 10
-2.0
 20
8.0766563415527326
 30
0.0
 40
5.7834763809766265
100
AcDbArc
 50
249.76858170988498
 51
290.23141829011382
  0
ARC
  5
17B
100
AcDbEntity
  8
0
  6
CONTINUOUS
 62
               7
100
AcDbCircle
 10
2.0
 20
8.0766563415527326
 30
0.0
 40
5.7834763809766265
100
AcDbArc
 50
249.76858170988498
 51
290.23141829011382
  0
ARC
  5
17C
100
AcDbEntity
  8
0
  6
CONTINUOUS
 62
               7
100
AcDbCircle
 10
0.0000000000002682
 20
10.600000000000001
 30
0.0
 40
3.2984390247511541
100
AcDbArc
 50
139.54943379258822
 51
220.45056620741101
  0
ARC
  5
17D
100
AcDbEntity
  8
0
  6
CONTINUOUS
 62
               7
100
AcDbCircle
 10
0.0
 20
10.1
 30
0.0
 40
3.0000000000003881
100
AcDbArc
 50
179.9999999999996
 51
0.0
  0
ARC
  5
17E
100
AcDbEntity
  8
0
  6
CONTINUOUS
 62
               7
100
AcDbCircle
 10
0.0
 20
11.1
 30
0.0
 40
3.0000000000003881
100
AcDbArc
 50
0.0
 51
179.9999999999996
  0
ARC
  5
17F
100
AcDbEntity
  8
0
  6
CONTINUOUS
 62
               7
100
AcDbCircle
 10
-0.0000000000002682
 20
10.600000000000001
 30
0.0
 40
3.2984390247511541
100
AcDbArc
 50
319.54943379258776
 51
40.450566207411391
  0
CIRCLE
  5
180
100
AcDbEntity
  8
0
  6
CONTINUOUS
 62
               7
100
AcDbCircle
 10
0.0
 20
10.599998474121094
 30
0.0
 40
1.5
  0
LINE
  5
181
100
AcDbEntity
  8
0
  6
CONTINUOUS
 62
               7
100
AcDbLine
 10
0.0
 20
2.6499999999999999
 30
0.0
 11
0.0
 21
6.3399999999999999
 31
0.0
  0
LINE
  5
182
100
AcDbEntity
  8
0
  6
CONTINUOUS
 62
               7
100
AcDbLine
 10
-2.5
 20
-2.8999999999999999
 30
0.0
 11
2.5
 21
-2.8999999999999999
 31
0.0
  0
LINE
  5
183
100
AcDbEntity
  8
0
  6
CONTINUOUS
 62
               2
100
AcDbLine
 10
-2.0600000000000001
 20
-2.8999999999999999
 30
0.0
 11
-2.0600000000000001
 21
0.0
 31
0.0
  0
LINE
  5
184
100
AcDbEntity
  8
0
  6
CONTINUOUS
 62
               2
100
AcDbLine
 10
2.0600000000000001
 20
-2.8999999999999999
 30
0.0
 11
2.0600000000000001
 21
0.0
 31
0.0
  0
LINE
  5
185
100
AcDbEntity
  8
0
  6
CONTINUOUS
 62
               7
100
AcDbLine
 10
-4.0
 20
0.0
 30
0.0
 11
-4.0
 21
6.7000000000000002
 31
0.0
  0
LINE
  5
186
100
AcDbEntity
  8
0
  6
CONTINUOUS
 62
               7
100
AcDbLine
 10
4.0
 20
0.0
 30
0.0
 11
4.0
 21
6.7000000000000002
 31
0.0
  0
LINE
  5
187
100
AcDbEntity
  8
0
  6
CONTINUOUS
 62
               7
100
AcDbLine
 10
-4.0
 20
6.7000000000000002
 30
0.0
 11
4.0
 21
6.7000000000000002
 31
0.0
  0
LINE
  5
188
100
AcDbEntity
  8
0
  6
CONTINUOUS
 62
               7
100
AcDbLine
 10
-4.0
 20
2.2999999999999998
 30
0.0
 11
4.0
 21
2.2999999999999998
 31
0.0
  0
LINE
  5
189
100
AcDbEntity
  8
0
  6
CONTINUOUS
 62
               7
100
AcDbLine
 10
-4.0
 20
0.8
 30
0.0
 11
4.0
 21
0.8
 31
0.0
  0
LINE
  5
18A
100
AcDbEntity
  8
0
  6
CONTINUOUS
 62
               7
100
AcDbLine
 10
-4.0
 20
0.0
 30
0.0
 11
4.0
 21
0.0
 31
0.0
  0
LINE
  5
18B
100
AcDbEntity
  8
0
  6
CONTINUOUS
 62
               7
100
AcDbLine
 10
-2.5
 20
-2.8999999999999999
 30
0.0
 11
-2.5
 21
0.0
 31
0.0
  0
LINE
  5
18C
100
AcDbEntity
  8
0
  6
CONTINUOUS
 62
               7
100
AcDbLine
 10
2.5
 20
-2.8999999999999999
 30
0.0
 11
2.5
 21
0.0
 31
0.0
  0
LINE
  5
18D
100
AcDbEntity
  8
0
  6
CONTINUOUS
 62
               7
100
AcDbLine
 10
2.0
 20
7.8600000000000003
 30
0.0
 11
2.0
 21
7.7300000000000004
 31
0.0
  0
LINE
  5
18E
100
AcDbEntity
  8
0
  6
CONTINUOUS
 62
               7
100
AcDbLine
 10
-2.0
 20
7.8600000000000003
 30
0.0
 11
-2.0
 21
7.7300000000000004
 31
0.0
  0
LINE
  5
18F
100
AcDbEntity
  8
0
  6
CONTINUOUS
 62
               7
100
AcDbLine
 10
1.8400000000000001
 20
7.7300000000000004
 30
0.0
 11
2.0
 21
7.7300000000000004
 31
0.0
  0
LINE
  5
190
100
AcDbEntity
  8
0
  6
CONTINUOUS
 62
               7
100
AcDbLine
 10
-1.0700000000000001
 20
7.2999999999999998
 30
0.0
 11
-2.75
 21
7.2999999999999998
 31
0.0
  0
LINE
  5
191
100
AcDbEntity
  8
0
  6
CONTINUOUS
 62
               7
100
AcDbLine
 10
-3.0
 20
11.1
 30
0.0
 11
-3.0
 21
10.1
 31
0.0
  0
LINE
  5
192
100
AcDbEntity
  8
0
  6
CONTINUOUS
 62
               7
100
AcDbLine
 10
3.0
 20
11.1
 30
0.0
 11
3.0
 21
10.1
 31
0.0
  0
LINE
  5
193
100
AcDbEntity
  8
0
  6
CONTINUOUS
 62
               7
100
AcDbLine
 10
-2.0
 20
7.7300000000000004
 30
0.0
 11
-1.8400000000000001
 21
7.7300000000000004
 31
0.0
  0
LINE
  5
194
100
AcDbEntity
  8
0
  6
CONTINUOUS
 62
               7
100
AcDbLine
 10
2.75
 20
7.2999999999999998
 30
0.0
 11
1.0700000000000001
 21
7.2999999999999998
 31
0.0
  0
LINE
  5
195
100
AcDbEntity
  8
0
  6
CONTINUOUS
 62
               7
100
AcDbLine
 10
-2.75
 20
6.7000000000000002
 30
0.0
 11
-2.75
 21
7.2999999999999998
 31
0.0
  0
LINE
  5
196
100
AcDbEntity
  8
0
  6
CONTINUOUS
 62
               7
100
AcDbLine
 10
2.75
 20
6.7000000000000002
 30
0.0
 11
2.75
 21
7.2999999999999998
 31
0.0
  0
LINE
  5
197
100
AcDbEntity
  8
0
  6
CONTINUOUS
 62
               7
100
AcDbLine
 10
2.75
 20
7.2999999999999998
 30
0.0
 11
2.0
 21
7.7300000000000004
 31
0.0
  0
LINE
  5
198
100
AcDbEntity
  8
0
  6
CONTINUOUS
 62
               7
100
AcDbLine
 10
-2.75
 20
7.2999999999999998
 30
0.0
 11
-2.0
 21
7.7300000000000004
 31
0.0
  0
LINE
  5
199
100
AcDbEntity
  8
0
  6
CENTER
 62
               2
100
AcDbLine
 10
-4.6200000000000001
 20
10.6
 30
0.0
 11
4.5899999999999999
 21
10.6
 31
0.0
  0
LINE
  5
19A
100
AcDbEntity
  8
0
  6
CENTER
 62
               2
100
AcDbLine
 10
0.0
 20
15.66
 30
0.0
 11
0.0
 21
-4.3700000000000001
 31
0.0
  0
ENDBLK
  5
19B
100
AcDbEntity
  8
0
100
AcDbBlockEnd
  0
BLOCK
  5
19C
100
AcDbEntity
  8
0
100
AcDbBlockBegin
  2
MS_9
 70
               0
 10
0.0
 20
0.0
 30
0.0
  3
MS_9
  1

  0
ARC
  5
19D
100
AcDbEntity
  8
0
  6
CONTINUOUS
 62
               7
100
AcDbCircle
 10
-0.0000021934500525
 20
11.150002193450053
 30
0.0
 40
2.7499978065508222
100
AcDbArc
 50
89.999954299806774
 51
180.00004570019263
  0
ARC
  5
19E
100
AcDbEntity
  8
0
  6
CONTINUOUS
 62
               7
100
AcDbCircle
 10
-0.000002193449725
 20
11.150002193449726
 30
0.0
 40
1.9999978065514781
100
AcDbArc
 50
89.999937162224981
 51
180.00006283777444
  0
ARC
  5
19F
100
AcDbEntity
  8
0
  6
CONTINUOUS
 62
               7
100
AcDbCircle
 10
0.0
 20
9.9427347183227521
 30
0.0
 40
7.6468280791338605
100
AcDbArc
 50
252.49564399417093
 51
287.50435600582784
  0
ARC
  5
1A0
100
AcDbEntity
  8
0
  6
CONTINUOUS
 62
               7
100
AcDbCircle
 10
-3.4458132157249941
 20
4.3502666578314093
 30
0.0
 40
2.05031573984673
100
AcDbArc
 50
269.60354918306655
 51
303.97611155930161
  0
ARC
  5
1A1
100
AcDbEntity
  8
0
  6
CONTINUOUS
 62
               7
100
AcDbCircle
 10
-3.4591643070258704
 20
4.6538038995833073
 30
0.0
 40
2.0461962710705994
100
AcDbArc
 50
55.493680865410063
 51
90.023400336709642
  0
ARC
  5
1A2
100
AcDbEntity
  8
0
  6
CONTINUOUS
 62
               7
100
AcDbCircle
 10
3.4458132157249941
 20
4.3502666578314093
 30
0.0
 40
2.05031573984673
100
AcDbArc
 50
236.02388844069716
 51
270.3964508169322
  0
ARC
  5
1A3
100
AcDbEntity
  8
0
  6
CONTINUOUS
 62
               7
100
AcDbCircle
 10
3.4591640537238897
 20
4.6538047157785769
 30
0.0
 40
2.0461954549788648
100
AcDbArc
 50
89.976592561215497
 51
124.50632623666398
  0
ARC
  5
1A4
100
AcDbEntity
  8
0
  6
CONTINUOUS
 62
               7
100
AcDbCircle
 10
0.0
 20
-0.9427318572999326
 30
0.0
 40
7.6372890023444393
100
AcDbArc
 50
72.473072819414952
 51
107.52692718058466
  0
LINE
  5
1A5
100
AcDbEntity
  8
0
  6
CONTINUOUS
 62
               7
100
AcDbLine
 10
2.3100000000000001
 20
8.0500000000000007
 30
0.0
 11
2.75
 21
7.2999999999999998
 31
0.0
  0
LINE
  5
1A6
100
AcDbEntity
  8
0
  6
CONTINUOUS
 62
               7
100
AcDbLine
 10
2.3100000000000001
 20
13.15
 30
0.0
 11
2.75
 21
13.9
 31
0.0
  0
LINE
  5
1A7
100
AcDbEntity
  8
0
  6
CONTINUOUS
 62
               7
100
AcDbLine
 10
2.3100000000000001
 20
13.15
 30
0.0
 11
2.3100000000000001
 21
8.0500000000000007
 31
0.0
  0
LINE
  5
1A8
100
AcDbEntity
  8
0
  6
CONTINUOUS
 62
               7
100
AcDbLine
 10
0.0
 20
13.9
 30
0.0
 11
6.5
 21
13.9
 31
0.0
  0
LINE
  5
1A9
100
AcDbEntity
  8
0
  6
CONTINUOUS
 62
               7
100
AcDbLine
 10
-2.75
 20
7.2999999999999998
 30
0.0
 11
6.5
 21
7.2999999999999998
 31
0.0
  0
LINE
  5
1AA
100
AcDbEntity
  8
0
  6
CONTINUOUS
 62
               7
100
AcDbLine
 10
6.5
 20
7.2999999999999998
 30
0.0
 11
8.0
 21
7.8499999999999996
 31
0.0
  0
LINE
  5
1AB
100
AcDbEntity
  8
0
  6
CONTINUOUS
 62
               7
100
AcDbLine
 10
6.5
 20
13.9
 30
0.0
 11
6.5
 21
7.2999999999999998
 31
0.0
  0
LINE
  5
1AC
100
AcDbEntity
  8
0
  6
CONTINUOUS
 62
               7
100
AcDbLine
 10
6.5
 20
13.9
 30
0.0
 11
8.0
 21
13.35
 31
0.0
  0
LINE
  5
1AD
100
AcDbEntity
  8
0
  6
CONTINUOUS
 62
               7
100
AcDbLine
 10
8.0
 20
13.35
 30
0.0
 11
8.0
 21
7.8499999999999996
 31
0.0
  0
LINE
  5
1AE
100
AcDbEntity
  8
0
  6
CONTINUOUS
 62
               7
100
AcDbLine
 10
8.0
 20
13.35
 30
0.0
 11
9.1999999999999993
 21
13.35
 31
0.0
  0
LINE
  5
1AF
100
AcDbEntity
  8
0
  6
CONTINUOUS
 62
               7
100
AcDbLine
 10
9.1999999999999993
 20
13.35
 30
0.0
 11
9.1999999999999993
 21
7.8499999999999996
 31
0.0
  0
LINE
  5
1B0
100
AcDbEntity
  8
0
  6
CONTINUOUS
 62
               7
100
AcDbLine
 10
8.0
 20
7.8499999999999996
 30
0.0
 11
9.1999999999999993
 21
7.8499999999999996
 31
0.0
  0
LINE
  5
1B1
100
AcDbEntity
  8
0
  6
CONTINUOUS
 62
               7
100
AcDbLine
 10
9.5999999999999996
 20
7.0999999999999996
 30
0.0
 11
10.800000000000001
 21
7.0999999999999996
 31
0.0
  0
LINE
  5
1B2
100
AcDbEntity
  8
0
  6
CONTINUOUS
 62
               7
100
AcDbLine
 10
9.1999999999999993
 20
8.5999999999999996
 30
0.0
 11
9.5999999999999996
 21
8.5999999999999996
 31
0.0
  0
LINE
  5
1B3
100
AcDbEntity
  8
0
  6
CONTINUOUS
 62
               7
100
AcDbLine
 10
9.1999999999999993
 20
12.6
 30
0.0
 11
9.5999999999999996
 21
12.6
 31
0.0
  0
LINE
  5
1B4
100
AcDbEntity
  8
0
  6
CONTINUOUS
 62
               7
100
AcDbLine
 10
9.5999999999999996
 20
14.1
 30
0.0
 11
9.5999999999999996
 21
7.0999999999999996
 31
0.0
  0
LINE
  5
1B5
100
AcDbEntity
  8
0
  6
CONTINUOUS
 62
               7
100
AcDbLine
 10
10.800000000000001
 20
14.1
 30
0.0
 11
10.800000000000001
 21
7.0999999999999996
 31
0.0
  0
LINE
  5
1B6
100
AcDbEntity
  8
0
  6
CONTINUOUS
 62
               7
100
AcDbLine
 10
9.5999999999999996
 20
14.1
 30
0.0
 11
10.800000000000001
 21
14.1
 31
0.0
  0
LINE
  5
1B7
100
AcDbEntity
  8
0
  6
CONTINUOUS
 62
               7
100
AcDbLine
 10
2.75
 20
7.2999999999999998
 30
0.0
 11
2.0
 21
7.7300000000000004
 31
0.0
  0
LINE
  5
1B8
100
AcDbEntity
  8
0
  6
CONTINUOUS
 62
               7
100
AcDbLine
 10
-2.75
 20
7.2999999999999998
 30
0.0
 11
-2.0
 21
7.7300000000000004
 31
0.0
  0
LINE
  5
1B9
100
AcDbEntity
  8
0
  6
CONTINUOUS
 62
               7
100
AcDbLine
 10
0.0
 20
10.6
 30
0.0
 11
2.0
 21
8.0500000000000007
 31
0.0
  0
LINE
  5
1BA
100
AcDbEntity
  8
0
  6
CONTINUOUS
 62
               7
100
AcDbLine
 10
2.0
 20
7.7300000000000004
 30
0.0
 11
2.0
 21
8.0500000000000007
 31
0.0
  0
LINE
  5
1BB
100
AcDbEntity
  8
0
  6
CONTINUOUS
 62
               7
100
AcDbLine
 10
2.0
 20
8.0500000000000007
 30
0.0
 11
2.3100000000000001
 21
8.0500000000000007
 31
0.0
  0
LINE
  5
1BC
100
AcDbEntity
  8
0
  6
CONTINUOUS
 62
               7
100
AcDbLine
 10
-2.0
 20
7.7300000000000004
 30
0.0
 11
2.0
 21
7.7300000000000004
 31
0.0
  0
LINE
  5
1BD
100
AcDbEntity
  8
0
  6
CONTINUOUS
 62
               7
100
AcDbLine
 10
0.0
 20
13.15
 30
0.0
 11
2.3100000000000001
 21
13.15
 31
0.0
  0
LINE
  5
1BE
100
AcDbEntity
  8
0
  6
CONTINUOUS
 62
               7
100
AcDbLine
 10
2.75
 20
6.7000000000000002
 30
0.0
 11
2.75
 21
13.9
 31
0.0
  0
LINE
  5
1BF
100
AcDbEntity
  8
0
  6
CONTINUOUS
 62
               7
100
AcDbLine
 10
-2.75
 20
6.7000000000000002
 30
0.0
 11
-2.75
 21
11.15
 31
0.0
  0
LINE
  5
1C0
100
AcDbEntity
  8
0
  6
CONTINUOUS
 62
               7
100
AcDbLine
 10
-2.0
 20
7.7300000000000004
 30
0.0
 11
-2.0
 21
11.15
 31
0.0
  0
LINE
  5
1C1
100
AcDbEntity
  8
0
  6
CENTER
 62
               2
100
AcDbLine
 10
-3.6400000000000001
 20
10.6
 30
0.0
 11
11.800000000000001
 21
10.6
 31
0.0
  0
LINE
  5
1C2
100
AcDbEntity
  8
0
  6
CENTER
 62
               2
100
AcDbLine
 10
0.0
 20
-5.4800000000000004
 30
0.0
 11
0.0
 21
15.66
 31
0.0
  0
LINE
  5
1C3
100
AcDbEntity
  8
0
  6
CONTINUOUS
 62
               7
100
AcDbLine
 10
-4.0
 20
6.7000000000000002
 30
0.0
 11
4.0
 21
6.7000000000000002
 31
0.0
  0
LINE
  5
1C4
100
AcDbEntity
  8
0
  6
CONTINUOUS
 62
               7
100
AcDbLine
 10
4.0
 20
0.8
 30
0.0
 11
4.0
 21
2.2999999999999998
 31
0.0
  0
LINE
  5
1C5
100
AcDbEntity
  8
0
  6
CONTINUOUS
 62
               7
100
AcDbLine
 10
-4.0
 20
0.8
 30
0.0
 11
-4.0
 21
2.2999999999999998
 31
0.0
  0
LINE
  5
1C6
100
AcDbEntity
  8
0
  6
CONTINUOUS
 62
               2
100
AcDbLine
 10
2.4500000000000002
 20
-3.8999999999999999
 30
0.0
 11
2.4500000000000002
 21
0.0
 31
0.0
  0
LINE
  5
1C7
100
AcDbEntity
  8
0
  6
CONTINUOUS
 62
               2
100
AcDbLine
 10
-2.4500000000000002
 20
-3.8999999999999999
 30
0.0
 11
-2.4500000000000002
 21
0.0
 31
0.0
  0
LINE
  5
1C8
100
AcDbEntity
  8
0
  6
CONTINUOUS
 62
               7
100
AcDbLine
 10
3.0
 20
-3.8999999999999999
 30
0.0
 11
3.0
 21
0.0
 31
0.0
  0
LINE
  5
1C9
100
AcDbEntity
  8
0
  6
CONTINUOUS
 62
               7
100
AcDbLine
 10
-3.0
 20
-3.8999999999999999
 30
0.0
 11
-3.0
 21
0.0
 31
0.0
  0
LINE
  5
1CA
100
AcDbEntity
  8
0
  6
CONTINUOUS
 62
               7
100
AcDbLine
 10
-3.0
 20
-3.8999999999999999
 30
0.0
 11
3.0
 21
-3.8999999999999999
 31
0.0
  0
LINE
  5
1CB
100
AcDbEntity
  8
0
  6
CONTINUOUS
 62
               7
100
AcDbLine
 10
-4.6100000000000003
 20
2.6499999999999999
 30
0.0
 11
-4.6100000000000003
 21
6.3399999999999999
 31
0.0
  0
LINE
  5
1CC
100
AcDbEntity
  8
0
  6
CONTINUOUS
 62
               7
100
AcDbLine
 10
-4.6100000000000003
 20
2.6499999999999999
 30
0.0
 11
-4.0
 21
2.2999999999999998
 31
0.0
  0
LINE
  5
1CD
100
AcDbEntity
  8
0
  6
CONTINUOUS
 62
               7
100
AcDbLine
 10
-4.6100000000000003
 20
6.3399999999999999
 30
0.0
 11
-4.0
 21
6.7000000000000002
 31
0.0
  0
LINE
  5
1CE
100
AcDbEntity
  8
0
  6
CONTINUOUS
 62
               7
100
AcDbLine
 10
4.6100000000000003
 20
2.6499999999999999
 30
0.0
 11
4.0
 21
2.2999999999999998
 31
0.0
  0
LINE
  5
1CF
100
AcDbEntity
  8
0
  6
CONTINUOUS
 62
               7
100
AcDbLine
 10
-2.2999999999999998
 20
2.6499999999999999
 30
0.0
 11
-2.2999999999999998
 21
6.3399999999999999
 31
0.0
  0
LINE
  5
1D0
100
AcDbEntity
  8
0
  6
CONTINUOUS
 62
               7
100
AcDbLine
 10
2.2999999999999998
 20
2.6499999999999999
 30
0.0
 11
2.2999999999999998
 21
6.3399999999999999
 31
0.0
  0
LINE
  5
1D1
100
AcDbEntity
  8
0
  6
CONTINUOUS
 62
               7
100
AcDbLine
 10
4.6100000000000003
 20
2.6499999999999999
 30
0.0
 11
4.6100000000000003
 21
6.3399999999999999
 31
0.0
  0
LINE
  5
1D2
100
AcDbEntity
  8
0
  6
CONTINUOUS
 62
               7
100
AcDbLine
 10
4.6100000000000003
 20
6.3399999999999999
 30
0.0
 11
4.0
 21
6.7000000000000002
 31
0.0
  0
LINE
  5
1D3
100
AcDbEntity
  8
0
  6
CONTINUOUS
 62
               7
100
AcDbLine
 10
-4.5
 20
0.0
 30
0.0
 11
-4.5
 21
0.8
 31
0.0
  0
LINE
  5
1D4
100
AcDbEntity
  8
0
  6
CONTINUOUS
 62
               7
100
AcDbLine
 10
4.5
 20
0.0
 30
0.0
 11
4.5
 21
0.8
 31
0.0
  0
LINE
  5
1D5
100
AcDbEntity
  8
0
  6
CONTINUOUS
 62
               7
100
AcDbLine
 10
-4.0
 20
2.2999999999999998
 30
0.0
 11
4.0
 21
2.2999999999999998
 31
0.0
  0
LINE
  5
1D6
100
AcDbEntity
  8
0
  6
CONTINUOUS
 62
               7
100
AcDbLine
 10
-4.5
 20
0.8
 30
0.0
 11
4.5
 21
0.8
 31
0.0
  0
LINE
  5
1D7
100
AcDbEntity
  8
0
  6
CONTINUOUS
 62
               7
100
AcDbLine
 10
-4.5
 20
0.0
 30
0.0
 11
4.5
 21
0.0
 31
0.0
  0
ENDBLK
  5
1D8
100
AcDbEntity
  8
0
100
AcDbBlockEnd
  0
BLOCK
  5
1D9
100
AcDbEntity
  8
0
100
AcDbBlockBegin
  2
MS_10
 70
               0
 10
0.0
 20
0.0
 30
0.0
  3
MS_10
  1

  0
ARC
  5
1DA
100
AcDbEntity
  8
0
  6
CONTINUOUS
 62
               7
100
AcDbCircle
 10
0.0040570785687867
 20
-0.0031465589081612
 30
0.0
 40
1.9968575625434157
100
AcDbArc
 50
194.40755887533339
 51
269.88359027532476
  0
ARC
  5
1DB
100
AcDbEntity
  8
0
  6
CONTINUOUS
 62
               7
100
AcDbCircle
 10
0.0000000000000002
 20
0.0
 30
0.0
 40
2.7475807540452744
100
AcDbArc
 50
58.392497753750966
 51
301.6075022462482
  0
ARC
  5
1DC
100
AcDbEntity
  8
0
  6
CONTINUOUS
 62
               7
100
AcDbCircle
 10
0.0
 20
-0.0000000000000004
 30
0.0
 40
4.499288832693451
100
AcDbArc
 50
242.75153257335469
 51
297.24846742664408
  0
ARC
  5
1DD
100
AcDbEntity
  8
0
  6
CONTINUOUS
 62
               7
100
AcDbCircle
 10
-0.0004034008732914
 20
-0.0003122738720007
 30
0.0
 40
4.493651076576719
100
AcDbArc
 50
302.74170597420618
 51
312.75190480034183
  0
ARC
  5
1DE
100
AcDbEntity
  8
0
  6
CONTINUOUS
 62
               7
100
AcDbCircle
 10
-0.0004034008732914
 20
0.0003122738720007
 30
0.0
 40
4.493651076576719
100
AcDbArc
 50
47.248095199657357
 51
57.258294025793042
  0
ARC
  5
1DF
100
AcDbEntity
  8
0
  6
CONTINUOUS
 62
               7
100
AcDbCircle
 10
0.0
 20
0.0000000000000004
 30
0.0
 40
4.499288832693451
100
AcDbArc
 50
62.751532573355114
 51
117.24846742664448
  0
ARC
  5
1E0
100
AcDbEntity
  8
0
  6
CONTINUOUS
 62
               7
100
AcDbCircle
 10
-0.0006607090973474
 20
-0.0011453611371053
 30
0.0
 40
4.4943019071232904
100
AcDbArc
 50
122.72024499299935
 51
177.3072140999854
  0
ARC
  5
1E1
100
AcDbEntity
  8
0
  6
CONTINUOUS
 62
               7
100
AcDbCircle
 10
-0.0006607090973474
 20
0.0011453611371053
 30
0.0
 40
4.4943019071232904
100
AcDbArc
 50
182.6927859000138
 51
237.27975500699981
  0
ARC
  5
1E2
100
AcDbEntity
  8
0
  6
CONTINUOUS
 62
               7
100
AcDbCircle
 10
0.0000000000000009
 20
0.0
 30
0.0
 40
4.0001999950002496
100
AcDbArc
 50
49.460848258516457
 51
310.53915174148273
  0
ARC
  5
1E3
100
AcDbEntity
  8
0
  6
CONTINUOUS
 62
               7
100
AcDbCircle
 10
0.0040570785687867
 20
0.0031465589081612
 30
0.0
 40
1.9968575625434157
100
AcDbArc
 50
90.116409724674455
 51
165.59244112466581
  0
LINE
  5
1E4
100
AcDbEntity
  8
0
  6
CONTINUOUS
 62
               7
100
AcDbLine
 10
2.75
 20
-3.2999999999999998
 30
0.0
 11
2.75
 21
-0.5
 31
0.0
  0
LINE
  5
1E5
100
AcDbEntity
  8
0
  6
CONTINUOUS
 62
               7
100
AcDbLine
 10
2.3100000000000001
 20
-2.5499999999999998
 30
0.0
 11
2.3100000000000001
 21
-0.5
 31
0.0
  0
LINE
  5
1E6
100
AcDbEntity
  8
0
  6
CONTINUOUS
 62
               7
100
AcDbLine
 10
-2.7000000000000002
 20
-0.5
 30
0.0
 11
2.75
 21
-0.5
 31
0.0
  0
LINE
  5
1E7
100
AcDbEntity
  8
0
  6
CONTINUOUS
 62
               7
100
AcDbLine
 10
-2.7000000000000002
 20
0.5
 30
0.0
 11
2.75
 21
0.5
 31
0.0
  0
LINE
  5
1E8
100
AcDbEntity
  8
0
  6
CONTINUOUS
 62
               7
100
AcDbLine
 10
-2.2999999999999998
 20
-4.0
 30
0.0
 11
2.2999999999999998
 21
-4.0
 31
0.0
  0
LINE
  5
1E9
100
AcDbEntity
  8
0
  6
CONTINUOUS
 62
               7
100
AcDbLine
 10
-4.6100000000000003
 20
0.0
 30
0.0
 11
-2.2999999999999998
 21
-4.0
 31
0.0
  0
LINE
  5
1EA
100
AcDbEntity
  8
0
  6
CONTINUOUS
 62
               7
100
AcDbLine
 10
-2.2999999999999998
 20
4.0
 30
0.0
 11
-4.6100000000000003
 21
0.0
 31
0.0
  0
LINE
  5
1EB
100
AcDbEntity
  8
0
  6
CONTINUOUS
 62
               7
100
AcDbLine
 10
2.2999999999999998
 20
4.0
 30
0.0
 11
-2.2999999999999998
 21
4.0
 31
0.0
  0
LINE
  5
1EC
100
AcDbEntity
  8
0
  6
CONTINUOUS
 62
               7
100
AcDbLine
 10
2.73
 20
3.2599999999999998
 30
0.0
 11
2.2999999999999998
 21
4.0
 31
0.0
  0
LINE
  5
1ED
100
AcDbEntity
  8
0
  6
CONTINUOUS
 62
               7
100
AcDbLine
 10
2.2999999999999998
 20
-4.0
 30
0.0
 11
2.73
 21
-3.2599999999999998
 31
0.0
  0
LINE
  5
1EE
100
AcDbEntity
  8
0
  6
CONTINUOUS
 62
               7
100
AcDbLine
 10
0.0
 20
2.0
 30
0.0
 11
2.3100000000000001
 21
2.5499999999999998
 31
0.0
  0
LINE
  5
1EF
100
AcDbEntity
  8
0
  6
CONTINUOUS
 62
               7
100
AcDbLine
 10
0.0
 20
-2.0
 30
0.0
 11
2.3100000000000001
 21
-2.5499999999999998
 31
0.0
  0
LINE
  5
1F0
100
AcDbEntity
  8
0
  6
CONTINUOUS
 62
               7
100
AcDbLine
 10
2.75
 20
3.2999999999999998
 30
0.0
 11
2.75
 21
0.5
 31
0.0
  0
LINE
  5
1F1
100
AcDbEntity
  8
0
  6
CENTER
 62
               2
100
AcDbLine
 10
0.0
 20
5.4100000000000001
 30
0.0
 11
0.0
 21
-5.5999999999999996
 31
0.0
  0
LINE
  5
1F2
100
AcDbEntity
  8
0
  6
CENTER
 62
               2
100
AcDbLine
 10
-5.6600000000000001
 20
0.0
 30
0.0
 11
11.800000000000001
 21
0.0
 31
0.0
  0
LINE
  5
1F3
100
AcDbEntity
  8
0
  6
CONTINUOUS
 62
               7
100
AcDbLine
 10
2.3100000000000001
 20
-2.5499999999999998
 30
0.0
 11
2.75
 21
-3.2999999999999998
 31
0.0
  0
LINE
  5
1F4
100
AcDbEntity
  8
0
  6
CONTINUOUS
 62
               7
100
AcDbLine
 10
2.3100000000000001
 20
2.5499999999999998
 30
0.0
 11
2.3100000000000001
 21
0.5
 31
0.0
  0
LINE
  5
1F5
100
AcDbEntity
  8
0
  6
CONTINUOUS
 62
               7
100
AcDbLine
 10
2.3100000000000001
 20
2.5499999999999998
 30
0.0
 11
2.75
 21
3.2999999999999998
 31
0.0
  0
LINE
  5
1F6
100
AcDbEntity
  8
0
  6
CONTINUOUS
 62
               7
100
AcDbLine
 10
2.75
 20
3.2999999999999998
 30
0.0
 11
6.5
 21
3.2999999999999998
 31
0.0
  0
LINE
  5
1F7
100
AcDbEntity
  8
0
  6
CONTINUOUS
 62
               7
100
AcDbLine
 10
6.5
 20
-3.2999999999999998
 30
0.0
 11
8.0
 21
-2.75
 31
0.0
  0
LINE
  5
1F8
100
AcDbEntity
  8
0
  6
CONTINUOUS
 62
               7
100
AcDbLine
 10
6.5
 20
3.2999999999999998
 30
0.0
 11
8.0
 21
2.75
 31
0.0
  0
LINE
  5
1F9
100
AcDbEntity
  8
0
  6
CONTINUOUS
 62
               7
100
AcDbLine
 10
6.5
 20
3.2999999999999998
 30
0.0
 11
6.5
 21
-3.2999999999999998
 31
0.0
  0
LINE
  5
1FA
100
AcDbEntity
  8
0
  6
CONTINUOUS
 62
               7
100
AcDbLine
 10
8.0
 20
2.75
 30
0.0
 11
8.0
 21
-2.75
 31
0.0
  0
LINE
  5
1FB
100
AcDbEntity
  8
0
  6
CONTINUOUS
 62
               7
100
AcDbLine
 10
2.75
 20
-3.2999999999999998
 30
0.0
 11
6.5
 21
-3.2999999999999998
 31
0.0
  0
LINE
  5
1FC
100
AcDbEntity
  8
0
  6
CONTINUOUS
 62
               7
100
AcDbLine
 10
9.1999999999999993
 20
2.75
 30
0.0
 11
9.1999999999999993
 21
-2.75
 31
0.0
  0
LINE
  5
1FD
100
AcDbEntity
  8
0
  6
CONTINUOUS
 62
               7
100
AcDbLine
 10
9.1999999999999993
 20
-2.0
 30
0.0
 11
9.5999999999999996
 21
-2.0
 31
0.0
  0
LINE
  5
1FE
100
AcDbEntity
  8
0
  6
CONTINUOUS
 62
               7
100
AcDbLine
 10
9.1999999999999993
 20
2.0
 30
0.0
 11
9.5999999999999996
 21
2.0
 31
0.0
  0
LINE
  5
1FF
100
AcDbEntity
  8
0
  6
CONTINUOUS
 62
               7
100
AcDbLine
 10
8.0
 20
-2.75
 30
0.0
 11
9.1999999999999993
 21
-2.75
 31
0.0
  0
LINE
  5
200
100
AcDbEntity
  8
0
  6
CONTINUOUS
 62
               7
100
AcDbLine
 10
8.0
 20
2.75
 30
0.0
 11
9.1999999999999993
 21
2.75
 31
0.0
  0
LINE
  5
201
100
AcDbEntity
  8
0
  6
CONTINUOUS
 62
               7
100
AcDbLine
 10
9.5999999999999996
 20
3.5
 30
0.0
 11
9.5999999999999996
 21
-3.5
 31
0.0
  0
LINE
  5
202
100
AcDbEntity
  8
0
  6
CONTINUOUS
 62
               7
100
AcDbLine
 10
9.5999999999999996
 20
3.5
 30
0.0
 11
10.800000000000001
 21
3.5
 31
0.0
  0
LINE
  5
203
100
AcDbEntity
  8
0
  6
CONTINUOUS
 62
               7
100
AcDbLine
 10
10.800000000000001
 20
3.5
 30
0.0
 11
10.800000000000001
 21
-3.5
 31
0.0
  0
LINE
  5
204
100
AcDbEntity
  8
0
  6
CONTINUOUS
 62
               7
100
AcDbLine
 10
9.5999999999999996
 20
-3.5
 30
0.0
 11
10.800000000000001
 21
-3.5
 31
0.0
  0
ENDBLK
  5
205
100
AcDbEntity
  8
0
100
AcDbBlockEnd
  0
BLOCK
  5
206
100
AcDbEntity
  8
0
100
AcDbBlockBegin
  2
MS_11
 70
               0
 10
0.0
 20
0.0
 30
0.0
  3
MS_11
  1

  0
ARC
  5
207
100
AcDbEntity
  8
0
  6
CONTINUOUS
 62
               7
100
AcDbCircle
 10
-2.0
 20
0.9232921600341797
 30
0.0
 40
5.7741426916510452
100
AcDbArc
 50
69.734444041999879
 51
110.26555595799974
  0
ARC
  5
208
100
AcDbEntity
  8
0
  6
CONTINUOUS
 62
               7
100
AcDbCircle
 10
2.0
 20
0.9232921600341797
 30
0.0
 40
5.7741426916510452
100
AcDbArc
 50
69.734444041999879
 51
110.26555595799974
  0
ARC
  5
209
100
AcDbEntity
  8
0
  6
CONTINUOUS
 62
               7
100
AcDbCircle
 10
-2.0
 20
8.0767116546633808
 30
0.0
 40
5.7835282814955935
100
AcDbArc
 50
249.76877120537608
 51
290.23122879462272
  0
ARC
  5
20A
100
AcDbEntity
  8
0
  6
CONTINUOUS
 62
               7
100
AcDbCircle
 10
2.0
 20
8.0767116546633808
 30
0.0
 40
5.7835282814955935
100
AcDbArc
 50
249.76877120537608
 51
290.23122879462272
  0
ARC
  5
20B
100
AcDbEntity
  8
0
  6
CONTINUOUS
 62
               7
100
AcDbCircle
 10
0.000245217300997
 20
11.1636947556451
 30
0.0
 40
1.9997581959194002
100
AcDbArc
 50
359.89414018871338
 51
75.527955164065432
  0
ARC
  5
20C
100
AcDbEntity
  8
0
  6
CONTINUOUS
 62
               7
100
AcDbCircle
 10
-0.000245217300997
 20
11.1636947556451
 30
0.0
 40
1.9997581959194002
100
AcDbArc
 50
104.47204483593417
 51
180.10585981128543
  0
ARC
  5
20D
100
AcDbEntity
  8
0
  6
CONTINUOUS
 62
               7
100
AcDbCircle
 10
-0.0011108474476886
 20
10.596972193440472
 30
0.0
 40
2.5522614652391242
100
AcDbArc
 50
101.27214902903741
 51
218.44701196225088
  0
ARC
  5
20E
100
AcDbEntity
  8
0
  6
CONTINUOUS
 62
               7
100
AcDbCircle
 10
0.0
 20
10.600004196166992
 30
0.0
 40
3.3040765838363959
100
AcDbArc
 50
307.25135738951593
 51
232.74864261048288
  0
ARC
  5
20F
100
AcDbEntity
  8
0
  6
CONTINUOUS
 62
               7
100
AcDbCircle
 10
0.0011108474476886
 20
10.596972193440472
 30
0.0
 40
2.5522614652391242
100
AcDbArc
 50
321.55298803774787
 51
78.727850970962194
  0
ARC
  5
210
100
AcDbEntity
  8
0
  6
CONTINUOUS
 62
               7
100
AcDbCircle
 10
0.0
 20
11.100004196166992
 30
0.0
 40
2.998280546678358
100
AcDbArc
 50
33.159989803737943
 51
146.84001019626166
  0
LINE
  5
211
100
AcDbEntity
  8
0
  6
CONTINUOUS
 62
               7
100
AcDbLine
 10
-4.5
 20
0.0
 30
0.0
 11
-4.5
 21
0.8
 31
0.0
  0
LINE
  5
212
100
AcDbEntity
  8
0
  6
CONTINUOUS
 62
               7
100
AcDbLine
 10
0.0
 20
6.3399999999999999
 30
0.0
 11
0.0
 21
2.6499999999999999
 31
0.0
  0
LINE
  5
213
100
AcDbEntity
  8
0
  6
CONTINUOUS
 62
               2
100
AcDbLine
 10
2.4500000000000002
 20
-3.8999999999999999
 30
0.0
 11
2.4500000000000002
 21
0.0
 31
0.0
  0
LINE
  5
214
100
AcDbEntity
  8
0
  6
CONTINUOUS
 62
               2
100
AcDbLine
 10
-2.4500000000000002
 20
-3.8999999999999999
 30
0.0
 11
-2.4500000000000002
 21
0.0
 31
0.0
  0
LINE
  5
215
100
AcDbEntity
  8
0
  6
CONTINUOUS
 62
               7
100
AcDbLine
 10
3.0
 20
-3.8999999999999999
 30
0.0
 11
3.0
 21
0.0
 31
0.0
  0
LINE
  5
216
100
AcDbEntity
  8
0
  6
CONTINUOUS
 62
               7
100
AcDbLine
 10
-3.0
 20
-3.8999999999999999
 30
0.0
 11
-3.0
 21
0.0
 31
0.0
  0
LINE
  5
217
100
AcDbEntity
  8
0
  6
CONTINUOUS
 62
               7
100
AcDbLine
 10
-3.0
 20
-3.8999999999999999
 30
0.0
 11
3.0
 21
-3.8999999999999999
 31
0.0
  0
LINE
  5
218
100
AcDbEntity
  8
0
  6
CONTINUOUS
 62
               7
100
AcDbLine
 10
4.5
 20
0.0
 30
0.0
 11
4.5
 21
0.8
 31
0.0
  0
LINE
  5
219
100
AcDbEntity
  8
0
  6
CONTINUOUS
 62
               7
100
AcDbLine
 10
-4.0
 20
0.8
 30
0.0
 11
-4.0
 21
6.7000000000000002
 31
0.0
  0
LINE
  5
21A
100
AcDbEntity
  8
0
  6
CONTINUOUS
 62
               7
100
AcDbLine
 10
4.0
 20
0.8
 30
0.0
 11
4.0
 21
6.7000000000000002
 31
0.0
  0
LINE
  5
21B
100
AcDbEntity
  8
0
  6
CONTINUOUS
 62
               7
100
AcDbLine
 10
-4.0
 20
2.2999999999999998
 30
0.0
 11
4.0
 21
2.2999999999999998
 31
0.0
  0
LINE
  5
21C
100
AcDbEntity
  8
0
  6
CONTINUOUS
 62
               7
100
AcDbLine
 10
-4.5
 20
0.8
 30
0.0
 11
4.5
 21
0.8
 31
0.0
  0
LINE
  5
21D
100
AcDbEntity
  8
0
  6
CONTINUOUS
 62
               7
100
AcDbLine
 10
-4.5
 20
0.0
 30
0.0
 11
4.5
 21
0.0
 31
0.0
  0
LINE
  5
21E
100
AcDbEntity
  8
0
  6
CONTINUOUS
 62
               7
100
AcDbLine
 10
-4.0
 20
6.7000000000000002
 30
0.0
 11
4.0
 21
6.7000000000000002
 31
0.0
  0
LINE
  5
21F
100
AcDbEntity
  8
0
  6
CONTINUOUS
 62
               7
100
AcDbLine
 10
0.5
 20
7.7300000000000004
 30
0.0
 11
2.0
 21
7.7300000000000004
 31
0.0
  0
LINE
  5
220
100
AcDbEntity
  8
0
  6
CONTINUOUS
 62
               7
100
AcDbLine
 10
-0.5
 20
7.2999999999999998
 30
0.0
 11
-2.75
 21
7.2999999999999998
 31
0.0
  0
LINE
  5
221
100
AcDbEntity
  8
0
  6
CONTINUOUS
 62
               7
100
AcDbLine
 10
-0.5
 20
7.2999999999999998
 30
0.0
 11
-0.5
 21
13.859999999999999
 31
0.0
  0
LINE
  5
222
100
AcDbEntity
  8
0
  6
CONTINUOUS
 62
               7
100
AcDbLine
 10
0.5
 20
7.2999999999999998
 30
0.0
 11
0.5
 21
13.859999999999999
 31
0.0
  0
LINE
  5
223
100
AcDbEntity
  8
0
  6
CONTINUOUS
 62
               7
100
AcDbLine
 10
-2.0
 20
7.7300000000000004
 30
0.0
 11
-0.5
 21
7.7300000000000004
 31
0.0
  0
LINE
  5
224
100
AcDbEntity
  8
0
  6
CONTINUOUS
 62
               7
100
AcDbLine
 10
-2.0
 20
7.7300000000000004
 30
0.0
 11
-2.0
 21
11.16
 31
0.0
  0
LINE
  5
225
100
AcDbEntity
  8
0
  6
CONTINUOUS
 62
               7
100
AcDbLine
 10
2.0
 20
7.7300000000000004
 30
0.0
 11
2.0
 21
11.16
 31
0.0
  0
LINE
  5
226
100
AcDbEntity
  8
0
  6
CONTINUOUS
 62
               7
100
AcDbLine
 10
2.75
 20
7.2999999999999998
 30
0.0
 11
0.5
 21
7.2999999999999998
 31
0.0
  0
LINE
  5
227
100
AcDbEntity
  8
0
  6
CONTINUOUS
 62
               7
100
AcDbLine
 10
-2.75
 20
6.7000000000000002
 30
0.0
 11
-2.75
 21
7.2999999999999998
 31
0.0
  0
LINE
  5
228
100
AcDbEntity
  8
0
  6
CONTINUOUS
 62
               7
100
AcDbLine
 10
2.75
 20
6.7000000000000002
 30
0.0
 11
2.75
 21
7.2999999999999998
 31
0.0
  0
LINE
  5
229
100
AcDbEntity
  8
0
  6
CONTINUOUS
 62
               7
100
AcDbLine
 10
2.75
 20
7.2999999999999998
 30
0.0
 11
2.0
 21
7.7300000000000004
 31
0.0
  0
LINE
  5
22A
100
AcDbEntity
  8
0
  6
CONTINUOUS
 62
               7
100
AcDbLine
 10
-2.75
 20
7.2999999999999998
 30
0.0
 11
-2.0
 21
7.7300000000000004
 31
0.0
  0
LINE
  5
22B
100
AcDbEntity
  8
0
  6
CENTER
 62
               2
100
AcDbLine
 10
4.2300000000000004
 20
10.6
 30
0.0
 11
-4.2300000000000004
 21
10.6
 31
0.0
  0
LINE
  5
22C
100
AcDbEntity
  8
0
  6
CENTER
 62
               2
100
AcDbLine
 10
0.0
 20
-5.4800000000000004
 30
0.0
 11
0.0
 21
15.66
 31
0.0
  0
ENDBLK
  5
22D
100
AcDbEntity
  8
0
100
AcDbBlockEnd
  0
BLOCK
  5
22E
100
AcDbEntity
  8
0
100
AcDbBlockBegin
  2
MS_12
 70
               0
 10
0.0
 20
0.0
 30
0.0
  3
MS_12
  1

  0
ARC
  5
22F
100
AcDbEntity
  8
0
  6
CONTINUOUS
 62
               7
100
AcDbCircle
 10
-2.0
 20
0.9232921600341797
 30
0.0
 40
5.7741426916510452
100
AcDbArc
 50
69.734444041999879
 51
110.26555595799974
  0
ARC
  5
230
100
AcDbEntity
  8
0
  6
CONTINUOUS
 62
               7
100
AcDbCircle
 10
2.0
 20
0.9232921600341797
 30
0.0
 40
5.7741426916510452
100
AcDbArc
 50
69.734444041999879
 51
110.26555595799974
  0
ARC
  5
231
100
AcDbEntity
  8
0
  6
CONTINUOUS
 62
               7
100
AcDbCircle
 10
-2.0
 20
8.0767116546630859
 30
0.0
 40
5.7835282814953164
100
AcDbArc
 50
249.76877120537506
 51
290.23122879462369
  0
ARC
  5
232
100
AcDbEntity
  8
0
  6
CONTINUOUS
 62
               7
100
AcDbCircle
 10
2.0
 20
8.0767116546630859
 30
0.0
 40
5.7835282814953164
100
AcDbArc
 50
249.76877120537506
 51
290.23122879462369
  0
ARC
  5
233
100
AcDbEntity
  8
0
  6
CONTINUOUS
 62
               7
100
AcDbCircle
 10
0.0000000000020308
 20
10.600000000000001
 30
0.0
 40
3.2984390247524953
100
AcDbArc
 50
139.54943379260806
 51
220.45056620739115
  0
ARC
  5
234
100
AcDbEntity
  8
0
  6
CONTINUOUS
 62
               7
100
AcDbCircle
 10
0.0
 20
10.1
 30
0.0
 40
3.0000000000029345
100
AcDbArc
 50
179.9999999999996
 51
0.0
  0
ARC
  5
235
100
AcDbEntity
  8
0
  6
CONTINUOUS
 62
               7
100
AcDbCircle
 10
0.0
 20
11.1
 30
0.0
 40
3.0000000000029345
100
AcDbArc
 50
0.0
 51
179.9999999999996
  0
ARC
  5
236
100
AcDbEntity
  8
0
  6
CONTINUOUS
 62
               7
100
AcDbCircle
 10
-0.0000000000020308
 20
10.600000000000001
 30
0.0
 40
3.2984390247524953
100
AcDbArc
 50
319.54943379260766
 51
40.450566207391539
  0
CIRCLE
  5
237
100
AcDbEntity
  8
0
  6
CONTINUOUS
 62
               7
100
AcDbCircle
 10
0.0
 20
10.600004196166992
 30
0.0
 40
1.5
  0
LINE
  5
238
100
AcDbEntity
  8
0
  6
CONTINUOUS
 62
               7
100
AcDbLine
 10
0.0
 20
6.3399999999999999
 30
0.0
 11
0.0
 21
2.6499999999999999
 31
0.0
  0
LINE
  5
239
100
AcDbEntity
  8
0
  6
CONTINUOUS
 62
               2
100
AcDbLine
 10
2.4500000000000002
 20
-3.8999999999999999
 30
0.0
 11
2.4500000000000002
 21
0.0
 31
0.0
  0
LINE
  5
23A
100
AcDbEntity
  8
0
  6
CONTINUOUS
 62
               2
100
AcDbLine
 10
-2.4500000000000002
 20
-3.8999999999999999
 30
0.0
 11
-2.4500000000000002
 21
0.0
 31
0.0
  0
LINE
  5
23B
100
AcDbEntity
  8
0
  6
CONTINUOUS
 62
               7
100
AcDbLine
 10
3.0
 20
-3.8999999999999999
 30
0.0
 11
3.0
 21
0.0
 31
0.0
  0
LINE
  5
23C
100
AcDbEntity
  8
0
  6
CONTINUOUS
 62
               7
100
AcDbLine
 10
-3.0
 20
-3.8999999999999999
 30
0.0
 11
-3.0
 21
0.0
 31
0.0
  0
LINE
  5
23D
100
AcDbEntity
  8
0
  6
CONTINUOUS
 62
               7
100
AcDbLine
 10
-3.0
 20
-3.8999999999999999
 30
0.0
 11
3.0
 21
-3.8999999999999999
 31
0.0
  0
LINE
  5
23E
100
AcDbEntity
  8
0
  6
CONTINUOUS
 62
               7
100
AcDbLine
 10
-4.5
 20
0.0
 30
0.0
 11
-4.5
 21
0.8
 31
0.0
  0
LINE
  5
23F
100
AcDbEntity
  8
0
  6
CONTINUOUS
 62
               7
100
AcDbLine
 10
4.5
 20
0.0
 30
0.0
 11
4.5
 21
0.8
 31
0.0
  0
LINE
  5
240
100
AcDbEntity
  8
0
  6
CONTINUOUS
 62
               7
100
AcDbLine
 10
-4.0
 20
0.8
 30
0.0
 11
-4.0
 21
6.7000000000000002
 31
0.0
  0
LINE
  5
241
100
AcDbEntity
  8
0
  6
CONTINUOUS
 62
               7
100
AcDbLine
 10
4.0
 20
0.8
 30
0.0
 11
4.0
 21
6.7000000000000002
 31
0.0
  0
LINE
  5
242
100
AcDbEntity
  8
0
  6
CONTINUOUS
 62
               7
100
AcDbLine
 10
-4.0
 20
2.2999999999999998
 30
0.0
 11
4.0
 21
2.2999999999999998
 31
0.0
  0
LINE
  5
243
100
AcDbEntity
  8
0
  6
CONTINUOUS
 62
               7
100
AcDbLine
 10
-4.5
 20
0.8
 30
0.0
 11
4.5
 21
0.8
 31
0.0
  0
LINE
  5
244
100
AcDbEntity
  8
0
  6
CONTINUOUS
 62
               7
100
AcDbLine
 10
-4.5
 20
0.0
 30
0.0
 11
4.5
 21
0.0
 31
0.0
  0
LINE
  5
245
100
AcDbEntity
  8
0
  6
CONTINUOUS
 62
               7
100
AcDbLine
 10
-4.0
 20
6.7000000000000002
 30
0.0
 11
4.0
 21
6.7000000000000002
 31
0.0
  0
LINE
  5
246
100
AcDbEntity
  8
0
  6
CONTINUOUS
 62
               7
100
AcDbLine
 10
2.0
 20
7.8600000000000003
 30
0.0
 11
2.0
 21
7.7300000000000004
 31
0.0
  0
LINE
  5
247
100
AcDbEntity
  8
0
  6
CONTINUOUS
 62
               7
100
AcDbLine
 10
-2.0
 20
7.8600000000000003
 30
0.0
 11
-2.0
 21
7.7300000000000004
 31
0.0
  0
LINE
  5
248
100
AcDbEntity
  8
0
  6
CONTINUOUS
 62
               7
100
AcDbLine
 10
1.8400000000000001
 20
7.7300000000000004
 30
0.0
 11
2.0
 21
7.7300000000000004
 31
0.0
  0
LINE
  5
249
100
AcDbEntity
  8
0
  6
CONTINUOUS
 62
               7
100
AcDbLine
 10
-1.0700000000000001
 20
7.2999999999999998
 30
0.0
 11
-2.75
 21
7.2999999999999998
 31
0.0
  0
LINE
  5
24A
100
AcDbEntity
  8
0
  6
CONTINUOUS
 62
               7
100
AcDbLine
 10
-3.0
 20
11.1
 30
0.0
 11
-3.0
 21
10.1
 31
0.0
  0
LINE
  5
24B
100
AcDbEntity
  8
0
  6
CONTINUOUS
 62
               7
100
AcDbLine
 10
3.0
 20
11.1
 30
0.0
 11
3.0
 21
10.1
 31
0.0
  0
LINE
  5
24C
100
AcDbEntity
  8
0
  6
CONTINUOUS
 62
               7
100
AcDbLine
 10
-2.0
 20
7.7300000000000004
 30
0.0
 11
-1.8400000000000001
 21
7.7300000000000004
 31
0.0
  0
LINE
  5
24D
100
AcDbEntity
  8
0
  6
CONTINUOUS
 62
               7
100
AcDbLine
 10
2.75
 20
7.2999999999999998
 30
0.0
 11
1.0700000000000001
 21
7.2999999999999998
 31
0.0
  0
LINE
  5
24E
100
AcDbEntity
  8
0
  6
CONTINUOUS
 62
               7
100
AcDbLine
 10
-2.75
 20
6.7000000000000002
 30
0.0
 11
-2.75
 21
7.2999999999999998
 31
0.0
  0
LINE
  5
24F
100
AcDbEntity
  8
0
  6
CONTINUOUS
 62
               7
100
AcDbLine
 10
2.75
 20
6.7000000000000002
 30
0.0
 11
2.75
 21
7.2999999999999998
 31
0.0
  0
LINE
  5
250
100
AcDbEntity
  8
0
  6
CONTINUOUS
 62
               7
100
AcDbLine
 10
2.75
 20
7.2999999999999998
 30
0.0
 11
2.0
 21
7.7300000000000004
 31
0.0
  0
LINE
  5
251
100
AcDbEntity
  8
0
  6
CONTINUOUS
 62
               7
100
AcDbLine
 10
-2.75
 20
7.2999999999999998
 30
0.0
 11
-2.0
 21
7.7300000000000004
 31
0.0
  0
LINE
  5
252
100
AcDbEntity
  8
0
  6
CENTER
 62
               2
100
AcDbLine
 10
-4.6200000000000001
 20
10.6
 30
0.0
 11
4.5899999999999999
 21
10.6
 31
0.0
  0
LINE
  5
253
100
AcDbEntity
  8
0
  6
CENTER
 62
               2
100
AcDbLine
 10
0.0
 20
15.66
 30
0.0
 11
0.0
 21
-5.4100000000000001
 31
0.0
  0
ENDBLK
  5
254
100
AcDbEntity
  8
0
100
AcDbBlockEnd
  0
BLOCK
  5
255
100
AcDbEntity
  8
0
100
AcDbBlockBegin
  2
MS_13
 70
               0
 10
0.0
 20
0.0
 30
0.0
  3
MS_13
  1

  0
ARC
  5
256
100
AcDbEntity
  8
0
  6
CONTINUOUS
 62
               7
100
AcDbCircle
 10
-0.0000228979754862
 20
11.899975257714189
 30
0.0
 40
4.00002474235135
100
AcDbArc
 50
89.999672012689913
 51
185.73877866789684
  0
ARC
  5
257
100
AcDbEntity
  8
0
  6
CONTINUOUS
 62
               7
100
AcDbCircle
 10
-0.0000002861022805
 20
11.90000028610228
 30
0.0
 40
2.9999997138977328
100
AcDbArc
 50
89.999994535848217
 51
180.00000546415117
  0
ARC
  5
258
100
AcDbEntity
  8
0
  6
CONTINUOUS
 62
               7
100
AcDbCircle
 10
0.0
 20
11.092735290527344
 30
0.0
 40
7.646828624841997
100
AcDbArc
 50
252.49564528372372
 51
287.50435471627509
  0
ARC
  5
259
100
AcDbEntity
  8
0
  6
CONTINUOUS
 62
               7
100
AcDbCircle
 10
-3.4550000000000001
 20
5.4946761135184925
 30
0.0
 40
2.0508418100209833
100
AcDbArc
 50
235.72376391963709
 51
304.27623608036168
  0
ARC
  5
25A
100
AcDbEntity
  8
0
  6
CONTINUOUS
 62
               7
100
AcDbCircle
 10
-3.4591648395428467
 20
5.2538021836952691
 30
0.0
 40
2.0461979867410776
100
AcDbArc
 50
55.493695796089014
 51
90.023385406030769
  0
ARC
  5
25B
100
AcDbEntity
  8
0
  6
CONTINUOUS
 62
               7
100
AcDbCircle
 10
3.4550000000000001
 20
5.4946761100212207
 30
0.0
 40
2.0508418071310763
100
AcDbArc
 50
235.72376386461087
 51
304.27623613538788
  0
ARC
  5
25C
100
AcDbEntity
  8
0
  6
CONTINUOUS
 62
               7
100
AcDbCircle
 10
3.4591648395428467
 20
5.2538021836952691
 30
0.0
 40
2.0461979867410776
100
AcDbArc
 50
89.976614593968847
 51
124.50630420391059
  0
ARC
  5
25D
100
AcDbEntity
  8
0
  6
CONTINUOUS
 62
               7
100
AcDbCircle
 10
0.0
 20
-0.3427333831787109
 30
0.0
 40
7.6372904573851086
100
AcDbArc
 50
72.473076266817259
 51
107.52692373318236
  0
LINE
  5
25E
100
AcDbEntity
  8
0
  6
CONTINUOUS
 62
               7
100
AcDbLine
 10
5.7000000000000002
 20
7.2999999999999998
 30
0.0
 11
10.4
 21
7.2999999999999998
 31
0.0
  0
LINE
  5
25F
100
AcDbEntity
  8
0
  6
CONTINUOUS
 62
               7
100
AcDbLine
 10
5.7000000000000002
 20
7.2999999999999998
 30
0.0
 11
5.1200000000000001
 21
8.3000000000000007
 31
0.0
  0
LINE
  5
260
100
AcDbEntity
  8
0
  6
CONTINUOUS
 62
               7
100
AcDbLine
 10
5.1200000000000001
 20
14.9
 30
0.0
 11
5.1200000000000001
 21
8.3000000000000007
 31
0.0
  0
LINE
  5
261
100
AcDbEntity
  8
0
  6
CONTINUOUS
 62
               7
100
AcDbLine
 10
5.7000000000000002
 20
15.9
 30
0.0
 11
5.7000000000000002
 21
7.2999999999999998
 31
0.0
  0
LINE
  5
262
100
AcDbEntity
  8
0
  6
CONTINUOUS
 62
               7
100
AcDbLine
 10
5.7000000000000002
 20
15.9
 30
0.0
 11
5.1200000000000001
 21
14.9
 31
0.0
  0
LINE
  5
263
100
AcDbEntity
  8
0
  6
CONTINUOUS
 62
               7
100
AcDbLine
 10
0.0
 20
15.9
 30
0.0
 11
10.4
 21
15.9
 31
0.0
  0
LINE
  5
264
100
AcDbEntity
  8
0
  6
CONTINUOUS
 62
               7
100
AcDbLine
 10
10.4
 20
15.9
 30
0.0
 11
10.4
 21
7.2999999999999998
 31
0.0
  0
LINE
  5
265
100
AcDbEntity
  8
0
  6
CONTINUOUS
 62
               7
100
AcDbLine
 10
10.4
 20
15.9
 30
0.0
 11
12.4
 21
15.6
 31
0.0
  0
LINE
  5
266
100
AcDbEntity
  8
0
  6
CONTINUOUS
 62
               7
100
AcDbLine
 10
10.4
 20
7.2999999999999998
 30
0.0
 11
12.4
 21
7.5999999999999996
 31
0.0
  0
LINE
  5
267
100
AcDbEntity
  8
0
  6
CONTINUOUS
 62
               7
100
AcDbLine
 10
12.4
 20
15.6
 30
0.0
 11
12.4
 21
7.5999999999999996
 31
0.0
  0
LINE
  5
268
100
AcDbEntity
  8
0
  6
CONTINUOUS
 62
               7
100
AcDbLine
 10
12.4
 20
7.5999999999999996
 30
0.0
 11
13.199999999999999
 21
7.5999999999999996
 31
0.0
  0
LINE
  5
269
100
AcDbEntity
  8
0
  6
CONTINUOUS
 62
               7
100
AcDbLine
 10
12.4
 20
15.6
 30
0.0
 11
13.199999999999999
 21
15.6
 31
0.0
  0
LINE
  5
26A
100
AcDbEntity
  8
0
  6
CONTINUOUS
 62
               7
100
AcDbLine
 10
13.199999999999999
 20
15.6
 30
0.0
 11
13.199999999999999
 21
7.5999999999999996
 31
0.0
  0
LINE
  5
26B
100
AcDbEntity
  8
0
  6
CONTINUOUS
 62
               7
100
AcDbLine
 10
13.199999999999999
 20
14.1
 30
0.0
 11
13.9
 21
14.1
 31
0.0
  0
LINE
  5
26C
100
AcDbEntity
  8
0
  6
CONTINUOUS
 62
               7
100
AcDbLine
 10
13.199999999999999
 20
9.0999999999999996
 30
0.0
 11
13.9
 21
9.0999999999999996
 31
0.0
  0
LINE
  5
26D
100
AcDbEntity
  8
0
  6
CONTINUOUS
 62
               7
100
AcDbLine
 10
13.9
 20
6.7000000000000002
 30
0.0
 11
15.1
 21
6.7000000000000002
 31
0.0
  0
LINE
  5
26E
100
AcDbEntity
  8
0
  6
CONTINUOUS
 62
               7
100
AcDbLine
 10
13.9
 20
16.5
 30
0.0
 11
13.9
 21
6.7000000000000002
 31
0.0
  0
LINE
  5
26F
100
AcDbEntity
  8
0
  6
CONTINUOUS
 62
               7
100
AcDbLine
 10
15.1
 20
16.5
 30
0.0
 11
15.1
 21
6.7000000000000002
 31
0.0
  0
LINE
  5
270
100
AcDbEntity
  8
0
  6
CONTINUOUS
 62
               7
100
AcDbLine
 10
13.9
 20
16.5
 30
0.0
 11
15.1
 21
16.5
 31
0.0
  0
LINE
  5
271
100
AcDbEntity
  8
0
  6
CONTINUOUS
 62
               7
100
AcDbLine
 10
-3.0
 20
8.8699999999999992
 30
0.0
 11
3.0
 21
8.8699999999999992
 31
0.0
  0
LINE
  5
272
100
AcDbEntity
  8
0
  6
CONTINUOUS
 62
               7
100
AcDbLine
 10
4.0
 20
8.3000000000000007
 30
0.0
 11
3.0
 21
8.8699999999999992
 31
0.0
  0
LINE
  5
273
100
AcDbEntity
  8
0
  6
CONTINUOUS
 62
               7
100
AcDbLine
 10
-4.0
 20
8.3000000000000007
 30
0.0
 11
-3.0
 21
8.8699999999999992
 31
0.0
  0
LINE
  5
274
100
AcDbEntity
  8
0
  6
CONTINUOUS
 62
               7
100
AcDbLine
 10
0.0
 20
11.6
 30
0.0
 11
3.0
 21
8.8699999999999992
 31
0.0
  0
LINE
  5
275
100
AcDbEntity
  8
0
  6
CONTINUOUS
 62
               7
100
AcDbLine
 10
-4.0
 20
8.3000000000000007
 30
0.0
 11
5.1200000000000001
 21
8.3000000000000007
 31
0.0
  0
LINE
  5
276
100
AcDbEntity
  8
0
  6
CONTINUOUS
 62
               7
100
AcDbLine
 10
0.0
 20
14.9
 30
0.0
 11
5.1200000000000001
 21
14.9
 31
0.0
  0
LINE
  5
277
100
AcDbEntity
  8
0
  6
CONTINUOUS
 62
               7
100
AcDbLine
 10
-3.0
 20
8.8699999999999992
 30
0.0
 11
-3.0
 21
11.9
 31
0.0
  0
LINE
  5
278
100
AcDbEntity
  8
0
  6
CONTINUOUS
 62
               7
100
AcDbLine
 10
4.0
 20
7.2999999999999998
 30
0.0
 11
4.0
 21
8.3000000000000007
 31
0.0
  0
LINE
  5
279
100
AcDbEntity
  8
0
  6
CONTINUOUS
 62
               7
100
AcDbLine
 10
-4.0
 20
7.2999999999999998
 30
0.0
 11
-4.0
 21
11.9
 31
0.0
  0
LINE
  5
27A
100
AcDbEntity
  8
0
  6
CENTER
 62
               2
100
AcDbLine
 10
-5.5999999999999996
 20
11.6
 30
0.0
 11
16.399999999999999
 21
11.6
 31
0.0
  0
LINE
  5
27B
100
AcDbEntity
  8
0
  6
CONTINUOUS
 62
               7
100
AcDbLine
 10
-2.75
 20
2.2000000000000002
 30
0.0
 11
-4.0999999999999996
 21
3.5499999999999998
 31
0.0
  0
LINE
  5
27C
100
AcDbEntity
  8
0
  6
CONTINUOUS
 62
               7
100
AcDbLine
 10
2.75
 20
2.2000000000000002
 30
0.0
 11
4.0999999999999996
 21
3.5499999999999998
 31
0.0
  0
LINE
  5
27D
100
AcDbEntity
  8
0
  6
CONTINUOUS
 62
               7
100
AcDbLine
 10
-2.75
 20
0.7
 30
0.0
 11
2.75
 21
0.7
 31
0.0
  0
LINE
  5
27E
100
AcDbEntity
  8
0
  6
CONTINUOUS
 62
               7
100
AcDbLine
 10
-2.75
 20
0.0
 30
0.0
 11
2.75
 21
0.0
 31
0.0
  0
LINE
  5
27F
100
AcDbEntity
  8
0
  6
CONTINUOUS
 62
               7
100
AcDbLine
 10
-2.75
 20
0.0
 30
0.0
 11
-2.75
 21
2.2000000000000002
 31
0.0
  0
LINE
  5
280
100
AcDbEntity
  8
0
  6
CONTINUOUS
 62
               7
100
AcDbLine
 10
2.75
 20
0.0
 30
0.0
 11
2.75
 21
2.2000000000000002
 31
0.0
  0
LINE
  5
281
100
AcDbEntity
  8
0
  6
CONTINUOUS
 62
               2
100
AcDbLine
 10
-1.22
 20
-2.3999999999999999
 30
0.0
 11
-1.22
 21
0.0
 31
0.0
  0
LINE
  5
282
100
AcDbEntity
  8
0
  6
CONTINUOUS
 62
               2
100
AcDbLine
 10
1.22
 20
-2.3999999999999999
 30
0.0
 11
1.22
 21
0.0
 31
0.0
  0
LINE
  5
283
100
AcDbEntity
  8
0
  6
CONTINUOUS
 62
               7
100
AcDbLine
 10
-1.5
 20
-2.3999999999999999
 30
0.0
 11
-1.5
 21
0.0
 31
0.0
  0
LINE
  5
284
100
AcDbEntity
  8
0
  6
CONTINUOUS
 62
               7
100
AcDbLine
 10
1.5
 20
-2.3999999999999999
 30
0.0
 11
1.5
 21
0.0
 31
0.0
  0
LINE
  5
285
100
AcDbEntity
  8
0
  6
CONTINUOUS
 62
               7
100
AcDbLine
 10
-1.5
 20
-2.3999999999999999
 30
0.0
 11
1.5
 21
-2.3999999999999999
 31
0.0
  0
LINE
  5
286
100
AcDbEntity
  8
0
  6
CONTINUOUS
 62
               7
100
AcDbLine
 10
-4.6100000000000003
 20
3.7999999999999998
 30
0.0
 11
-4.6100000000000003
 21
6.9400000000000004
 31
0.0
  0
LINE
  5
287
100
AcDbEntity
  8
0
  6
CONTINUOUS
 62
               7
100
AcDbLine
 10
-4.6100000000000003
 20
6.9400000000000004
 30
0.0
 11
-4.0
 21
7.2999999999999998
 31
0.0
  0
LINE
  5
288
100
AcDbEntity
  8
0
  6
CONTINUOUS
 62
               7
100
AcDbLine
 10
-2.2999999999999998
 20
3.7999999999999998
 30
0.0
 11
-2.2999999999999998
 21
6.8399999999999999
 31
0.0
  0
LINE
  5
289
100
AcDbEntity
  8
0
  6
CONTINUOUS
 62
               7
100
AcDbLine
 10
2.2999999999999998
 20
3.7999999999999998
 30
0.0
 11
2.2999999999999998
 21
6.8399999999999999
 31
0.0
  0
LINE
  5
28A
100
AcDbEntity
  8
0
  6
CONTINUOUS
 62
               7
100
AcDbLine
 10
4.6100000000000003
 20
3.7999999999999998
 30
0.0
 11
4.6100000000000003
 21
6.9400000000000004
 31
0.0
  0
LINE
  5
28B
100
AcDbEntity
  8
0
  6
CONTINUOUS
 62
               7
100
AcDbLine
 10
4.6100000000000003
 20
6.9400000000000004
 30
0.0
 11
4.0
 21
7.2999999999999998
 31
0.0
  0
LINE
  5
28C
100
AcDbEntity
  8
0
  6
CONTINUOUS
 62
               7
100
AcDbLine
 10
-4.0
 20
7.2999999999999998
 30
0.0
 11
4.0
 21
7.2999999999999998
 31
0.0
  0
LINE
  5
28D
100
AcDbEntity
  8
0
  6
CONTINUOUS
 62
               7
100
AcDbLine
 10
-2.75
 20
2.2000000000000002
 30
0.0
 11
2.75
 21
2.2000000000000002
 31
0.0
  0
LINE
  5
28E
100
AcDbEntity
  8
0
  6
CENTER
 62
               2
100
AcDbLine
 10
0.0
 20
-4.3600000000000003
 30
0.0
 11
0.0
 21
18.18
 31
0.0
  0
ENDBLK
  5
28F
100
AcDbEntity
  8
0
100
AcDbBlockEnd
  0
BLOCK
  5
290
100
AcDbEntity
  8
0
100
AcDbBlockBegin
  2
MS_14
 70
               0
 10
0.0
 20
0.0
 30
0.0
  3
MS_14
  1

  0
ARC
  5
291
100
AcDbEntity
  8
0
  6
CONTINUOUS
 62
               7
100
AcDbCircle
 10
0.0046887805741826
 20
-0.0039672389224641
 30
0.0
 40
2.996036430037718
100
AcDbArc
 50
189.52994147925332
 51
269.91033238283279
  0
ARC
  5
292
100
AcDbEntity
  8
0
  6
CONTINUOUS
 62
               7
100
AcDbCircle
 10
0.0046887805741826
 20
0.0039672389224641
 30
0.0
 40
2.996036430037718
100
AcDbArc
 50
90.089667617166441
 51
170.47005852074585
  0
ARC
  5
293
100
AcDbEntity
  8
0
  6
CONTINUOUS
 62
               7
100
AcDbCircle
 10
0.0
 20
0.0
 30
0.0
 40
3.9950594488693159
100
AcDbArc
 50
51.810553098572974
 51
308.18944690142621
  0
LINE
  5
294
100
AcDbEntity
  8
0
  6
CONTINUOUS
 62
               7
100
AcDbLine
 10
5.7000000000000002
 20
-4.2999999999999998
 30
0.0
 11
5.7000000000000002
 21
-0.5
 31
0.0
  0
LINE
  5
295
100
AcDbEntity
  8
0
  6
CONTINUOUS
 62
               7
100
AcDbLine
 10
5.1200000000000001
 20
-3.2999999999999998
 30
0.0
 11
5.1200000000000001
 21
-0.5
 31
0.0
  0
LINE
  5
296
100
AcDbEntity
  8
0
  6
CONTINUOUS
 62
               7
100
AcDbLine
 10
-3.96
 20
-0.5
 30
0.0
 11
5.7000000000000002
 21
-0.5
 31
0.0
  0
LINE
  5
297
100
AcDbEntity
  8
0
  6
CONTINUOUS
 62
               7
100
AcDbLine
 10
-3.96
 20
0.5
 30
0.0
 11
5.7000000000000002
 21
0.5
 31
0.0
  0
LINE
  5
298
100
AcDbEntity
  8
0
  6
CONTINUOUS
 62
               7
100
AcDbLine
 10
5.1200000000000001
 20
-3.2999999999999998
 30
0.0
 11
0.0
 21
-3.0
 31
0.0
  0
LINE
  5
299
100
AcDbEntity
  8
0
  6
CONTINUOUS
 62
               7
100
AcDbLine
 10
5.1200000000000001
 20
3.2999999999999998
 30
0.0
 11
0.0
 21
3.0
 31
0.0
  0
LINE
  5
29A
100
AcDbEntity
  8
0
  6
CONTINUOUS
 62
               7
100
AcDbLine
 10
-4.6100000000000003
 20
0.0
 30
0.0
 11
-2.2999999999999998
 21
-4.0
 31
0.0
  0
LINE
  5
29B
100
AcDbEntity
  8
0
  6
CONTINUOUS
 62
               7
100
AcDbLine
 10
-2.2999999999999998
 20
4.0
 30
0.0
 11
-4.6100000000000003
 21
0.0
 31
0.0
  0
LINE
  5
29C
100
AcDbEntity
  8
0
  6
CONTINUOUS
 62
               7
100
AcDbLine
 10
2.2999999999999998
 20
4.0
 30
0.0
 11
-2.2999999999999998
 21
4.0
 31
0.0
  0
LINE
  5
29D
100
AcDbEntity
  8
0
  6
CONTINUOUS
 62
               7
100
AcDbLine
 10
2.79
 20
3.1600000000000001
 30
0.0
 11
2.2999999999999998
 21
4.0
 31
0.0
  0
LINE
  5
29E
100
AcDbEntity
  8
0
  6
CONTINUOUS
 62
               7
100
AcDbLine
 10
2.2999999999999998
 20
-4.0
 30
0.0
 11
2.79
 21
-3.1600000000000001
 31
0.0
  0
LINE
  5
29F
100
AcDbEntity
  8
0
  6
CONTINUOUS
 62
               7
100
AcDbLine
 10
-2.2999999999999998
 20
-4.0
 30
0.0
 11
2.2999999999999998
 21
-4.0
 31
0.0
  0
LINE
  5
2A0
100
AcDbEntity
  8
0
  6
CENTER
 62
               2
100
AcDbLine
 10
0.0
 20
4.9100000000000001
 30
0.0
 11
0.0
 21
-4.9400000000000004
 31
0.0
  0
LINE
  5
2A1
100
AcDbEntity
  8
0
  6
CENTER
 62
               2
100
AcDbLine
 10
-5.5999999999999996
 20
0.0
 30
0.0
 11
16.399999999999999
 21
0.0
 31
0.0
  0
LINE
  5
2A2
100
AcDbEntity
  8
0
  6
CONTINUOUS
 62
               7
100
AcDbLine
 10
5.1200000000000001
 20
3.2999999999999998
 30
0.0
 11
5.1200000000000001
 21
0.5
 31
0.0
  0
LINE
  5
2A3
100
AcDbEntity
  8
0
  6
CONTINUOUS
 62
               7
100
AcDbLine
 10
5.7000000000000002
 20
4.2999999999999998
 30
0.0
 11
5.1200000000000001
 21
3.2999999999999998
 31
0.0
  0
LINE
  5
2A4
100
AcDbEntity
  8
0
  6
CONTINUOUS
 62
               7
100
AcDbLine
 10
5.7000000000000002
 20
-4.2999999999999998
 30
0.0
 11
5.1200000000000001
 21
-3.2999999999999998
 31
0.0
  0
LINE
  5
2A5
100
AcDbEntity
  8
0
  6
CONTINUOUS
 62
               7
100
AcDbLine
 10
10.4
 20
-4.2999999999999998
 30
0.0
 11
12.4
 21
-4.0
 31
0.0
  0
LINE
  5
2A6
100
AcDbEntity
  8
0
  6
CONTINUOUS
 62
               7
100
AcDbLine
 10
10.4
 20
4.2999999999999998
 30
0.0
 11
12.4
 21
4.0
 31
0.0
  0
LINE
  5
2A7
100
AcDbEntity
  8
0
  6
CONTINUOUS
 62
               7
100
AcDbLine
 10
10.4
 20
4.2999999999999998
 30
0.0
 11
10.4
 21
-4.2999999999999998
 31
0.0
  0
LINE
  5
2A8
100
AcDbEntity
  8
0
  6
CONTINUOUS
 62
               7
100
AcDbLine
 10
5.7000000000000002
 20
4.2999999999999998
 30
0.0
 11
5.7000000000000002
 21
0.5
 31
0.0
  0
LINE
  5
2A9
100
AcDbEntity
  8
0
  6
CONTINUOUS
 62
               7
100
AcDbLine
 10
12.4
 20
4.0
 30
0.0
 11
12.4
 21
-4.0
 31
0.0
  0
LINE
  5
2AA
100
AcDbEntity
  8
0
  6
CONTINUOUS
 62
               7
100
AcDbLine
 10
5.7000000000000002
 20
-4.2999999999999998
 30
0.0
 11
10.4
 21
-4.2999999999999998
 31
0.0
  0
LINE
  5
2AB
100
AcDbEntity
  8
0
  6
CONTINUOUS
 62
               7
100
AcDbLine
 10
5.7000000000000002
 20
4.2999999999999998
 30
0.0
 11
10.4
 21
4.2999999999999998
 31
0.0
  0
LINE
  5
2AC
100
AcDbEntity
  8
0
  6
CONTINUOUS
 62
               7
100
AcDbLine
 10
13.199999999999999
 20
2.5
 30
0.0
 11
13.9
 21
2.5
 31
0.0
  0
LINE
  5
2AD
100
AcDbEntity
  8
0
  6
CONTINUOUS
 62
               7
100
AcDbLine
 10
13.199999999999999
 20
-2.5
 30
0.0
 11
13.9
 21
-2.5
 31
0.0
  0
LINE
  5
2AE
100
AcDbEntity
  8
0
  6
CONTINUOUS
 62
               7
100
AcDbLine
 10
12.4
 20
4.0
 30
0.0
 11
13.199999999999999
 21
4.0
 31
0.0
  0
LINE
  5
2AF
100
AcDbEntity
  8
0
  6
CONTINUOUS
 62
               7
100
AcDbLine
 10
12.4
 20
-4.0
 30
0.0
 11
13.199999999999999
 21
-4.0
 31
0.0
  0
LINE
  5
2B0
100
AcDbEntity
  8
0
  6
CONTINUOUS
 62
               7
100
AcDbLine
 10
13.9
 20
4.9000000000000004
 30
0.0
 11
13.9
 21
-4.9000000000000004
 31
0.0
  0
LINE
  5
2B1
100
AcDbEntity
  8
0
  6
CONTINUOUS
 62
               7
100
AcDbLine
 10
13.199999999999999
 20
4.0
 30
0.0
 11
13.199999999999999
 21
-4.0
 31
0.0
  0
LINE
  5
2B2
100
AcDbEntity
  8
0
  6
CONTINUOUS
 62
               7
100
AcDbLine
 10
13.9
 20
-4.9000000000000004
 30
0.0
 11
15.1
 21
-4.9000000000000004
 31
0.0
  0
LINE
  5
2B3
100
AcDbEntity
  8
0
  6
CONTINUOUS
 62
               7
100
AcDbLine
 10
13.9
 20
4.9000000000000004
 30
0.0
 11
15.1
 21
4.9000000000000004
 31
0.0
  0
LINE
  5
2B4
100
AcDbEntity
  8
0
  6
CONTINUOUS
 62
               7
100
AcDbLine
 10
15.1
 20
4.9000000000000004
 30
0.0
 11
15.1
 21
-4.9000000000000004
 31
0.0
  0
ENDBLK
  5
2B5
100
AcDbEntity
  8
0
100
AcDbBlockEnd
  0
BLOCK
  5
2B6
100
AcDbEntity
  8
0
100
AcDbBlockBegin
  2
MS_15
 70
               0
 10
0.0
 20
0.0
 30
0.0
  3
MS_15
  1

  0
ARC
  5
2B7
100
AcDbEntity
  8
0
  6
CONTINUOUS
 62
               7
100
AcDbCircle
 10
-0.003967520628458
 20
11.895311458159711
 30
0.0
 40
2.9960361479584616
100
AcDbArc
 50
99.529936922176404
 51
179.91033693991011
  0
ARC
  5
2B8
100
AcDbEntity
  8
0
  6
CONTINUOUS
 62
               7
100
AcDbCircle
 10
-0.0012055610965571
 20
11.597761616970127
 30
0.0
 40
3.300150778372763
100
AcDbArc
 50
98.693166487825138
 51
204.67587156728473
  0
ARC
  5
2B9
100
AcDbEntity
  8
0
  6
CONTINUOUS
 62
               7
100
AcDbCircle
 10
0.003967520628458
 20
11.895311458159711
 30
0.0
 40
2.9960361479584616
100
AcDbArc
 50
0.0896630600894917
 51
80.470063077823212
  0
ARC
  5
2BA
100
AcDbEntity
  8
0
  6
CONTINUOUS
 62
               7
100
AcDbCircle
 10
0.0
 20
11.600000381469727
 30
0.0
 40
4.3001049027177913
100
AcDbArc
 50
318.48817424368093
 51
221.51182575631788
  0
ARC
  5
2BB
100
AcDbEntity
  8
0
  6
CONTINUOUS
 62
               7
100
AcDbCircle
 10
0.0012055610965571
 20
11.597761616970127
 30
0.0
 40
3.300150778372763
100
AcDbArc
 50
335.32412843271408
 51
81.306833512174464
  0
ARC
  5
2BC
100
AcDbEntity
  8
0
  6
CONTINUOUS
 62
               7
100
AcDbCircle
 10
-2.0
 20
9.2267189025881855
 30
0.0
 40
5.7835350822579024
100
AcDbArc
 50
249.76879603556762
 51
290.23120396443119
  0
ARC
  5
2BD
100
AcDbEntity
  8
0
  6
CONTINUOUS
 62
               7
100
AcDbCircle
 10
-2.0
 20
1.5232830047607422
 30
0.0
 40
5.7741512801894803
100
AcDbArc
 50
69.734475508488174
 51
110.26552449151144
  0
ARC
  5
2BE
100
AcDbEntity
  8
0
  6
CONTINUOUS
 62
               7
100
AcDbCircle
 10
2.0
 20
9.2267189025881855
 30
0.0
 40
5.7835350822579024
100
AcDbArc
 50
249.76879603556762
 51
290.23120396443119
  0
ARC
  5
2BF
100
AcDbEntity
  8
0
  6
CONTINUOUS
 62
               7
100
AcDbCircle
 10
2.0
 20
1.5232810974121094
 30
0.0
 40
5.7741530694685403
100
AcDbArc
 50
69.734482063994776
 51
110.26551793600483
  0
LINE
  5
2C0
100
AcDbEntity
  8
0
  6
CONTINUOUS
 62
               7
100
AcDbLine
 10
-3.0
 20
8.8699999999999992
 30
0.0
 11
-3.0
 21
11.9
 31
0.0
  0
LINE
  5
2C1
100
AcDbEntity
  8
0
  6
CONTINUOUS
 62
               7
100
AcDbLine
 10
-3.0
 20
8.8699999999999992
 30
0.0
 11
-0.5
 21
8.8699999999999992
 31
0.0
  0
LINE
  5
2C2
100
AcDbEntity
  8
0
  6
CONTINUOUS
 62
               7
100
AcDbLine
 10
-4.0
 20
8.3000000000000007
 30
0.0
 11
-3.0
 21
8.8699999999999992
 31
0.0
  0
LINE
  5
2C3
100
AcDbEntity
  8
0
  6
CONTINUOUS
 62
               7
100
AcDbLine
 10
0.5
 20
8.3000000000000007
 30
0.0
 11
4.0
 21
8.3000000000000007
 31
0.0
  0
LINE
  5
2C4
100
AcDbEntity
  8
0
  6
CONTINUOUS
 62
               7
100
AcDbLine
 10
0.5
 20
8.8699999999999992
 30
0.0
 11
3.0
 21
8.8699999999999992
 31
0.0
  0
LINE
  5
2C5
100
AcDbEntity
  8
0
  6
CONTINUOUS
 62
               7
100
AcDbLine
 10
-0.5
 20
8.3000000000000007
 30
0.0
 11
-0.5
 21
15.869999999999999
 31
0.0
  0
LINE
  5
2C6
100
AcDbEntity
  8
0
  6
CONTINUOUS
 62
               7
100
AcDbLine
 10
0.5
 20
8.3000000000000007
 30
0.0
 11
0.5
 21
15.869999999999999
 31
0.0
  0
LINE
  5
2C7
100
AcDbEntity
  8
0
  6
CONTINUOUS
 62
               7
100
AcDbLine
 10
3.0
 20
8.8699999999999992
 30
0.0
 11
3.0
 21
11.9
 31
0.0
  0
LINE
  5
2C8
100
AcDbEntity
  8
0
  6
CENTER
 62
               2
100
AcDbLine
 10
-6.4500000000000002
 20
11.6
 30
0.0
 11
6.3300000000000001
 21
11.6
 31
0.0
  0
LINE
  5
2C9
100
AcDbEntity
  8
0
  6
CONTINUOUS
 62
               7
100
AcDbLine
 10
-4.0
 20
8.3000000000000007
 30
0.0
 11
-0.5
 21
8.3000000000000007
 31
0.0
  0
LINE
  5
2CA
100
AcDbEntity
  8
0
  6
CONTINUOUS
 62
               7
100
AcDbLine
 10
0.0
 20
6.9400000000000004
 30
0.0
 11
0.0
 21
3.7999999999999998
 31
0.0
  0
LINE
  5
2CB
100
AcDbEntity
  8
0
  6
CONTINUOUS
 62
               7
100
AcDbLine
 10
-2.75
 20
2.2000000000000002
 30
0.0
 11
-4.0
 21
3.4500000000000002
 31
0.0
  0
LINE
  5
2CC
100
AcDbEntity
  8
0
  6
CONTINUOUS
 62
               7
100
AcDbLine
 10
2.75
 20
2.2000000000000002
 30
0.0
 11
4.0
 21
3.4500000000000002
 31
0.0
  0
LINE
  5
2CD
100
AcDbEntity
  8
0
  6
CONTINUOUS
 62
               7
100
AcDbLine
 10
-2.75
 20
0.7
 30
0.0
 11
2.75
 21
0.7
 31
0.0
  0
LINE
  5
2CE
100
AcDbEntity
  8
0
  6
CONTINUOUS
 62
               7
100
AcDbLine
 10
-2.75
 20
0.0
 30
0.0
 11
2.75
 21
0.0
 31
0.0
  0
LINE
  5
2CF
100
AcDbEntity
  8
0
  6
CONTINUOUS
 62
               7
100
AcDbLine
 10
-2.75
 20
0.0
 30
0.0
 11
-2.75
 21
2.2000000000000002
 31
0.0
  0
LINE
  5
2D0
100
AcDbEntity
  8
0
  6
CONTINUOUS
 62
               7
100
AcDbLine
 10
2.75
 20
0.0
 30
0.0
 11
2.75
 21
2.2000000000000002
 31
0.0
  0
LINE
  5
2D1
100
AcDbEntity
  8
0
  6
CONTINUOUS
 62
               2
100
AcDbLine
 10
-1.22
 20
-2.3999999999999999
 30
0.0
 11
-1.22
 21
0.0
 31
0.0
  0
LINE
  5
2D2
100
AcDbEntity
  8
0
  6
CONTINUOUS
 62
               2
100
AcDbLine
 10
1.22
 20
-2.3999999999999999
 30
0.0
 11
1.22
 21
0.0
 31
0.0
  0
LINE
  5
2D3
100
AcDbEntity
  8
0
  6
CONTINUOUS
 62
               7
100
AcDbLine
 10
-1.5
 20
-2.3999999999999999
 30
0.0
 11
-1.5
 21
0.0
 31
0.0
  0
LINE
  5
2D4
100
AcDbEntity
  8
0
  6
CONTINUOUS
 62
               7
100
AcDbLine
 10
1.5
 20
-2.3999999999999999
 30
0.0
 11
1.5
 21
0.0
 31
0.0
  0
LINE
  5
2D5
100
AcDbEntity
  8
0
  6
CONTINUOUS
 62
               7
100
AcDbLine
 10
-1.5
 20
-2.3999999999999999
 30
0.0
 11
1.5
 21
-2.3999999999999999
 31
0.0
  0
LINE
  5
2D6
100
AcDbEntity
  8
0
  6
CONTINUOUS
 62
               7
100
AcDbLine
 10
-4.0
 20
3.4500000000000002
 30
0.0
 11
-4.0
 21
8.3000000000000007
 31
0.0
  0
LINE
  5
2D7
100
AcDbEntity
  8
0
  6
CONTINUOUS
 62
               7
100
AcDbLine
 10
4.0
 20
3.4500000000000002
 30
0.0
 11
4.0
 21
8.3000000000000007
 31
0.0
  0
LINE
  5
2D8
100
AcDbEntity
  8
0
  6
CONTINUOUS
 62
               7
100
AcDbLine
 10
-4.0
 20
7.2999999999999998
 30
0.0
 11
4.0
 21
7.2999999999999998
 31
0.0
  0
LINE
  5
2D9
100
AcDbEntity
  8
0
  6
CONTINUOUS
 62
               7
100
AcDbLine
 10
-2.75
 20
2.2000000000000002
 30
0.0
 11
2.75
 21
2.2000000000000002
 31
0.0
  0
LINE
  5
2DA
100
AcDbEntity
  8
0
  6
CENTER
 62
               2
100
AcDbLine
 10
0.0
 20
-4.3600000000000003
 30
0.0
 11
0.0
 21
18.18
 31
0.0
  0
LINE
  5
2DB
100
AcDbEntity
  8
0
  6
CONTINUOUS
 62
               7
100
AcDbLine
 10
4.0
 20
8.3000000000000007
 30
0.0
 11
3.0
 21
8.8699999999999992
 31
0.0
  0
ENDBLK
  5
2DC
100
AcDbEntity
  8
0
100
AcDbBlockEnd
  0
BLOCK
  5
2DD
100
AcDbEntity
  8
0
100
AcDbBlockBegin
  2
MS_16
 70
               0
 10
0.0
 20
0.0
 30
0.0
  3
MS_16
  1

  0
ARC
  5
2DE
100
AcDbEntity
  8
0
  6
CONTINUOUS
 62
               7
100
AcDbCircle
 10
-0.0000000000000147
 20
11.600000000000001
 30
0.0
 40
4.3002906878489169
100
AcDbArc
 50
330.15596256406695
 51
29.84403743593224
  0
ARC
  5
2DF
100
AcDbEntity
  8
0
  6
CONTINUOUS
 62
               7
100
AcDbCircle
 10
0.0000000000000147
 20
11.600000000000001
 30
0.0
 40
4.3002906878489169
100
AcDbArc
 50
150.15596256406735
 51
209.84403743593182
  0
ARC
  5
2E0
100
AcDbEntity
  8
0
  6
CONTINUOUS
 62
               7
100
AcDbCircle
 10
2.0
 20
9.2267189025878906
 30
0.0
 40
5.7835350822576261
100
AcDbArc
 50
249.7687960355666
 51
290.23120396443221
  0
ARC
  5
2E1
100
AcDbEntity
  8
0
  6
CONTINUOUS
 62
               7
100
AcDbCircle
 10
2.0202839461343789
 20
1.5195657601124255
 30
0.0
 40
5.7706484040252235
100
AcDbArc
 50
69.936188681028511
 51
89.506371710706645
  0
ARC
  5
2E2
100
AcDbEntity
  8
0
  6
CONTINUOUS
 62
               7
100
AcDbCircle
 10
-2.0202842807976431
 20
1.5195676055412815
 30
0.0
 40
5.7706465557816298
100
AcDbArc
 50
90.493625124459328
 51
110.06381448380473
  0
ARC
  5
2E3
100
AcDbEntity
  8
0
  6
CONTINUOUS
 62
               7
100
AcDbCircle
 10
-2.0
 20
9.2267189025878906
 30
0.0
 40
5.7835350822576261
100
AcDbArc
 50
249.7687960355666
 51
290.23120396443221
  0
CIRCLE
  5
2E4
100
AcDbEntity
  8
0
  6
CONTINUOUS
 62
               7
100
AcDbCircle
 10
0.0
 20
11.600000381469727
 30
0.0
 40
2.0
  0
ARC
  5
2E5
100
AcDbEntity
  8
0
  6
CONTINUOUS
 62
               7
100
AcDbCircle
 10
0.0
 20
10.6
 30
0.0
 40
3.9000000000000186
100
AcDbArc
 50
179.9999999999996
 51
0.0
  0
ARC
  5
2E6
100
AcDbEntity
  8
0
  6
CONTINUOUS
 62
               7
100
AcDbCircle
 10
0.0
 20
12.6
 30
0.0
 40
3.9000000000000186
100
AcDbArc
 50
0.0
 51
179.9999999999996
  0
LINE
  5
2E7
100
AcDbEntity
  8
0
  6
CONTINUOUS
 62
               7
100
AcDbLine
 10
2.0699999999999998
 20
7.2999999999999998
 30
0.0
 11
4.0
 21
7.2999999999999998
 31
0.0
  0
LINE
  5
2E8
100
AcDbEntity
  8
0
  6
CONTINUOUS
 62
               7
100
AcDbLine
 10
4.0
 20
8.3000000000000007
 30
0.0
 11
3.1499999999999999
 21
8.3000000000000007
 31
0.0
  0
LINE
  5
2E9
100
AcDbEntity
  8
0
  6
CONTINUOUS
 62
               7
100
AcDbLine
 10
-4.0
 20
8.3000000000000007
 30
0.0
 11
-3.1499999999999999
 21
8.3000000000000007
 31
0.0
  0
LINE
  5
2EA
100
AcDbEntity
  8
0
  6
CONTINUOUS
 62
               7
100
AcDbLine
 10
4.0
 20
8.3000000000000007
 30
0.0
 11
3.3799999999999999
 21
8.6500000000000004
 31
0.0
  0
LINE
  5
2EB
100
AcDbEntity
  8
0
  6
CONTINUOUS
 62
               7
100
AcDbLine
 10
0.0
 20
6.7000000000000002
 30
0.0
 11
0.0
 21
3.7999999999999998
 31
0.0
  0
LINE
  5
2EC
100
AcDbEntity
  8
0
  6
CONTINUOUS
 62
               7
100
AcDbLine
 10
-2.75
 20
2.2000000000000002
 30
0.0
 11
-4.0
 21
3.4500000000000002
 31
0.0
  0
LINE
  5
2ED
100
AcDbEntity
  8
0
  6
CONTINUOUS
 62
               7
100
AcDbLine
 10
2.75
 20
2.2000000000000002
 30
0.0
 11
4.0
 21
3.4500000000000002
 31
0.0
  0
LINE
  5
2EE
100
AcDbEntity
  8
0
  6
CONTINUOUS
 62
               7
100
AcDbLine
 10
-2.75
 20
0.7
 30
0.0
 11
2.75
 21
0.7
 31
0.0
  0
LINE
  5
2EF
100
AcDbEntity
  8
0
  6
CONTINUOUS
 62
               7
100
AcDbLine
 10
-2.75
 20
0.0
 30
0.0
 11
2.75
 21
0.0
 31
0.0
  0
LINE
  5
2F0
100
AcDbEntity
  8
0
  6
CONTINUOUS
 62
               7
100
AcDbLine
 10
-2.75
 20
0.0
 30
0.0
 11
-2.75
 21
2.2000000000000002
 31
0.0
  0
LINE
  5
2F1
100
AcDbEntity
  8
0
  6
CONTINUOUS
 62
               7
100
AcDbLine
 10
2.75
 20
0.0
 30
0.0
 11
2.75
 21
2.2000000000000002
 31
0.0
  0
LINE
  5
2F2
100
AcDbEntity
  8
0
  6
CONTINUOUS
 62
               2
100
AcDbLine
 10
-1.22
 20
-2.3999999999999999
 30
0.0
 11
-1.22
 21
0.0
 31
0.0
  0
LINE
  5
2F3
100
AcDbEntity
  8
0
  6
CONTINUOUS
 62
               2
100
AcDbLine
 10
1.23
 20
-2.3999999999999999
 30
0.0
 11
1.23
 21
0.0
 31
0.0
  0
LINE
  5
2F4
100
AcDbEntity
  8
0
  6
CONTINUOUS
 62
               7
100
AcDbLine
 10
-1.5
 20
-2.3999999999999999
 30
0.0
 11
-1.5
 21
0.0
 31
0.0
  0
LINE
  5
2F5
100
AcDbEntity
  8
0
  6
CONTINUOUS
 62
               7
100
AcDbLine
 10
1.5
 20
-2.3999999999999999
 30
0.0
 11
1.5
 21
0.0
 31
0.0
  0
LINE
  5
2F6
100
AcDbEntity
  8
0
  6
CONTINUOUS
 62
               7
100
AcDbLine
 10
-1.5
 20
-2.3999999999999999
 30
0.0
 11
1.5
 21
-2.3999999999999999
 31
0.0
  0
LINE
  5
2F7
100
AcDbEntity
  8
0
  6
CONTINUOUS
 62
               7
100
AcDbLine
 10
-4.0
 20
3.4500000000000002
 30
0.0
 11
-4.0
 21
8.3000000000000007
 31
0.0
  0
LINE
  5
2F8
100
AcDbEntity
  8
0
  6
CONTINUOUS
 62
               7
100
AcDbLine
 10
4.0
 20
3.4500000000000002
 30
0.0
 11
4.0
 21
8.3000000000000007
 31
0.0
  0
LINE
  5
2F9
100
AcDbEntity
  8
0
  6
CONTINUOUS
 62
               7
100
AcDbLine
 10
-4.0
 20
7.2999999999999998
 30
0.0
 11
-2.0699999999999998
 21
7.2999999999999998
 31
0.0
  0
LINE
  5
2FA
100
AcDbEntity
  8
0
  6
CONTINUOUS
 62
               7
100
AcDbLine
 10
-2.75
 20
2.2000000000000002
 30
0.0
 11
2.75
 21
2.2000000000000002
 31
0.0
  0
LINE
  5
2FB
100
AcDbEntity
  8
0
  6
CENTER
 62
               2
100
AcDbLine
 10
0.0
 20
-4.3600000000000003
 30
0.0
 11
0.0
 21
18.149999999999999
 31
0.0
  0
LINE
  5
2FC
100
AcDbEntity
  8
0
  6
CONTINUOUS
 62
               7
100
AcDbLine
 10
-4.0
 20
8.3000000000000007
 30
0.0
 11
-3.3799999999999999
 21
8.6500000000000004
 31
0.0
  0
LINE
  5
2FD
100
AcDbEntity
  8
0
  6
CENTER
 62
               2
100
AcDbLine
 10
-5.0199999999999996
 20
11.6
 30
0.0
 11
5.1900000000000004
 21
11.6
 31
0.0
  0
LINE
  5
2FE
100
AcDbEntity
  8
0
  6
CONTINUOUS
 62
               7
100
AcDbLine
 10
-3.8999999999999999
 20
12.6
 30
0.0
 11
-3.8999999999999999
 21
10.6
 31
0.0
  0
LINE
  5
2FF
100
AcDbEntity
  8
0
  6
CONTINUOUS
 62
               7
100
AcDbLine
 10
3.8999999999999999
 20
12.6
 30
0.0
 11
3.8999999999999999
 21
10.6
 31
0.0
  0
ENDBLK
  5
300
100
AcDbEntity
  8
0
100
AcDbBlockEnd
  0
BLOCK
  5
301
100
AcDbEntity
  8
0
100
AcDbBlockBegin
  2
MS_17
 70
               0
 10
0.0
 20
0.0
 30
0.0
  3
MS_17
  1

  0
ARC
  5
302
100
AcDbEntity
  8
0
  6
CONTINUOUS
 62
               7
100
AcDbCircle
 10
-0.0000233724200336
 20
10.899975686870848
 30
0.0
 40
4.0000243131974349
100
AcDbArc
 50
89.999665216778482
 51
185.73878546380826
  0
ARC
  5
303
100
AcDbEntity
  8
0
  6
CONTINUOUS
 62
               7
100
AcDbCircle
 10
-0.0000007629393559
 20
10.900000762939356
 30
0.0
 40
2.9999992370607411
100
AcDbArc
 50
89.999985428927729
 51
180.00001457107169
  0
ARC
  5
304
100
AcDbEntity
  8
0
  6
CONTINUOUS
 62
               7
100
AcDbCircle
 10
0.0
 20
9.9427337646484357
 30
0.0
 40
7.6468271696203098
100
AcDbArc
 50
252.49564184491589
 51
287.50435815508291
  0
ARC
  5
305
100
AcDbEntity
  8
0
  6
CONTINUOUS
 62
               7
100
AcDbCircle
 10
-3.4458132157249941
 20
4.3502666578314093
 30
0.0
 40
2.05031573984673
100
AcDbArc
 50
269.60354918306655
 51
303.97611155930161
  0
ARC
  5
306
100
AcDbEntity
  8
0
  6
CONTINUOUS
 62
               7
100
AcDbCircle
 10
-3.4591648395428467
 20
4.2538021836952691
 30
0.0
 40
2.0461979867410776
100
AcDbArc
 50
55.493695796089014
 51
90.023385406030769
  0
ARC
  5
307
100
AcDbEntity
  8
0
  6
CONTINUOUS
 62
               7
100
AcDbCircle
 10
3.4458132157249941
 20
4.3502666578314093
 30
0.0
 40
2.05031573984673
100
AcDbArc
 50
236.02388844069716
 51
270.3964508169322
  0
ARC
  5
308
100
AcDbEntity
  8
0
  6
CONTINUOUS
 62
               7
100
AcDbCircle
 10
3.4591648395428467
 20
4.2538021836952691
 30
0.0
 40
2.0461979867410776
100
AcDbArc
 50
89.976614593968847
 51
124.50630420391059
  0
ARC
  5
309
100
AcDbEntity
  8
0
  6
CONTINUOUS
 62
               7
100
AcDbCircle
 10
0.0
 20
-1.3427352905273429
 30
0.0
 40
7.6372922761861348
100
AcDbArc
 50
72.473080576068654
 51
107.52691942393095
  0
LINE
  5
30A
100
AcDbEntity
  8
0
  6
CONTINUOUS
 62
               7
100
AcDbLine
 10
-4.0
 20
0.0
 30
0.0
 11
-4.0
 21
2.2999999999999998
 31
0.0
  0
LINE
  5
30B
100
AcDbEntity
  8
0
  6
CONTINUOUS
 62
               7
100
AcDbLine
 10
4.0
 20
0.0
 30
0.0
 11
4.0
 21
2.2999999999999998
 31
0.0
  0
LINE
  5
30C
100
AcDbEntity
  8
0
  6
CONTINUOUS
 62
               7
100
AcDbLine
 10
-4.0
 20
0.0
 30
0.0
 11
4.0
 21
0.0
 31
0.0
  0
LINE
  5
30D
100
AcDbEntity
  8
0
  6
CONTINUOUS
 62
               7
100
AcDbLine
 10
-4.0
 20
0.8
 30
0.0
 11
4.0
 21
0.8
 31
0.0
  0
LINE
  5
30E
100
AcDbEntity
  8
0
  6
CONTINUOUS
 62
               2
100
AcDbLine
 10
2.0600000000000001
 20
-2.8999999999999999
 30
0.0
 11
2.0600000000000001
 21
0.0
 31
0.0
  0
LINE
  5
30F
100
AcDbEntity
  8
0
  6
CONTINUOUS
 62
               7
100
AcDbLine
 10
2.5
 20
-2.8999999999999999
 30
0.0
 11
2.5
 21
0.0
 31
0.0
  0
LINE
  5
310
100
AcDbEntity
  8
0
  6
CONTINUOUS
 62
               7
100
AcDbLine
 10
-2.5
 20
-2.8999999999999999
 30
0.0
 11
-2.5
 21
0.0
 31
0.0
  0
LINE
  5
311
100
AcDbEntity
  8
0
  6
CONTINUOUS
 62
               2
100
AcDbLine
 10
-2.0600000000000001
 20
-2.8999999999999999
 30
0.0
 11
-2.0600000000000001
 21
0.0
 31
0.0
  0
LINE
  5
312
100
AcDbEntity
  8
0
  6
CONTINUOUS
 62
               7
100
AcDbLine
 10
-2.5
 20
-2.8999999999999999
 30
0.0
 11
2.5
 21
-2.8999999999999999
 31
0.0
  0
LINE
  5
313
100
AcDbEntity
  8
0
  6
CONTINUOUS
 62
               7
100
AcDbLine
 10
5.7000000000000002
 20
6.2999999999999998
 30
0.0
 11
10.4
 21
6.2999999999999998
 31
0.0
  0
LINE
  5
314
100
AcDbEntity
  8
0
  6
CONTINUOUS
 62
               7
100
AcDbLine
 10
5.7000000000000002
 20
6.2999999999999998
 30
0.0
 11
5.1200000000000001
 21
7.2999999999999998
 31
0.0
  0
LINE
  5
315
100
AcDbEntity
  8
0
  6
CONTINUOUS
 62
               7
100
AcDbLine
 10
5.1200000000000001
 20
13.9
 30
0.0
 11
5.1200000000000001
 21
7.2999999999999998
 31
0.0
  0
LINE
  5
316
100
AcDbEntity
  8
0
  6
CONTINUOUS
 62
               7
100
AcDbLine
 10
5.7000000000000002
 20
14.9
 30
0.0
 11
5.7000000000000002
 21
6.2999999999999998
 31
0.0
  0
LINE
  5
317
100
AcDbEntity
  8
0
  6
CONTINUOUS
 62
               7
100
AcDbLine
 10
5.7000000000000002
 20
14.9
 30
0.0
 11
5.1200000000000001
 21
13.9
 31
0.0
  0
LINE
  5
318
100
AcDbEntity
  8
0
  6
CONTINUOUS
 62
               7
100
AcDbLine
 10
0.0
 20
14.9
 30
0.0
 11
10.4
 21
14.9
 31
0.0
  0
LINE
  5
319
100
AcDbEntity
  8
0
  6
CONTINUOUS
 62
               7
100
AcDbLine
 10
10.4
 20
14.9
 30
0.0
 11
10.4
 21
6.2999999999999998
 31
0.0
  0
LINE
  5
31A
100
AcDbEntity
  8
0
  6
CONTINUOUS
 62
               7
100
AcDbLine
 10
10.4
 20
14.9
 30
0.0
 11
12.4
 21
14.6
 31
0.0
  0
LINE
  5
31B
100
AcDbEntity
  8
0
  6
CONTINUOUS
 62
               7
100
AcDbLine
 10
10.4
 20
6.2999999999999998
 30
0.0
 11
12.4
 21
6.5999999999999996
 31
0.0
  0
LINE
  5
31C
100
AcDbEntity
  8
0
  6
CONTINUOUS
 62
               7
100
AcDbLine
 10
12.4
 20
14.6
 30
0.0
 11
12.4
 21
6.5999999999999996
 31
0.0
  0
LINE
  5
31D
100
AcDbEntity
  8
0
  6
CONTINUOUS
 62
               7
100
AcDbLine
 10
12.4
 20
6.5999999999999996
 30
0.0
 11
13.199999999999999
 21
6.5999999999999996
 31
0.0
  0
LINE
  5
31E
100
AcDbEntity
  8
0
  6
CONTINUOUS
 62
               7
100
AcDbLine
 10
12.4
 20
14.6
 30
0.0
 11
13.199999999999999
 21
14.6
 31
0.0
  0
LINE
  5
31F
100
AcDbEntity
  8
0
  6
CONTINUOUS
 62
               7
100
AcDbLine
 10
13.199999999999999
 20
14.6
 30
0.0
 11
13.199999999999999
 21
6.5999999999999996
 31
0.0
  0
LINE
  5
320
100
AcDbEntity
  8
0
  6
CONTINUOUS
 62
               7
100
AcDbLine
 10
13.199999999999999
 20
13.1
 30
0.0
 11
13.9
 21
13.1
 31
0.0
  0
LINE
  5
321
100
AcDbEntity
  8
0
  6
CONTINUOUS
 62
               7
100
AcDbLine
 10
13.199999999999999
 20
8.0999999999999996
 30
0.0
 11
13.9
 21
8.0999999999999996
 31
0.0
  0
LINE
  5
322
100
AcDbEntity
  8
0
  6
CONTINUOUS
 62
               7
100
AcDbLine
 10
13.9
 20
5.7000000000000002
 30
0.0
 11
15.1
 21
5.7000000000000002
 31
0.0
  0
LINE
  5
323
100
AcDbEntity
  8
0
  6
CONTINUOUS
 62
               7
100
AcDbLine
 10
13.9
 20
15.5
 30
0.0
 11
13.9
 21
5.7000000000000002
 31
0.0
  0
LINE
  5
324
100
AcDbEntity
  8
0
  6
CONTINUOUS
 62
               7
100
AcDbLine
 10
15.1
 20
15.5
 30
0.0
 11
15.1
 21
5.7000000000000002
 31
0.0
  0
LINE
  5
325
100
AcDbEntity
  8
0
  6
CONTINUOUS
 62
               7
100
AcDbLine
 10
13.9
 20
15.5
 30
0.0
 11
15.1
 21
15.5
 31
0.0
  0
LINE
  5
326
100
AcDbEntity
  8
0
  6
CONTINUOUS
 62
               7
100
AcDbLine
 10
-3.0
 20
7.8700000000000001
 30
0.0
 11
3.0
 21
7.8700000000000001
 31
0.0
  0
LINE
  5
327
100
AcDbEntity
  8
0
  6
CONTINUOUS
 62
               7
100
AcDbLine
 10
4.0
 20
7.2999999999999998
 30
0.0
 11
3.0
 21
7.8700000000000001
 31
0.0
  0
LINE
  5
328
100
AcDbEntity
  8
0
  6
CONTINUOUS
 62
               7
100
AcDbLine
 10
-4.0
 20
7.2999999999999998
 30
0.0
 11
-3.0
 21
7.8700000000000001
 31
0.0
  0
LINE
  5
329
100
AcDbEntity
  8
0
  6
CONTINUOUS
 62
               7
100
AcDbLine
 10
0.0
 20
10.6
 30
0.0
 11
3.0
 21
7.8700000000000001
 31
0.0
  0
LINE
  5
32A
100
AcDbEntity
  8
0
  6
CONTINUOUS
 62
               7
100
AcDbLine
 10
-4.0
 20
7.2999999999999998
 30
0.0
 11
5.1200000000000001
 21
7.2999999999999998
 31
0.0
  0
LINE
  5
32B
100
AcDbEntity
  8
0
  6
CONTINUOUS
 62
               7
100
AcDbLine
 10
0.0
 20
13.9
 30
0.0
 11
5.1200000000000001
 21
13.9
 31
0.0
  0
LINE
  5
32C
100
AcDbEntity
  8
0
  6
CONTINUOUS
 62
               7
100
AcDbLine
 10
-3.0
 20
7.8700000000000001
 30
0.0
 11
-3.0
 21
10.9
 31
0.0
  0
LINE
  5
32D
100
AcDbEntity
  8
0
  6
CONTINUOUS
 62
               7
100
AcDbLine
 10
4.0
 20
6.2999999999999998
 30
0.0
 11
4.0
 21
7.2999999999999998
 31
0.0
  0
LINE
  5
32E
100
AcDbEntity
  8
0
  6
CONTINUOUS
 62
               7
100
AcDbLine
 10
-4.0
 20
6.2999999999999998
 30
0.0
 11
-4.0
 21
10.9
 31
0.0
  0
LINE
  5
32F
100
AcDbEntity
  8
0
  6
CENTER
 62
               2
100
AcDbLine
 10
-5.5999999999999996
 20
10.6
 30
0.0
 11
16.399999999999999
 21
10.6
 31
0.0
  0
LINE
  5
330
100
AcDbEntity
  8
0
  6
CENTER
 62
               2
100
AcDbLine
 10
0.0
 20
-5.3600000000000003
 30
0.0
 11
0.0
 21
17.18
 31
0.0
  0
LINE
  5
331
100
AcDbEntity
  8
0
  6
CONTINUOUS
 62
               7
100
AcDbLine
 10
-4.6100000000000003
 20
2.6499999999999999
 30
0.0
 11
-4.6100000000000003
 21
5.9400000000000004
 31
0.0
  0
LINE
  5
332
100
AcDbEntity
  8
0
  6
CONTINUOUS
 62
               7
100
AcDbLine
 10
-4.6100000000000003
 20
2.6499999999999999
 30
0.0
 11
-4.0
 21
2.2999999999999998
 31
0.0
  0
LINE
  5
333
100
AcDbEntity
  8
0
  6
CONTINUOUS
 62
               7
100
AcDbLine
 10
-4.6100000000000003
 20
5.9400000000000004
 30
0.0
 11
-4.0
 21
6.2999999999999998
 31
0.0
  0
LINE
  5
334
100
AcDbEntity
  8
0
  6
CONTINUOUS
 62
               7
100
AcDbLine
 10
4.6100000000000003
 20
2.6499999999999999
 30
0.0
 11
4.0
 21
2.2999999999999998
 31
0.0
  0
LINE
  5
335
100
AcDbEntity
  8
0
  6
CONTINUOUS
 62
               7
100
AcDbLine
 10
-2.2999999999999998
 20
2.6499999999999999
 30
0.0
 11
-2.2999999999999998
 21
5.9400000000000004
 31
0.0
  0
LINE
  5
336
100
AcDbEntity
  8
0
  6
CONTINUOUS
 62
               7
100
AcDbLine
 10
2.2999999999999998
 20
2.6499999999999999
 30
0.0
 11
2.2999999999999998
 21
5.9400000000000004
 31
0.0
  0
LINE
  5
337
100
AcDbEntity
  8
0
  6
CONTINUOUS
 62
               7
100
AcDbLine
 10
4.6100000000000003
 20
2.6499999999999999
 30
0.0
 11
4.6100000000000003
 21
5.9400000000000004
 31
0.0
  0
LINE
  5
338
100
AcDbEntity
  8
0
  6
CONTINUOUS
 62
               7
100
AcDbLine
 10
4.6100000000000003
 20
5.9400000000000004
 30
0.0
 11
4.0
 21
6.2999999999999998
 31
0.0
  0
LINE
  5
339
100
AcDbEntity
  8
0
  6
CONTINUOUS
 62
               7
100
AcDbLine
 10
-4.0
 20
6.2999999999999998
 30
0.0
 11
4.0
 21
6.2999999999999998
 31
0.0
  0
LINE
  5
33A
100
AcDbEntity
  8
0
  6
CONTINUOUS
 62
               7
100
AcDbLine
 10
-4.0
 20
2.2999999999999998
 30
0.0
 11
4.0
 21
2.2999999999999998
 31
0.0
  0
ENDBLK
  5
33B
100
AcDbEntity
  8
0
100
AcDbBlockEnd
  0
BLOCK
  5
33C
100
AcDbEntity
  8
0
100
AcDbBlockBegin
  2
MS_18
 70
               0
 10
0.0
 20
0.0
 30
0.0
  3
MS_18
  1

  0
ARC
  5
33D
100
AcDbEntity
  8
0
  6
CONTINUOUS
 62
               7
100
AcDbCircle
 10
0.0046887805741826
 20
-0.0039672389224641
 30
0.0
 40
2.996036430037718
100
AcDbArc
 50
189.52994147925332
 51
269.91033238283279
  0
ARC
  5
33E
100
AcDbEntity
  8
0
  6
CONTINUOUS
 62
               7
100
AcDbCircle
 10
0.0046887805741826
 20
0.0039672389224641
 30
0.0
 40
2.996036430037718
100
AcDbArc
 50
90.089667617166441
 51
170.47005852074585
  0
ARC
  5
33F
100
AcDbEntity
  8
0
  6
CONTINUOUS
 62
               7
100
AcDbCircle
 10
0.0
 20
0.0
 30
0.0
 40
3.9950594488693159
100
AcDbArc
 50
51.810553098572974
 51
308.18944690142621
  0
LINE
  5
340
100
AcDbEntity
  8
0
  6
CONTINUOUS
 62
               7
100
AcDbLine
 10
5.7000000000000002
 20
-4.2999999999999998
 30
0.0
 11
5.7000000000000002
 21
-0.5
 31
0.0
  0
LINE
  5
341
100
AcDbEntity
  8
0
  6
CONTINUOUS
 62
               7
100
AcDbLine
 10
5.1200000000000001
 20
-3.2999999999999998
 30
0.0
 11
5.1200000000000001
 21
-0.5
 31
0.0
  0
LINE
  5
342
100
AcDbEntity
  8
0
  6
CONTINUOUS
 62
               7
100
AcDbLine
 10
-3.96
 20
-0.5
 30
0.0
 11
5.7000000000000002
 21
-0.5
 31
0.0
  0
LINE
  5
343
100
AcDbEntity
  8
0
  6
CONTINUOUS
 62
               7
100
AcDbLine
 10
-3.96
 20
0.5
 30
0.0
 11
5.7000000000000002
 21
0.5
 31
0.0
  0
LINE
  5
344
100
AcDbEntity
  8
0
  6
CONTINUOUS
 62
               7
100
AcDbLine
 10
5.1200000000000001
 20
-3.2999999999999998
 30
0.0
 11
0.0
 21
-3.0
 31
0.0
  0
LINE
  5
345
100
AcDbEntity
  8
0
  6
CONTINUOUS
 62
               7
100
AcDbLine
 10
5.1200000000000001
 20
3.2999999999999998
 30
0.0
 11
0.0
 21
3.0
 31
0.0
  0
LINE
  5
346
100
AcDbEntity
  8
0
  6
CONTINUOUS
 62
               7
100
AcDbLine
 10
-4.6100000000000003
 20
0.0
 30
0.0
 11
-2.2999999999999998
 21
-4.0
 31
0.0
  0
LINE
  5
347
100
AcDbEntity
  8
0
  6
CONTINUOUS
 62
               7
100
AcDbLine
 10
-2.2999999999999998
 20
4.0
 30
0.0
 11
-4.6100000000000003
 21
0.0
 31
0.0
  0
LINE
  5
348
100
AcDbEntity
  8
0
  6
CONTINUOUS
 62
               7
100
AcDbLine
 10
2.2999999999999998
 20
4.0
 30
0.0
 11
-2.2999999999999998
 21
4.0
 31
0.0
  0
LINE
  5
349
100
AcDbEntity
  8
0
  6
CONTINUOUS
 62
               7
100
AcDbLine
 10
2.79
 20
3.1600000000000001
 30
0.0
 11
2.2999999999999998
 21
4.0
 31
0.0
  0
LINE
  5
34A
100
AcDbEntity
  8
0
  6
CONTINUOUS
 62
               7
100
AcDbLine
 10
2.2999999999999998
 20
-4.0
 30
0.0
 11
2.79
 21
-3.1600000000000001
 31
0.0
  0
LINE
  5
34B
100
AcDbEntity
  8
0
  6
CONTINUOUS
 62
               7
100
AcDbLine
 10
-2.2999999999999998
 20
-4.0
 30
0.0
 11
2.2999999999999998
 21
-4.0
 31
0.0
  0
LINE
  5
34C
100
AcDbEntity
  8
0
  6
CENTER
 62
               2
100
AcDbLine
 10
0.0
 20
4.9100000000000001
 30
0.0
 11
0.0
 21
-4.9400000000000004
 31
0.0
  0
LINE
  5
34D
100
AcDbEntity
  8
0
  6
CENTER
 62
               2
100
AcDbLine
 10
-5.5999999999999996
 20
0.0
 30
0.0
 11
16.399999999999999
 21
0.0
 31
0.0
  0
LINE
  5
34E
100
AcDbEntity
  8
0
  6
CONTINUOUS
 62
               7
100
AcDbLine
 10
5.1200000000000001
 20
3.2999999999999998
 30
0.0
 11
5.1200000000000001
 21
0.5
 31
0.0
  0
LINE
  5
34F
100
AcDbEntity
  8
0
  6
CONTINUOUS
 62
               7
100
AcDbLine
 10
5.7000000000000002
 20
4.2999999999999998
 30
0.0
 11
5.1200000000000001
 21
3.2999999999999998
 31
0.0
  0
LINE
  5
350
100
AcDbEntity
  8
0
  6
CONTINUOUS
 62
               7
100
AcDbLine
 10
5.7000000000000002
 20
-4.2999999999999998
 30
0.0
 11
5.1200000000000001
 21
-3.2999999999999998
 31
0.0
  0
LINE
  5
351
100
AcDbEntity
  8
0
  6
CONTINUOUS
 62
               7
100
AcDbLine
 10
10.4
 20
-4.2999999999999998
 30
0.0
 11
12.4
 21
-4.0
 31
0.0
  0
LINE
  5
352
100
AcDbEntity
  8
0
  6
CONTINUOUS
 62
               7
100
AcDbLine
 10
10.4
 20
4.2999999999999998
 30
0.0
 11
12.4
 21
4.0
 31
0.0
  0
LINE
  5
353
100
AcDbEntity
  8
0
  6
CONTINUOUS
 62
               7
100
AcDbLine
 10
10.4
 20
4.2999999999999998
 30
0.0
 11
10.4
 21
-4.2999999999999998
 31
0.0
  0
LINE
  5
354
100
AcDbEntity
  8
0
  6
CONTINUOUS
 62
               7
100
AcDbLine
 10
5.7000000000000002
 20
4.2999999999999998
 30
0.0
 11
5.7000000000000002
 21
0.5
 31
0.0
  0
LINE
  5
355
100
AcDbEntity
  8
0
  6
CONTINUOUS
 62
               7
100
AcDbLine
 10
12.4
 20
4.0
 30
0.0
 11
12.4
 21
-4.0
 31
0.0
  0
LINE
  5
356
100
AcDbEntity
  8
0
  6
CONTINUOUS
 62
               7
100
AcDbLine
 10
5.7000000000000002
 20
-4.2999999999999998
 30
0.0
 11
10.4
 21
-4.2999999999999998
 31
0.0
  0
LINE
  5
357
100
AcDbEntity
  8
0
  6
CONTINUOUS
 62
               7
100
AcDbLine
 10
5.7000000000000002
 20
4.2999999999999998
 30
0.0
 11
10.4
 21
4.2999999999999998
 31
0.0
  0
LINE
  5
358
100
AcDbEntity
  8
0
  6
CONTINUOUS
 62
               7
100
AcDbLine
 10
13.199999999999999
 20
2.5
 30
0.0
 11
13.9
 21
2.5
 31
0.0
  0
LINE
  5
359
100
AcDbEntity
  8
0
  6
CONTINUOUS
 62
               7
100
AcDbLine
 10
13.199999999999999
 20
-2.5
 30
0.0
 11
13.9
 21
-2.5
 31
0.0
  0
LINE
  5
35A
100
AcDbEntity
  8
0
  6
CONTINUOUS
 62
               7
100
AcDbLine
 10
12.4
 20
4.0
 30
0.0
 11
13.199999999999999
 21
4.0
 31
0.0
  0
LINE
  5
35B
100
AcDbEntity
  8
0
  6
CONTINUOUS
 62
               7
100
AcDbLine
 10
12.4
 20
-4.0
 30
0.0
 11
13.199999999999999
 21
-4.0
 31
0.0
  0
LINE
  5
35C
100
AcDbEntity
  8
0
  6
CONTINUOUS
 62
               7
100
AcDbLine
 10
13.9
 20
4.9000000000000004
 30
0.0
 11
13.9
 21
-4.9000000000000004
 31
0.0
  0
LINE
  5
35D
100
AcDbEntity
  8
0
  6
CONTINUOUS
 62
               7
100
AcDbLine
 10
13.199999999999999
 20
4.0
 30
0.0
 11
13.199999999999999
 21
-4.0
 31
0.0
  0
LINE
  5
35E
100
AcDbEntity
  8
0
  6
CONTINUOUS
 62
               7
100
AcDbLine
 10
13.9
 20
-4.9000000000000004
 30
0.0
 11
15.1
 21
-4.9000000000000004
 31
0.0
  0
LINE
  5
35F
100
AcDbEntity
  8
0
  6
CONTINUOUS
 62
               7
100
AcDbLine
 10
13.9
 20
4.9000000000000004
 30
0.0
 11
15.1
 21
4.9000000000000004
 31
0.0
  0
LINE
  5
360
100
AcDbEntity
  8
0
  6
CONTINUOUS
 62
               7
100
AcDbLine
 10
15.1
 20
4.9000000000000004
 30
0.0
 11
15.1
 21
-4.9000000000000004
 31
0.0
  0
ENDBLK
  5
361
100
AcDbEntity
  8
0
100
AcDbBlockEnd
  0
BLOCK
  5
362
100
AcDbEntity
  8
0
100
AcDbBlockBegin
  2
MS_19
 70
               0
 10
0.0
 20
0.0
 30
0.0
  3
MS_19
  1

  0
ARC
  5
363
100
AcDbEntity
  8
0
  6
CONTINUOUS
 62
               7
100
AcDbCircle
 10
2.0
 20
8.0767173767089844
 30
0.0
 40
5.7835336505181019
100
AcDbArc
 50
249.76879080816275
 51
290.23120919183606
  0
ARC
  5
364
100
AcDbEntity
  8
0
  6
CONTINUOUS
 62
               7
100
AcDbCircle
 10
-2.0
 20
8.0767173767089844
 30
0.0
 40
5.7835336505181019
100
AcDbArc
 50
249.76879080816275
 51
290.23120919183606
  0
ARC
  5
365
100
AcDbEntity
  8
0
  6
CONTINUOUS
 62
               7
100
AcDbCircle
 10
-0.0039679901383636
 20
10.89531185604946
 30
0.0
 40
2.9960356778264936
100
AcDbArc
 50
99.52992932704727
 51
179.91034453503923
  0
ARC
  5
366
100
AcDbEntity
  8
0
  6
CONTINUOUS
 62
               7
100
AcDbCircle
 10
-0.0012055610965571
 20
10.597761616970127
 30
0.0
 40
3.300150778372763
100
AcDbArc
 50
98.693166487825138
 51
204.67587156728473
  0
ARC
  5
367
100
AcDbEntity
  8
0
  6
CONTINUOUS
 62
               7
100
AcDbCircle
 10
0.0039679901383636
 20
10.89531185604946
 30
0.0
 40
2.9960356778264936
100
AcDbArc
 50
0.0896554649603886
 51
80.470070672952332
  0
ARC
  5
368
100
AcDbEntity
  8
0
  6
CONTINUOUS
 62
               7
100
AcDbCircle
 10
0.0
 20
10.600000381469727
 30
0.0
 40
4.3001049027177913
100
AcDbArc
 50
318.48817424368093
 51
221.51182575631788
  0
ARC
  5
369
100
AcDbEntity
  8
0
  6
CONTINUOUS
 62
               7
100
AcDbCircle
 10
0.0012055610965571
 20
10.597761616970127
 30
0.0
 40
3.300150778372763
100
AcDbArc
 50
335.32412843271408
 51
81.306833512174464
  0
ARC
  5
36A
100
AcDbEntity
  8
0
  6
CONTINUOUS
 62
               7
100
AcDbCircle
 10
-2.0
 20
0.5232830047607422
 30
0.0
 40
5.7741512801894803
100
AcDbArc
 50
69.734475508488174
 51
110.26552449151144
  0
ARC
  5
36B
100
AcDbEntity
  8
0
  6
CONTINUOUS
 62
               7
100
AcDbCircle
 10
2.0
 20
0.5232830047607422
 30
0.0
 40
5.7741512801894803
100
AcDbArc
 50
69.734475508488174
 51
110.26552449151144
  0
LINE
  5
36C
100
AcDbEntity
  8
0
  6
CONTINUOUS
 62
               7
100
AcDbLine
 10
-4.0
 20
2.2999999999999998
 30
0.0
 11
4.0
 21
2.2999999999999998
 31
0.0
  0
LINE
  5
36D
100
AcDbEntity
  8
0
  6
CONTINUOUS
 62
               7
100
AcDbLine
 10
-4.0
 20
0.0
 30
0.0
 11
4.0
 21
0.0
 31
0.0
  0
LINE
  5
36E
100
AcDbEntity
  8
0
  6
CONTINUOUS
 62
               7
100
AcDbLine
 10
-4.0
 20
0.8
 30
0.0
 11
4.0
 21
0.8
 31
0.0
  0
LINE
  5
36F
100
AcDbEntity
  8
0
  6
CONTINUOUS
 62
               2
100
AcDbLine
 10
2.0600000000000001
 20
-2.8999999999999999
 30
0.0
 11
2.0600000000000001
 21
0.0
 31
0.0
  0
LINE
  5
370
100
AcDbEntity
  8
0
  6
CONTINUOUS
 62
               7
100
AcDbLine
 10
2.5
 20
-2.8999999999999999
 30
0.0
 11
2.5
 21
0.0
 31
0.0
  0
LINE
  5
371
100
AcDbEntity
  8
0
  6
CONTINUOUS
 62
               7
100
AcDbLine
 10
-2.5
 20
-2.8999999999999999
 30
0.0
 11
-2.5
 21
0.0
 31
0.0
  0
LINE
  5
372
100
AcDbEntity
  8
0
  6
CONTINUOUS
 62
               2
100
AcDbLine
 10
-2.0600000000000001
 20
-2.8999999999999999
 30
0.0
 11
-2.0600000000000001
 21
0.0
 31
0.0
  0
LINE
  5
373
100
AcDbEntity
  8
0
  6
CONTINUOUS
 62
               7
100
AcDbLine
 10
-2.5
 20
-2.8999999999999999
 30
0.0
 11
2.5
 21
-2.8999999999999999
 31
0.0
  0
LINE
  5
374
100
AcDbEntity
  8
0
  6
CONTINUOUS
 62
               7
100
AcDbLine
 10
-3.0
 20
7.8700000000000001
 30
0.0
 11
-3.0
 21
10.9
 31
0.0
  0
LINE
  5
375
100
AcDbEntity
  8
0
  6
CONTINUOUS
 62
               7
100
AcDbLine
 10
-3.0
 20
7.8700000000000001
 30
0.0
 11
-0.5
 21
7.8700000000000001
 31
0.0
  0
LINE
  5
376
100
AcDbEntity
  8
0
  6
CONTINUOUS
 62
               7
100
AcDbLine
 10
-4.0
 20
7.2999999999999998
 30
0.0
 11
-3.0
 21
7.8700000000000001
 31
0.0
  0
LINE
  5
377
100
AcDbEntity
  8
0
  6
CONTINUOUS
 62
               7
100
AcDbLine
 10
0.5
 20
7.2999999999999998
 30
0.0
 11
4.0
 21
7.2999999999999998
 31
0.0
  0
LINE
  5
378
100
AcDbEntity
  8
0
  6
CONTINUOUS
 62
               7
100
AcDbLine
 10
0.5
 20
7.8700000000000001
 30
0.0
 11
3.0
 21
7.8700000000000001
 31
0.0
  0
LINE
  5
379
100
AcDbEntity
  8
0
  6
CONTINUOUS
 62
               7
100
AcDbLine
 10
-0.5
 20
7.2999999999999998
 30
0.0
 11
-0.5
 21
14.869999999999999
 31
0.0
  0
LINE
  5
37A
100
AcDbEntity
  8
0
  6
CONTINUOUS
 62
               7
100
AcDbLine
 10
0.5
 20
7.2999999999999998
 30
0.0
 11
0.5
 21
14.869999999999999
 31
0.0
  0
LINE
  5
37B
100
AcDbEntity
  8
0
  6
CONTINUOUS
 62
               7
100
AcDbLine
 10
3.0
 20
7.8700000000000001
 30
0.0
 11
3.0
 21
10.9
 31
0.0
  0
LINE
  5
37C
100
AcDbEntity
  8
0
  6
CENTER
 62
               2
100
AcDbLine
 10
-6.4500000000000002
 20
10.6
 30
0.0
 11
6.3300000000000001
 21
10.6
 31
0.0
  0
LINE
  5
37D
100
AcDbEntity
  8
0
  6
CONTINUOUS
 62
               7
100
AcDbLine
 10
-4.0
 20
7.2999999999999998
 30
0.0
 11
-0.5
 21
7.2999999999999998
 31
0.0
  0
LINE
  5
37E
100
AcDbEntity
  8
0
  6
CONTINUOUS
 62
               7
100
AcDbLine
 10
0.0
 20
5.9400000000000004
 30
0.0
 11
0.0
 21
2.6499999999999999
 31
0.0
  0
LINE
  5
37F
100
AcDbEntity
  8
0
  6
CONTINUOUS
 62
               7
100
AcDbLine
 10
-4.0
 20
0.0
 30
0.0
 11
-4.0
 21
7.2999999999999998
 31
0.0
  0
LINE
  5
380
100
AcDbEntity
  8
0
  6
CONTINUOUS
 62
               7
100
AcDbLine
 10
4.0
 20
0.0
 30
0.0
 11
4.0
 21
7.2999999999999998
 31
0.0
  0
LINE
  5
381
100
AcDbEntity
  8
0
  6
CONTINUOUS
 62
               7
100
AcDbLine
 10
-4.0
 20
6.2999999999999998
 30
0.0
 11
4.0
 21
6.2999999999999998
 31
0.0
  0
LINE
  5
382
100
AcDbEntity
  8
0
  6
CENTER
 62
               2
100
AcDbLine
 10
0.0
 20
-5.3600000000000003
 30
0.0
 11
0.0
 21
17.18
 31
0.0
  0
LINE
  5
383
100
AcDbEntity
  8
0
  6
CONTINUOUS
 62
               7
100
AcDbLine
 10
4.0
 20
7.2999999999999998
 30
0.0
 11
3.0
 21
7.8700000000000001
 31
0.0
  0
ENDBLK
  5
384
100
AcDbEntity
  8
0
100
AcDbBlockEnd
  0
BLOCK
  5
385
100
AcDbEntity
  8
0
100
AcDbBlockBegin
  2
MS_20
 70
               0
 10
0.0
 20
0.0
 30
0.0
  3
MS_20
  1

  0
ARC
  5
386
100
AcDbEntity
  8
0
  6
CONTINUOUS
 62
               7
100
AcDbCircle
 10
2.0
 20
8.0767173767089844
 30
0.0
 40
5.7835336505181019
100
AcDbArc
 50
249.76879080816275
 51
290.23120919183606
  0
ARC
  5
387
100
AcDbEntity
  8
0
  6
CONTINUOUS
 62
               7
100
AcDbCircle
 10
-2.0
 20
8.0767173767089844
 30
0.0
 40
5.7835336505181019
100
AcDbArc
 50
249.76879080816275
 51
290.23120919183606
  0
ARC
  5
388
100
AcDbEntity
  8
0
  6
CONTINUOUS
 62
               7
100
AcDbCircle
 10
-0.0000000000000147
 20
10.600000000000001
 30
0.0
 40
4.3002906878489169
100
AcDbArc
 50
330.15596256406695
 51
29.84403743593224
  0
ARC
  5
389
100
AcDbEntity
  8
0
  6
CONTINUOUS
 62
               7
100
AcDbCircle
 10
0.0000000000000147
 20
10.600000000000001
 30
0.0
 40
4.3002906878489169
100
AcDbArc
 50
150.15596256406735
 51
209.84403743593182
  0
ARC
  5
38A
100
AcDbEntity
  8
0
  6
CONTINUOUS
 62
               7
100
AcDbCircle
 10
2.0202842807976431
 20
0.5195676055412815
 30
0.0
 40
5.7706465557816298
100
AcDbArc
 50
69.936185516194882
 51
89.506374875540274
  0
ARC
  5
38B
100
AcDbEntity
  8
0
  6
CONTINUOUS
 62
               7
100
AcDbCircle
 10
-2.0202842807976431
 20
0.5195676055412815
 30
0.0
 40
5.7706465557816298
100
AcDbArc
 50
90.493625124459328
 51
110.06381448380473
  0
CIRCLE
  5
38C
100
AcDbEntity
  8
0
  6
CONTINUOUS
 62
               7
100
AcDbCircle
 10
0.0
 20
10.600000381469727
 30
0.0
 40
2.0
  0
ARC
  5
38D
100
AcDbEntity
  8
0
  6
CONTINUOUS
 62
               7
100
AcDbCircle
 10
0.0
 20
9.5999999999999996
 30
0.0
 40
3.9000000000000186
100
AcDbArc
 50
179.9999999999996
 51
0.0
  0
ARC
  5
38E
100
AcDbEntity
  8
0
  6
CONTINUOUS
 62
               7
100
AcDbCircle
 10
0.0
 20
11.6
 30
0.0
 40
3.9000000000000186
100
AcDbArc
 50
0.0
 51
179.9999999999996
  0
LINE
  5
38F
100
AcDbEntity
  8
0
  6
CONTINUOUS
 62
               7
100
AcDbLine
 10
-4.0
 20
2.2999999999999998
 30
0.0
 11
4.0
 21
2.2999999999999998
 31
0.0
  0
LINE
  5
390
100
AcDbEntity
  8
0
  6
CONTINUOUS
 62
               7
100
AcDbLine
 10
2.0699999999999998
 20
6.2999999999999998
 30
0.0
 11
4.0
 21
6.2999999999999998
 31
0.0
  0
LINE
  5
391
100
AcDbEntity
  8
0
  6
CONTINUOUS
 62
               7
100
AcDbLine
 10
4.0
 20
7.2999999999999998
 30
0.0
 11
3.1499999999999999
 21
7.2999999999999998
 31
0.0
  0
LINE
  5
392
100
AcDbEntity
  8
0
  6
CONTINUOUS
 62
               7
100
AcDbLine
 10
-4.0
 20
7.2999999999999998
 30
0.0
 11
-3.1499999999999999
 21
7.2999999999999998
 31
0.0
  0
LINE
  5
393
100
AcDbEntity
  8
0
  6
CONTINUOUS
 62
               7
100
AcDbLine
 10
4.0
 20
7.2999999999999998
 30
0.0
 11
3.3799999999999999
 21
7.6500000000000004
 31
0.0
  0
LINE
  5
394
100
AcDbEntity
  8
0
  6
CONTINUOUS
 62
               7
100
AcDbLine
 10
0.0
 20
5.7000000000000002
 30
0.0
 11
0.0
 21
2.7999999999999998
 31
0.0
  0
LINE
  5
395
100
AcDbEntity
  8
0
  6
CONTINUOUS
 62
               7
100
AcDbLine
 10
-4.0
 20
0.0
 30
0.0
 11
-4.0
 21
7.2999999999999998
 31
0.0
  0
LINE
  5
396
100
AcDbEntity
  8
0
  6
CONTINUOUS
 62
               7
100
AcDbLine
 10
4.0
 20
0.0
 30
0.0
 11
4.0
 21
7.2999999999999998
 31
0.0
  0
LINE
  5
397
100
AcDbEntity
  8
0
  6
CONTINUOUS
 62
               7
100
AcDbLine
 10
-4.0
 20
6.2999999999999998
 30
0.0
 11
-2.0699999999999998
 21
6.2999999999999998
 31
0.0
  0
LINE
  5
398
100
AcDbEntity
  8
0
  6
CENTER
 62
               2
100
AcDbLine
 10
0.0
 20
-5.3600000000000003
 30
0.0
 11
0.0
 21
17.149999999999999
 31
0.0
  0
LINE
  5
399
100
AcDbEntity
  8
0
  6
CONTINUOUS
 62
               7
100
AcDbLine
 10
-4.0
 20
7.2999999999999998
 30
0.0
 11
-3.3799999999999999
 21
7.6500000000000004
 31
0.0
  0
LINE
  5
39A
100
AcDbEntity
  8
0
  6
CENTER
 62
               2
100
AcDbLine
 10
-5.0199999999999996
 20
10.6
 30
0.0
 11
5.1900000000000004
 21
10.6
 31
0.0
  0
LINE
  5
39B
100
AcDbEntity
  8
0
  6
CONTINUOUS
 62
               7
100
AcDbLine
 10
-3.8999999999999999
 20
11.6
 30
0.0
 11
-3.8999999999999999
 21
9.5999999999999996
 31
0.0
  0
LINE
  5
39C
100
AcDbEntity
  8
0
  6
CONTINUOUS
 62
               7
100
AcDbLine
 10
3.8999999999999999
 20
11.6
 30
0.0
 11
3.8999999999999999
 21
9.5999999999999996
 31
0.0
  0
LINE
  5
39D
100
AcDbEntity
  8
0
  6
CONTINUOUS
 62
               7
100
AcDbLine
 10
-2.5
 20
-2.8999999999999999
 30
0.0
 11
2.5
 21
-2.8999999999999999
 31
0.0
  0
LINE
  5
39E
100
AcDbEntity
  8
0
  6
CONTINUOUS
 62
               2
100
AcDbLine
 10
-2.0600000000000001
 20
-2.8999999999999999
 30
0.0
 11
-2.0600000000000001
 21
0.0
 31
0.0
  0
LINE
  5
39F
100
AcDbEntity
  8
0
  6
CONTINUOUS
 62
               2
100
AcDbLine
 10
2.0600000000000001
 20
-2.8999999999999999
 30
0.0
 11
2.0600000000000001
 21
0.0
 31
0.0
  0
LINE
  5
3A0
100
AcDbEntity
  8
0
  6
CONTINUOUS
 62
               7
100
AcDbLine
 10
-4.0
 20
0.8
 30
0.0
 11
4.0
 21
0.8
 31
0.0
  0
LINE
  5
3A1
100
AcDbEntity
  8
0
  6
CONTINUOUS
 62
               7
100
AcDbLine
 10
-4.0
 20
0.0
 30
0.0
 11
4.0
 21
0.0
 31
0.0
  0
LINE
  5
3A2
100
AcDbEntity
  8
0
  6
CONTINUOUS
 62
               7
100
AcDbLine
 10
-2.5
 20
-2.8999999999999999
 30
0.0
 11
-2.5
 21
0.0
 31
0.0
  0
LINE
  5
3A3
100
AcDbEntity
  8
0
  6
CONTINUOUS
 62
               7
100
AcDbLine
 10
2.5
 20
-2.8999999999999999
 30
0.0
 11
2.5
 21
0.0
 31
0.0
  0
ENDBLK
  5
3A4
100
AcDbEntity
  8
0
100
AcDbBlockEnd
  0
BLOCK
  5
3A5
100
AcDbEntity
  8
0
100
AcDbBlockBegin
  2
MS_21
 70
               0
 10
0.0
 20
0.0
 30
0.0
  3
MS_21
  1

  0
ARC
  5
3A6
100
AcDbEntity
  8
0
  6
CONTINUOUS
 62
               7
100
AcDbCircle
 10
-0.0000228979754862
 20
10.899975257714189
 30
0.0
 40
4.00002474235135
100
AcDbArc
 50
89.999672012689913
 51
185.73877866789684
  0
ARC
  5
3A7
100
AcDbEntity
  8
0
  6
CONTINUOUS
 62
               7
100
AcDbCircle
 10
-0.0000002861022805
 20
10.90000028610228
 30
0.0
 40
2.9999997138977328
100
AcDbArc
 50
89.999994535848217
 51
180.00000546415117
  0
ARC
  5
3A8
100
AcDbEntity
  8
0
  6
CONTINUOUS
 62
               7
100
AcDbCircle
 10
0.0
 20
9.9427347183227521
 30
0.0
 40
7.6468280791338605
100
AcDbArc
 50
252.49564399417093
 51
287.50435600582784
  0
ARC
  5
3A9
100
AcDbEntity
  8
0
  6
CONTINUOUS
 62
               7
100
AcDbCircle
 10
-3.4458132157249941
 20
4.3502666578314093
 30
0.0
 40
2.05031573984673
100
AcDbArc
 50
269.60354918306655
 51
303.97611155930161
  0
ARC
  5
3AA
100
AcDbEntity
  8
0
  6
CONTINUOUS
 62
               7
100
AcDbCircle
 10
-3.4591648395428467
 20
4.2538021836952691
 30
0.0
 40
2.0461979867410776
100
AcDbArc
 50
55.493695796089014
 51
90.023385406030769
  0
ARC
  5
3AB
100
AcDbEntity
  8
0
  6
CONTINUOUS
 62
               7
100
AcDbCircle
 10
3.4458132157249941
 20
4.3502666578314093
 30
0.0
 40
2.05031573984673
100
AcDbArc
 50
236.02388844069716
 51
270.3964508169322
  0
ARC
  5
3AC
100
AcDbEntity
  8
0
  6
CONTINUOUS
 62
               7
100
AcDbCircle
 10
3.4591648395428467
 20
4.2538021836952691
 30
0.0
 40
2.0461979867410776
100
AcDbArc
 50
89.976614593968847
 51
124.50630420391059
  0
ARC
  5
3AD
100
AcDbEntity
  8
0
  6
CONTINUOUS
 62
               7
100
AcDbCircle
 10
0.0
 20
-1.3427352905273429
 30
0.0
 40
7.6372922761861348
100
AcDbArc
 50
72.473080576068654
 51
107.52691942393095
  0
LINE
  5
3AE
100
AcDbEntity
  8
0
  6
CONTINUOUS
 62
               7
100
AcDbLine
 10
-3.0
 20
-3.8999999999999999
 30
0.0
 11
-3.0
 21
0.0
 31
0.0
  0
LINE
  5
3AF
100
AcDbEntity
  8
0
  6
CONTINUOUS
 62
               2
100
AcDbLine
 10
-2.4500000000000002
 20
-3.8999999999999999
 30
0.0
 11
-2.4500000000000002
 21
0.0
 31
0.0
  0
LINE
  5
3B0
100
AcDbEntity
  8
0
  6
CONTINUOUS
 62
               7
100
AcDbLine
 10
-3.0
 20
-3.8999999999999999
 30
0.0
 11
3.0
 21
-3.8999999999999999
 31
0.0
  0
LINE
  5
3B1
100
AcDbEntity
  8
0
  6
CONTINUOUS
 62
               2
100
AcDbLine
 10
2.4500000000000002
 20
-3.8999999999999999
 30
0.0
 11
2.4500000000000002
 21
0.0
 31
0.0
  0
LINE
  5
3B2
100
AcDbEntity
  8
0
  6
CONTINUOUS
 62
               7
100
AcDbLine
 10
3.0
 20
-3.8999999999999999
 30
0.0
 11
3.0
 21
0.0
 31
0.0
  0
LINE
  5
3B3
100
AcDbEntity
  8
0
  6
CONTINUOUS
 62
               7
100
AcDbLine
 10
4.5
 20
0.0
 30
0.0
 11
4.5
 21
0.8
 31
0.0
  0
LINE
  5
3B4
100
AcDbEntity
  8
0
  6
CONTINUOUS
 62
               7
100
AcDbLine
 10
-4.5
 20
0.0
 30
0.0
 11
-4.5
 21
0.8
 31
0.0
  0
LINE
  5
3B5
100
AcDbEntity
  8
0
  6
CONTINUOUS
 62
               7
100
AcDbLine
 10
-4.5
 20
0.0
 30
0.0
 11
4.5
 21
0.0
 31
0.0
  0
LINE
  5
3B6
100
AcDbEntity
  8
0
  6
CONTINUOUS
 62
               7
100
AcDbLine
 10
-4.5
 20
0.8
 30
0.0
 11
4.5
 21
0.8
 31
0.0
  0
LINE
  5
3B7
100
AcDbEntity
  8
0
  6
CONTINUOUS
 62
               7
100
AcDbLine
 10
5.7000000000000002
 20
6.2999999999999998
 30
0.0
 11
10.4
 21
6.2999999999999998
 31
0.0
  0
LINE
  5
3B8
100
AcDbEntity
  8
0
  6
CONTINUOUS
 62
               7
100
AcDbLine
 10
5.7000000000000002
 20
6.2999999999999998
 30
0.0
 11
5.1200000000000001
 21
7.2999999999999998
 31
0.0
  0
LINE
  5
3B9
100
AcDbEntity
  8
0
  6
CONTINUOUS
 62
               7
100
AcDbLine
 10
5.1200000000000001
 20
13.9
 30
0.0
 11
5.1200000000000001
 21
7.2999999999999998
 31
0.0
  0
LINE
  5
3BA
100
AcDbEntity
  8
0
  6
CONTINUOUS
 62
               7
100
AcDbLine
 10
5.7000000000000002
 20
14.9
 30
0.0
 11
5.7000000000000002
 21
6.2999999999999998
 31
0.0
  0
LINE
  5
3BB
100
AcDbEntity
  8
0
  6
CONTINUOUS
 62
               7
100
AcDbLine
 10
5.7000000000000002
 20
14.9
 30
0.0
 11
5.1200000000000001
 21
13.9
 31
0.0
  0
LINE
  5
3BC
100
AcDbEntity
  8
0
  6
CONTINUOUS
 62
               7
100
AcDbLine
 10
0.0
 20
14.9
 30
0.0
 11
10.4
 21
14.9
 31
0.0
  0
LINE
  5
3BD
100
AcDbEntity
  8
0
  6
CONTINUOUS
 62
               7
100
AcDbLine
 10
10.4
 20
14.9
 30
0.0
 11
10.4
 21
6.2999999999999998
 31
0.0
  0
LINE
  5
3BE
100
AcDbEntity
  8
0
  6
CONTINUOUS
 62
               7
100
AcDbLine
 10
10.4
 20
14.9
 30
0.0
 11
12.4
 21
14.6
 31
0.0
  0
LINE
  5
3BF
100
AcDbEntity
  8
0
  6
CONTINUOUS
 62
               7
100
AcDbLine
 10
10.4
 20
6.2999999999999998
 30
0.0
 11
12.4
 21
6.5999999999999996
 31
0.0
  0
LINE
  5
3C0
100
AcDbEntity
  8
0
  6
CONTINUOUS
 62
               7
100
AcDbLine
 10
12.4
 20
14.6
 30
0.0
 11
12.4
 21
6.5999999999999996
 31
0.0
  0
LINE
  5
3C1
100
AcDbEntity
  8
0
  6
CONTINUOUS
 62
               7
100
AcDbLine
 10
12.4
 20
6.5999999999999996
 30
0.0
 11
13.199999999999999
 21
6.5999999999999996
 31
0.0
  0
LINE
  5
3C2
100
AcDbEntity
  8
0
  6
CONTINUOUS
 62
               7
100
AcDbLine
 10
12.4
 20
14.6
 30
0.0
 11
13.199999999999999
 21
14.6
 31
0.0
  0
LINE
  5
3C3
100
AcDbEntity
  8
0
  6
CONTINUOUS
 62
               7
100
AcDbLine
 10
13.199999999999999
 20
14.6
 30
0.0
 11
13.199999999999999
 21
6.5999999999999996
 31
0.0
  0
LINE
  5
3C4
100
AcDbEntity
  8
0
  6
CONTINUOUS
 62
               7
100
AcDbLine
 10
13.199999999999999
 20
13.1
 30
0.0
 11
13.9
 21
13.1
 31
0.0
  0
LINE
  5
3C5
100
AcDbEntity
  8
0
  6
CONTINUOUS
 62
               7
100
AcDbLine
 10
13.199999999999999
 20
8.0999999999999996
 30
0.0
 11
13.9
 21
8.0999999999999996
 31
0.0
  0
LINE
  5
3C6
100
AcDbEntity
  8
0
  6
CONTINUOUS
 62
               7
100
AcDbLine
 10
13.9
 20
5.7000000000000002
 30
0.0
 11
15.1
 21
5.7000000000000002
 31
0.0
  0
LINE
  5
3C7
100
AcDbEntity
  8
0
  6
CONTINUOUS
 62
               7
100
AcDbLine
 10
13.9
 20
15.5
 30
0.0
 11
13.9
 21
5.7000000000000002
 31
0.0
  0
LINE
  5
3C8
100
AcDbEntity
  8
0
  6
CONTINUOUS
 62
               7
100
AcDbLine
 10
15.1
 20
15.5
 30
0.0
 11
15.1
 21
5.7000000000000002
 31
0.0
  0
LINE
  5
3C9
100
AcDbEntity
  8
0
  6
CONTINUOUS
 62
               7
100
AcDbLine
 10
13.9
 20
15.5
 30
0.0
 11
15.1
 21
15.5
 31
0.0
  0
LINE
  5
3CA
100
AcDbEntity
  8
0
  6
CONTINUOUS
 62
               7
100
AcDbLine
 10
-3.0
 20
7.8700000000000001
 30
0.0
 11
3.0
 21
7.8700000000000001
 31
0.0
  0
LINE
  5
3CB
100
AcDbEntity
  8
0
  6
CONTINUOUS
 62
               7
100
AcDbLine
 10
4.0
 20
7.2999999999999998
 30
0.0
 11
3.0
 21
7.8700000000000001
 31
0.0
  0
LINE
  5
3CC
100
AcDbEntity
  8
0
  6
CONTINUOUS
 62
               7
100
AcDbLine
 10
-4.0
 20
7.2999999999999998
 30
0.0
 11
-3.0
 21
7.8700000000000001
 31
0.0
  0
LINE
  5
3CD
100
AcDbEntity
  8
0
  6
CONTINUOUS
 62
               7
100
AcDbLine
 10
0.0
 20
10.6
 30
0.0
 11
3.0
 21
7.8700000000000001
 31
0.0
  0
LINE
  5
3CE
100
AcDbEntity
  8
0
  6
CONTINUOUS
 62
               7
100
AcDbLine
 10
-4.0
 20
7.2999999999999998
 30
0.0
 11
5.1200000000000001
 21
7.2999999999999998
 31
0.0
  0
LINE
  5
3CF
100
AcDbEntity
  8
0
  6
CONTINUOUS
 62
               7
100
AcDbLine
 10
0.0
 20
13.9
 30
0.0
 11
5.1200000000000001
 21
13.9
 31
0.0
  0
LINE
  5
3D0
100
AcDbEntity
  8
0
  6
CONTINUOUS
 62
               7
100
AcDbLine
 10
-3.0
 20
7.8700000000000001
 30
0.0
 11
-3.0
 21
10.9
 31
0.0
  0
LINE
  5
3D1
100
AcDbEntity
  8
0
  6
CONTINUOUS
 62
               7
100
AcDbLine
 10
4.0
 20
6.2999999999999998
 30
0.0
 11
4.0
 21
7.2999999999999998
 31
0.0
  0
LINE
  5
3D2
100
AcDbEntity
  8
0
  6
CONTINUOUS
 62
               7
100
AcDbLine
 10
-4.0
 20
6.2999999999999998
 30
0.0
 11
-4.0
 21
10.9
 31
0.0
  0
LINE
  5
3D3
100
AcDbEntity
  8
0
  6
CENTER
 62
               2
100
AcDbLine
 10
-5.5999999999999996
 20
10.6
 30
0.0
 11
16.399999999999999
 21
10.6
 31
0.0
  0
LINE
  5
3D4
100
AcDbEntity
  8
0
  6
CENTER
 62
               2
100
AcDbLine
 10
0.0
 20
-5.3600000000000003
 30
0.0
 11
0.0
 21
17.18
 31
0.0
  0
LINE
  5
3D5
100
AcDbEntity
  8
0
  6
CONTINUOUS
 62
               7
100
AcDbLine
 10
-4.6100000000000003
 20
5.9400000000000004
 30
0.0
 11
-4.0
 21
6.2999999999999998
 31
0.0
  0
LINE
  5
3D6
100
AcDbEntity
  8
0
  6
CONTINUOUS
 62
               7
100
AcDbLine
 10
4.6100000000000003
 20
5.9400000000000004
 30
0.0
 11
4.0
 21
6.2999999999999998
 31
0.0
  0
LINE
  5
3D7
100
AcDbEntity
  8
0
  6
CONTINUOUS
 62
               7
100
AcDbLine
 10
-4.0
 20
6.2999999999999998
 30
0.0
 11
4.0
 21
6.2999999999999998
 31
0.0
  0
LINE
  5
3D8
100
AcDbEntity
  8
0
  6
CONTINUOUS
 62
               7
100
AcDbLine
 10
4.0
 20
0.8
 30
0.0
 11
4.0
 21
2.2999999999999998
 31
0.0
  0
LINE
  5
3D9
100
AcDbEntity
  8
0
  6
CONTINUOUS
 62
               7
100
AcDbLine
 10
-4.0
 20
0.8
 30
0.0
 11
-4.0
 21
2.2999999999999998
 31
0.0
  0
LINE
  5
3DA
100
AcDbEntity
  8
0
  6
CONTINUOUS
 62
               7
100
AcDbLine
 10
-4.6100000000000003
 20
2.6499999999999999
 30
0.0
 11
-4.6100000000000003
 21
5.9400000000000004
 31
0.0
  0
LINE
  5
3DB
100
AcDbEntity
  8
0
  6
CONTINUOUS
 62
               7
100
AcDbLine
 10
-4.6100000000000003
 20
2.6499999999999999
 30
0.0
 11
-4.0
 21
2.2999999999999998
 31
0.0
  0
LINE
  5
3DC
100
AcDbEntity
  8
0
  6
CONTINUOUS
 62
               7
100
AcDbLine
 10
4.6100000000000003
 20
2.6499999999999999
 30
0.0
 11
4.0
 21
2.2999999999999998
 31
0.0
  0
LINE
  5
3DD
100
AcDbEntity
  8
0
  6
CONTINUOUS
 62
               7
100
AcDbLine
 10
-2.2999999999999998
 20
2.6499999999999999
 30
0.0
 11
-2.2999999999999998
 21
5.9400000000000004
 31
0.0
  0
LINE
  5
3DE
100
AcDbEntity
  8
0
  6
CONTINUOUS
 62
               7
100
AcDbLine
 10
2.2999999999999998
 20
2.6499999999999999
 30
0.0
 11
2.2999999999999998
 21
5.9400000000000004
 31
0.0
  0
LINE
  5
3DF
100
AcDbEntity
  8
0
  6
CONTINUOUS
 62
               7
100
AcDbLine
 10
4.6100000000000003
 20
2.6499999999999999
 30
0.0
 11
4.6100000000000003
 21
5.9400000000000004
 31
0.0
  0
LINE
  5
3E0
100
AcDbEntity
  8
0
  6
CONTINUOUS
 62
               7
100
AcDbLine
 10
-4.0
 20
2.2999999999999998
 30
0.0
 11
4.0
 21
2.2999999999999998
 31
0.0
  0
ENDBLK
  5
3E1
100
AcDbEntity
  8
0
100
AcDbBlockEnd
  0
BLOCK
  5
3E2
100
AcDbEntity
  8
0
100
AcDbBlockBegin
  2
MS_22
 70
               0
 10
0.0
 20
0.0
 30
0.0
  3
MS_22
  1

  0
ARC
  5
3E3
100
AcDbEntity
  8
0
  6
CONTINUOUS
 62
               7
100
AcDbCircle
 10
0.0
 20
0.0000000000000004
 30
0.0
 40
4.499288832693451
100
AcDbArc
 50
62.751532573355114
 51
117.24846742664448
  0
ARC
  5
3E4
100
AcDbEntity
  8
0
  6
CONTINUOUS
 62
               7
100
AcDbCircle
 10
-0.013065056723133
 20
-0.0105530967081351
 30
0.0
 40
4.4919146060581152
100
AcDbArc
 50
302.94819855591993
 51
315.12282724157245
  0
ARC
  5
3E5
100
AcDbEntity
  8
0
  6
CONTINUOUS
 62
               7
100
AcDbCircle
 10
0.0
 20
-0.0000000000000004
 30
0.0
 40
4.499288832693451
100
AcDbArc
 50
242.75153257335469
 51
297.24846742664408
  0
ARC
  5
3E6
100
AcDbEntity
  8
0
  6
CONTINUOUS
 62
               7
100
AcDbCircle
 10
-0.0006607090973474
 20
0.0011453611371053
 30
0.0
 40
4.4943019071232904
100
AcDbArc
 50
182.6927859000138
 51
237.27975500699981
  0
ARC
  5
3E7
100
AcDbEntity
  8
0
  6
CONTINUOUS
 62
               7
100
AcDbCircle
 10
-0.0006607090973474
 20
-0.0011453611371053
 30
0.0
 40
4.4943019071232904
100
AcDbArc
 50
122.72024499299935
 51
177.3072140999854
  0
ARC
  5
3E8
100
AcDbEntity
  8
0
  6
CONTINUOUS
 62
               7
100
AcDbCircle
 10
-0.013065056723133
 20
0.0105530967081351
 30
0.0
 40
4.4919146060581152
100
AcDbArc
 50
44.877172758426738
 51
57.051801444079288
  0
ARC
  5
3E9
100
AcDbEntity
  8
0
  6
CONTINUOUS
 62
               7
100
AcDbCircle
 10
0.0046887805741826
 20
-0.0039672389224641
 30
0.0
 40
2.996036430037718
100
AcDbArc
 50
189.52994147925332
 51
269.91033238283279
  0
ARC
  5
3EA
100
AcDbEntity
  8
0
  6
CONTINUOUS
 62
               7
100
AcDbCircle
 10
0.0046887805741826
 20
0.0039672389224641
 30
0.0
 40
2.996036430037718
100
AcDbArc
 50
90.089667617166441
 51
170.47005852074585
  0
ARC
  5
3EB
100
AcDbEntity
  8
0
  6
CONTINUOUS
 62
               7
100
AcDbCircle
 10
0.0
 20
0.0
 30
0.0
 40
3.9950594488693159
100
AcDbArc
 50
51.810553098572974
 51
308.18944690142621
  0
LINE
  5
3EC
100
AcDbEntity
  8
0
  6
CONTINUOUS
 62
               7
100
AcDbLine
 10
5.7000000000000002
 20
-4.2999999999999998
 30
0.0
 11
5.7000000000000002
 21
-0.5
 31
0.0
  0
LINE
  5
3ED
100
AcDbEntity
  8
0
  6
CONTINUOUS
 62
               7
100
AcDbLine
 10
5.1200000000000001
 20
-3.2999999999999998
 30
0.0
 11
5.1200000000000001
 21
-0.5
 31
0.0
  0
LINE
  5
3EE
100
AcDbEntity
  8
0
  6
CONTINUOUS
 62
               7
100
AcDbLine
 10
-3.96
 20
-0.5
 30
0.0
 11
5.7000000000000002
 21
-0.5
 31
0.0
  0
LINE
  5
3EF
100
AcDbEntity
  8
0
  6
CONTINUOUS
 62
               7
100
AcDbLine
 10
-3.96
 20
0.5
 30
0.0
 11
5.7000000000000002
 21
0.5
 31
0.0
  0
LINE
  5
3F0
100
AcDbEntity
  8
0
  6
CONTINUOUS
 62
               7
100
AcDbLine
 10
5.1200000000000001
 20
-3.2999999999999998
 30
0.0
 11
0.0
 21
-3.0
 31
0.0
  0
LINE
  5
3F1
100
AcDbEntity
  8
0
  6
CONTINUOUS
 62
               7
100
AcDbLine
 10
5.1200000000000001
 20
3.2999999999999998
 30
0.0
 11
0.0
 21
3.0
 31
0.0
  0
LINE
  5
3F2
100
AcDbEntity
  8
0
  6
CONTINUOUS
 62
               7
100
AcDbLine
 10
-4.6100000000000003
 20
0.0
 30
0.0
 11
-2.2999999999999998
 21
-4.0
 31
0.0
  0
LINE
  5
3F3
100
AcDbEntity
  8
0
  6
CONTINUOUS
 62
               7
100
AcDbLine
 10
-2.2999999999999998
 20
4.0
 30
0.0
 11
-4.6100000000000003
 21
0.0
 31
0.0
  0
LINE
  5
3F4
100
AcDbEntity
  8
0
  6
CONTINUOUS
 62
               7
100
AcDbLine
 10
2.2999999999999998
 20
4.0
 30
0.0
 11
-2.2999999999999998
 21
4.0
 31
0.0
  0
LINE
  5
3F5
100
AcDbEntity
  8
0
  6
CONTINUOUS
 62
               7
100
AcDbLine
 10
2.79
 20
3.1600000000000001
 30
0.0
 11
2.2999999999999998
 21
4.0
 31
0.0
  0
LINE
  5
3F6
100
AcDbEntity
  8
0
  6
CONTINUOUS
 62
               7
100
AcDbLine
 10
2.2999999999999998
 20
-4.0
 30
0.0
 11
2.79
 21
-3.1600000000000001
 31
0.0
  0
LINE
  5
3F7
100
AcDbEntity
  8
0
  6
CONTINUOUS
 62
               7
100
AcDbLine
 10
-2.2999999999999998
 20
-4.0
 30
0.0
 11
2.2999999999999998
 21
-4.0
 31
0.0
  0
LINE
  5
3F8
100
AcDbEntity
  8
0
  6
CENTER
 62
               2
100
AcDbLine
 10
0.0
 20
5.46
 30
0.0
 11
0.0
 21
-5.4800000000000004
 31
0.0
  0
LINE
  5
3F9
100
AcDbEntity
  8
0
  6
CENTER
 62
               2
100
AcDbLine
 10
-5.5999999999999996
 20
0.0
 30
0.0
 11
16.399999999999999
 21
0.0
 31
0.0
  0
LINE
  5
3FA
100
AcDbEntity
  8
0
  6
CONTINUOUS
 62
               7
100
AcDbLine
 10
5.1200000000000001
 20
3.2999999999999998
 30
0.0
 11
5.1200000000000001
 21
0.5
 31
0.0
  0
LINE
  5
3FB
100
AcDbEntity
  8
0
  6
CONTINUOUS
 62
               7
100
AcDbLine
 10
5.7000000000000002
 20
4.2999999999999998
 30
0.0
 11
5.1200000000000001
 21
3.2999999999999998
 31
0.0
  0
LINE
  5
3FC
100
AcDbEntity
  8
0
  6
CONTINUOUS
 62
               7
100
AcDbLine
 10
5.7000000000000002
 20
-4.2999999999999998
 30
0.0
 11
5.1200000000000001
 21
-3.2999999999999998
 31
0.0
  0
LINE
  5
3FD
100
AcDbEntity
  8
0
  6
CONTINUOUS
 62
               7
100
AcDbLine
 10
10.4
 20
-4.2999999999999998
 30
0.0
 11
12.4
 21
-4.0
 31
0.0
  0
LINE
  5
3FE
100
AcDbEntity
  8
0
  6
CONTINUOUS
 62
               7
100
AcDbLine
 10
10.4
 20
4.2999999999999998
 30
0.0
 11
12.4
 21
4.0
 31
0.0
  0
LINE
  5
3FF
100
AcDbEntity
  8
0
  6
CONTINUOUS
 62
               7
100
AcDbLine
 10
10.4
 20
4.2999999999999998
 30
0.0
 11
10.4
 21
-4.2999999999999998
 31
0.0
  0
LINE
  5
400
100
AcDbEntity
  8
0
  6
CONTINUOUS
 62
               7
100
AcDbLine
 10
5.7000000000000002
 20
4.2999999999999998
 30
0.0
 11
5.7000000000000002
 21
0.5
 31
0.0
  0
LINE
  5
401
100
AcDbEntity
  8
0
  6
CONTINUOUS
 62
               7
100
AcDbLine
 10
12.4
 20
4.0
 30
0.0
 11
12.4
 21
-4.0
 31
0.0
  0
LINE
  5
402
100
AcDbEntity
  8
0
  6
CONTINUOUS
 62
               7
100
AcDbLine
 10
5.7000000000000002
 20
-4.2999999999999998
 30
0.0
 11
10.4
 21
-4.2999999999999998
 31
0.0
  0
LINE
  5
403
100
AcDbEntity
  8
0
  6
CONTINUOUS
 62
               7
100
AcDbLine
 10
5.7000000000000002
 20
4.2999999999999998
 30
0.0
 11
10.4
 21
4.2999999999999998
 31
0.0
  0
LINE
  5
404
100
AcDbEntity
  8
0
  6
CONTINUOUS
 62
               7
100
AcDbLine
 10
13.199999999999999
 20
2.5
 30
0.0
 11
13.9
 21
2.5
 31
0.0
  0
LINE
  5
405
100
AcDbEntity
  8
0
  6
CONTINUOUS
 62
               7
100
AcDbLine
 10
13.199999999999999
 20
-2.5
 30
0.0
 11
13.9
 21
-2.5
 31
0.0
  0
LINE
  5
406
100
AcDbEntity
  8
0
  6
CONTINUOUS
 62
               7
100
AcDbLine
 10
12.4
 20
4.0
 30
0.0
 11
13.199999999999999
 21
4.0
 31
0.0
  0
LINE
  5
407
100
AcDbEntity
  8
0
  6
CONTINUOUS
 62
               7
100
AcDbLine
 10
12.4
 20
-4.0
 30
0.0
 11
13.199999999999999
 21
-4.0
 31
0.0
  0
LINE
  5
408
100
AcDbEntity
  8
0
  6
CONTINUOUS
 62
               7
100
AcDbLine
 10
13.9
 20
4.9000000000000004
 30
0.0
 11
13.9
 21
-4.9000000000000004
 31
0.0
  0
LINE
  5
409
100
AcDbEntity
  8
0
  6
CONTINUOUS
 62
               7
100
AcDbLine
 10
13.199999999999999
 20
4.0
 30
0.0
 11
13.199999999999999
 21
-4.0
 31
0.0
  0
LINE
  5
40A
100
AcDbEntity
  8
0
  6
CONTINUOUS
 62
               7
100
AcDbLine
 10
13.9
 20
-4.9000000000000004
 30
0.0
 11
15.1
 21
-4.9000000000000004
 31
0.0
  0
LINE
  5
40B
100
AcDbEntity
  8
0
  6
CONTINUOUS
 62
               7
100
AcDbLine
 10
13.9
 20
4.9000000000000004
 30
0.0
 11
15.1
 21
4.9000000000000004
 31
0.0
  0
LINE
  5
40C
100
AcDbEntity
  8
0
  6
CONTINUOUS
 62
               7
100
AcDbLine
 10
15.1
 20
4.9000000000000004
 30
0.0
 11
15.1
 21
-4.9000000000000004
 31
0.0
  0
ENDBLK
  5
40D
100
AcDbEntity
  8
0
100
AcDbBlockEnd
  0
BLOCK
  5
40E
100
AcDbEntity
  8
0
100
AcDbBlockBegin
  2
MS_23
 70
               0
 10
0.0
 20
0.0
 30
0.0
  3
MS_23
  1

  0
ARC
  5
40F
100
AcDbEntity
  8
0
  6
CONTINUOUS
 62
               7
100
AcDbCircle
 10
2.0
 20
8.0767173767089844
 30
0.0
 40
5.7835336505181019
100
AcDbArc
 50
249.76879080816275
 51
290.23120919183606
  0
ARC
  5
410
100
AcDbEntity
  8
0
  6
CONTINUOUS
 62
               7
100
AcDbCircle
 10
-2.0
 20
8.0767154693603516
 30
0.0
 40
5.7835318608437642
100
AcDbArc
 50
249.7687842739042
 51
290.23121572609455
  0
ARC
  5
411
100
AcDbEntity
  8
0
  6
CONTINUOUS
 62
               7
100
AcDbCircle
 10
-0.003967520628458
 20
10.895311458159711
 30
0.0
 40
2.9960361479584616
100
AcDbArc
 50
99.529936922176404
 51
179.91033693991011
  0
ARC
  5
412
100
AcDbEntity
  8
0
  6
CONTINUOUS
 62
               7
100
AcDbCircle
 10
-0.0012055610965571
 20
10.597761616970127
 30
0.0
 40
3.300150778372763
100
AcDbArc
 50
98.693166487825138
 51
204.67587156728473
  0
ARC
  5
413
100
AcDbEntity
  8
0
  6
CONTINUOUS
 62
               7
100
AcDbCircle
 10
0.003967520628458
 20
10.895311458159711
 30
0.0
 40
2.9960361479584616
100
AcDbArc
 50
0.0896630600894917
 51
80.470063077823212
  0
ARC
  5
414
100
AcDbEntity
  8
0
  6
CONTINUOUS
 62
               7
100
AcDbCircle
 10
0.0
 20
10.600000381469727
 30
0.0
 40
4.3001049027177913
100
AcDbArc
 50
318.48817424368093
 51
221.51182575631788
  0
ARC
  5
415
100
AcDbEntity
  8
0
  6
CONTINUOUS
 62
               7
100
AcDbCircle
 10
0.0012055610965571
 20
10.597761616970127
 30
0.0
 40
3.300150778372763
100
AcDbArc
 50
335.32412843271408
 51
81.306833512174464
  0
ARC
  5
416
100
AcDbEntity
  8
0
  6
CONTINUOUS
 62
               7
100
AcDbCircle
 10
-2.0
 20
0.5232830047607422
 30
0.0
 40
5.7741512801894803
100
AcDbArc
 50
69.734475508488174
 51
110.26552449151144
  0
ARC
  5
417
100
AcDbEntity
  8
0
  6
CONTINUOUS
 62
               7
100
AcDbCircle
 10
2.0
 20
0.5232810974121094
 30
0.0
 40
5.7741530694685403
100
AcDbArc
 50
69.734482063994776
 51
110.26551793600483
  0
LINE
  5
418
100
AcDbEntity
  8
0
  6
CONTINUOUS
 62
               7
100
AcDbLine
 10
-3.0
 20
-3.8999999999999999
 30
0.0
 11
-3.0
 21
0.0
 31
0.0
  0
LINE
  5
419
100
AcDbEntity
  8
0
  6
CONTINUOUS
 62
               2
100
AcDbLine
 10
-2.4500000000000002
 20
-3.8999999999999999
 30
0.0
 11
-2.4500000000000002
 21
0.0
 31
0.0
  0
LINE
  5
41A
100
AcDbEntity
  8
0
  6
CONTINUOUS
 62
               7
100
AcDbLine
 10
-3.0
 20
-3.8999999999999999
 30
0.0
 11
3.0
 21
-3.8999999999999999
 31
0.0
  0
LINE
  5
41B
100
AcDbEntity
  8
0
  6
CONTINUOUS
 62
               2
100
AcDbLine
 10
2.4500000000000002
 20
-3.8999999999999999
 30
0.0
 11
2.4500000000000002
 21
0.0
 31
0.0
  0
LINE
  5
41C
100
AcDbEntity
  8
0
  6
CONTINUOUS
 62
               7
100
AcDbLine
 10
3.0
 20
-3.8999999999999999
 30
0.0
 11
3.0
 21
0.0
 31
0.0
  0
LINE
  5
41D
100
AcDbEntity
  8
0
  6
CONTINUOUS
 62
               7
100
AcDbLine
 10
4.5
 20
0.0
 30
0.0
 11
4.5
 21
0.8
 31
0.0
  0
LINE
  5
41E
100
AcDbEntity
  8
0
  6
CONTINUOUS
 62
               7
100
AcDbLine
 10
-4.5
 20
0.0
 30
0.0
 11
-4.5
 21
0.8
 31
0.0
  0
LINE
  5
41F
100
AcDbEntity
  8
0
  6
CONTINUOUS
 62
               7
100
AcDbLine
 10
-4.5
 20
0.0
 30
0.0
 11
4.5
 21
0.0
 31
0.0
  0
LINE
  5
420
100
AcDbEntity
  8
0
  6
CONTINUOUS
 62
               7
100
AcDbLine
 10
-4.5
 20
0.8
 30
0.0
 11
4.5
 21
0.8
 31
0.0
  0
LINE
  5
421
100
AcDbEntity
  8
0
  6
CONTINUOUS
 62
               7
100
AcDbLine
 10
-4.0
 20
2.2999999999999998
 30
0.0
 11
4.0
 21
2.2999999999999998
 31
0.0
  0
LINE
  5
422
100
AcDbEntity
  8
0
  6
CONTINUOUS
 62
               7
100
AcDbLine
 10
-3.0
 20
7.8700000000000001
 30
0.0
 11
-3.0
 21
10.9
 31
0.0
  0
LINE
  5
423
100
AcDbEntity
  8
0
  6
CONTINUOUS
 62
               7
100
AcDbLine
 10
-3.0
 20
7.8700000000000001
 30
0.0
 11
-0.5
 21
7.8700000000000001
 31
0.0
  0
LINE
  5
424
100
AcDbEntity
  8
0
  6
CONTINUOUS
 62
               7
100
AcDbLine
 10
-4.0
 20
7.2999999999999998
 30
0.0
 11
-3.0
 21
7.8700000000000001
 31
0.0
  0
LINE
  5
425
100
AcDbEntity
  8
0
  6
CONTINUOUS
 62
               7
100
AcDbLine
 10
0.5
 20
7.2999999999999998
 30
0.0
 11
4.0
 21
7.2999999999999998
 31
0.0
  0
LINE
  5
426
100
AcDbEntity
  8
0
  6
CONTINUOUS
 62
               7
100
AcDbLine
 10
0.5
 20
7.8700000000000001
 30
0.0
 11
3.0
 21
7.8700000000000001
 31
0.0
  0
LINE
  5
427
100
AcDbEntity
  8
0
  6
CONTINUOUS
 62
               7
100
AcDbLine
 10
-0.5
 20
7.2999999999999998
 30
0.0
 11
-0.5
 21
14.869999999999999
 31
0.0
  0
LINE
  5
428
100
AcDbEntity
  8
0
  6
CONTINUOUS
 62
               7
100
AcDbLine
 10
0.5
 20
7.2999999999999998
 30
0.0
 11
0.5
 21
14.869999999999999
 31
0.0
  0
LINE
  5
429
100
AcDbEntity
  8
0
  6
CONTINUOUS
 62
               7
100
AcDbLine
 10
3.0
 20
7.8700000000000001
 30
0.0
 11
3.0
 21
10.9
 31
0.0
  0
LINE
  5
42A
100
AcDbEntity
  8
0
  6
CENTER
 62
               2
100
AcDbLine
 10
-6.4500000000000002
 20
10.6
 30
0.0
 11
6.3300000000000001
 21
10.6
 31
0.0
  0
LINE
  5
42B
100
AcDbEntity
  8
0
  6
CONTINUOUS
 62
               7
100
AcDbLine
 10
-4.0
 20
7.2999999999999998
 30
0.0
 11
-0.5
 21
7.2999999999999998
 31
0.0
  0
LINE
  5
42C
100
AcDbEntity
  8
0
  6
CONTINUOUS
 62
               7
100
AcDbLine
 10
0.0
 20
5.9400000000000004
 30
0.0
 11
0.0
 21
2.6499999999999999
 31
0.0
  0
LINE
  5
42D
100
AcDbEntity
  8
0
  6
CONTINUOUS
 62
               7
100
AcDbLine
 10
-4.0
 20
0.8
 30
0.0
 11
-4.0
 21
7.2999999999999998
 31
0.0
  0
LINE
  5
42E
100
AcDbEntity
  8
0
  6
CONTINUOUS
 62
               7
100
AcDbLine
 10
4.0
 20
0.8
 30
0.0
 11
4.0
 21
7.2999999999999998
 31
0.0
  0
LINE
  5
42F
100
AcDbEntity
  8
0
  6
CONTINUOUS
 62
               7
100
AcDbLine
 10
-4.0
 20
6.2999999999999998
 30
0.0
 11
4.0
 21
6.2999999999999998
 31
0.0
  0
LINE
  5
430
100
AcDbEntity
  8
0
  6
CENTER
 62
               2
100
AcDbLine
 10
0.0
 20
-5.3600000000000003
 30
0.0
 11
0.0
 21
17.18
 31
0.0
  0
LINE
  5
431
100
AcDbEntity
  8
0
  6
CONTINUOUS
 62
               7
100
AcDbLine
 10
4.0
 20
7.2999999999999998
 30
0.0
 11
3.0
 21
7.8700000000000001
 31
0.0
  0
ENDBLK
  5
432
100
AcDbEntity
  8
0
100
AcDbBlockEnd
  0
BLOCK
  5
433
100
AcDbEntity
  8
0
100
AcDbBlockBegin
  2
MS_24
 70
               0
 10
0.0
 20
0.0
 30
0.0
  3
MS_24
  1

  0
ARC
  5
434
100
AcDbEntity
  8
0
  6
CONTINUOUS
 62
               7
100
AcDbCircle
 10
2.0
 20
8.0767173767089844
 30
0.0
 40
5.7835336505181019
100
AcDbArc
 50
249.76879080816275
 51
290.23120919183606
  0
ARC
  5
435
100
AcDbEntity
  8
0
  6
CONTINUOUS
 62
               7
100
AcDbCircle
 10
-2.0
 20
8.0767173767089844
 30
0.0
 40
5.7835336505181019
100
AcDbArc
 50
249.76879080816275
 51
290.23120919183606
  0
ARC
  5
436
100
AcDbEntity
  8
0
  6
CONTINUOUS
 62
               7
100
AcDbCircle
 10
-0.0000000000000147
 20
10.600000000000001
 30
0.0
 40
4.3002906878489169
100
AcDbArc
 50
330.15596256406695
 51
29.84403743593224
  0
ARC
  5
437
100
AcDbEntity
  8
0
  6
CONTINUOUS
 62
               7
100
AcDbCircle
 10
0.0000000000000147
 20
10.600000000000001
 30
0.0
 40
4.3002906878489169
100
AcDbArc
 50
150.15596256406735
 51
209.84403743593182
  0
ARC
  5
438
100
AcDbEntity
  8
0
  6
CONTINUOUS
 62
               7
100
AcDbCircle
 10
2.0202839461343789
 20
0.5195657601124255
 30
0.0
 40
5.7706484040252235
100
AcDbArc
 50
69.936188681028511
 51
89.506371710706645
  0
ARC
  5
439
100
AcDbEntity
  8
0
  6
CONTINUOUS
 62
               7
100
AcDbCircle
 10
-2.0202842807976431
 20
0.5195676055412815
 30
0.0
 40
5.7706465557816298
100
AcDbArc
 50
90.493625124459328
 51
110.06381448380473
  0
CIRCLE
  5
43A
100
AcDbEntity
  8
0
  6
CONTINUOUS
 62
               7
100
AcDbCircle
 10
0.0
 20
10.600000381469727
 30
0.0
 40
2.0
  0
ARC
  5
43B
100
AcDbEntity
  8
0
  6
CONTINUOUS
 62
               7
100
AcDbCircle
 10
0.0
 20
9.5999999999999996
 30
0.0
 40
3.9000000000000186
100
AcDbArc
 50
179.9999999999996
 51
0.0
  0
ARC
  5
43C
100
AcDbEntity
  8
0
  6
CONTINUOUS
 62
               7
100
AcDbCircle
 10
0.0
 20
11.6
 30
0.0
 40
3.9000000000000186
100
AcDbArc
 50
0.0
 51
179.9999999999996
  0
LINE
  5
43D
100
AcDbEntity
  8
0
  6
CONTINUOUS
 62
               7
100
AcDbLine
 10
-4.0
 20
2.2999999999999998
 30
0.0
 11
4.0
 21
2.2999999999999998
 31
0.0
  0
LINE
  5
43E
100
AcDbEntity
  8
0
  6
CONTINUOUS
 62
               7
100
AcDbLine
 10
2.0699999999999998
 20
6.2999999999999998
 30
0.0
 11
4.0
 21
6.2999999999999998
 31
0.0
  0
LINE
  5
43F
100
AcDbEntity
  8
0
  6
CONTINUOUS
 62
               7
100
AcDbLine
 10
4.0
 20
7.2999999999999998
 30
0.0
 11
3.1499999999999999
 21
7.2999999999999998
 31
0.0
  0
LINE
  5
440
100
AcDbEntity
  8
0
  6
CONTINUOUS
 62
               7
100
AcDbLine
 10
-4.0
 20
7.2999999999999998
 30
0.0
 11
-3.1499999999999999
 21
7.2999999999999998
 31
0.0
  0
LINE
  5
441
100
AcDbEntity
  8
0
  6
CONTINUOUS
 62
               7
100
AcDbLine
 10
4.0
 20
7.2999999999999998
 30
0.0
 11
3.3799999999999999
 21
7.6500000000000004
 31
0.0
  0
LINE
  5
442
100
AcDbEntity
  8
0
  6
CONTINUOUS
 62
               7
100
AcDbLine
 10
0.0
 20
5.7000000000000002
 30
0.0
 11
0.0
 21
2.7999999999999998
 31
0.0
  0
LINE
  5
443
100
AcDbEntity
  8
0
  6
CONTINUOUS
 62
               7
100
AcDbLine
 10
-4.0
 20
0.8
 30
0.0
 11
-4.0
 21
7.2999999999999998
 31
0.0
  0
LINE
  5
444
100
AcDbEntity
  8
0
  6
CONTINUOUS
 62
               7
100
AcDbLine
 10
4.0
 20
0.8
 30
0.0
 11
4.0
 21
7.2999999999999998
 31
0.0
  0
LINE
  5
445
100
AcDbEntity
  8
0
  6
CONTINUOUS
 62
               7
100
AcDbLine
 10
-4.0
 20
6.2999999999999998
 30
0.0
 11
-2.0699999999999998
 21
6.2999999999999998
 31
0.0
  0
LINE
  5
446
100
AcDbEntity
  8
0
  6
CENTER
 62
               2
100
AcDbLine
 10
0.0
 20
-5.3600000000000003
 30
0.0
 11
0.0
 21
17.149999999999999
 31
0.0
  0
LINE
  5
447
100
AcDbEntity
  8
0
  6
CONTINUOUS
 62
               7
100
AcDbLine
 10
-4.0
 20
7.2999999999999998
 30
0.0
 11
-3.3799999999999999
 21
7.6500000000000004
 31
0.0
  0
LINE
  5
448
100
AcDbEntity
  8
0
  6
CENTER
 62
               2
100
AcDbLine
 10
-5.0199999999999996
 20
10.6
 30
0.0
 11
5.1900000000000004
 21
10.6
 31
0.0
  0
LINE
  5
449
100
AcDbEntity
  8
0
  6
CONTINUOUS
 62
               7
100
AcDbLine
 10
-3.8999999999999999
 20
11.6
 30
0.0
 11
-3.8999999999999999
 21
9.5999999999999996
 31
0.0
  0
LINE
  5
44A
100
AcDbEntity
  8
0
  6
CONTINUOUS
 62
               7
100
AcDbLine
 10
3.8999999999999999
 20
11.6
 30
0.0
 11
3.8999999999999999
 21
9.5999999999999996
 31
0.0
  0
LINE
  5
44B
100
AcDbEntity
  8
0
  6
CONTINUOUS
 62
               2
100
AcDbLine
 10
2.4500000000000002
 20
-3.8999999999999999
 30
0.0
 11
2.4500000000000002
 21
0.0
 31
0.0
  0
LINE
  5
44C
100
AcDbEntity
  8
0
  6
CONTINUOUS
 62
               2
100
AcDbLine
 10
-2.4500000000000002
 20
-3.8999999999999999
 30
0.0
 11
-2.4500000000000002
 21
0.0
 31
0.0
  0
LINE
  5
44D
100
AcDbEntity
  8
0
  6
CONTINUOUS
 62
               7
100
AcDbLine
 10
3.0
 20
-3.8999999999999999
 30
0.0
 11
3.0
 21
0.0
 31
0.0
  0
LINE
  5
44E
100
AcDbEntity
  8
0
  6
CONTINUOUS
 62
               7
100
AcDbLine
 10
-3.0
 20
-3.8999999999999999
 30
0.0
 11
-3.0
 21
0.0
 31
0.0
  0
LINE
  5
44F
100
AcDbEntity
  8
0
  6
CONTINUOUS
 62
               7
100
AcDbLine
 10
-3.0
 20
-3.8999999999999999
 30
0.0
 11
3.0
 21
-3.8999999999999999
 31
0.0
  0
LINE
  5
450
100
AcDbEntity
  8
0
  6
CONTINUOUS
 62
               7
100
AcDbLine
 10
-4.5
 20
0.0
 30
0.0
 11
-4.5
 21
0.8
 31
0.0
  0
LINE
  5
451
100
AcDbEntity
  8
0
  6
CONTINUOUS
 62
               7
100
AcDbLine
 10
4.5
 20
0.0
 30
0.0
 11
4.5
 21
0.8
 31
0.0
  0
LINE
  5
452
100
AcDbEntity
  8
0
  6
CONTINUOUS
 62
               7
100
AcDbLine
 10
-4.5
 20
0.8
 30
0.0
 11
4.5
 21
0.8
 31
0.0
  0
LINE
  5
453
100
AcDbEntity
  8
0
  6
CONTINUOUS
 62
               7
100
AcDbLine
 10
-4.5
 20
0.0
 30
0.0
 11
4.5
 21
0.0
 31
0.0
  0
ENDBLK
  5
454
100
AcDbEntity
  8
0
100
AcDbBlockEnd
  0
BLOCK
  5
455
100
AcDbEntity
  8
0
100
AcDbBlockBegin
  2
MS_25
 70
               0
 10
0.0
 20
0.0
 30
0.0
  3
MS_25
  1

  0
ARC
  5
456
100
AcDbEntity
  8
0
  6
CONTINUOUS
 62
               7
100
AcDbCircle
 10
-0.0000227081976498
 20
12.299975086051512
 30
0.0
 40
4.0000249140129469
100
AcDbArc
 50
89.999674731054327
 51
185.73877594953248
  0
ARC
  5
457
100
AcDbEntity
  8
0
  6
CONTINUOUS
 62
               7
100
AcDbCircle
 10
-0.0000000953674297
 20
12.30000009536743
 30
0.0
 40
2.9999999046325714
100
AcDbArc
 50
89.999998178615996
 51
180.00000182138339
  0
ARC
  5
458
100
AcDbEntity
  8
0
  6
CONTINUOUS
 62
               7
100
AcDbCircle
 10
0.0
 20
13.553421020507813
 30
0.0
 40
9.5576588502118884
100
AcDbArc
 50
252.46255520374243
 51
287.53744479625635
  0
ARC
  5
459
100
AcDbEntity
  8
0
  6
CONTINUOUS
 62
               7
100
AcDbCircle
 10
-4.3107480387151904
 20
6.561691106395056
 30
0.0
 40
2.5617634478219951
100
AcDbArc
 50
269.56941125338386
 51
303.68300774747473
  0
ARC
  5
45A
100
AcDbEntity
  8
0
  6
CONTINUOUS
 62
               7
100
AcDbCircle
 10
-4.3242732694255492
 20
5.1423783909709337
 30
0.0
 40
2.5576280203374973
100
AcDbArc
 50
55.890063545927482
 51
90.12828987009982
  0
ARC
  5
45B
100
AcDbEntity
  8
0
  6
CONTINUOUS
 62
               7
100
AcDbCircle
 10
4.3107480387151904
 20
6.561691106395056
 30
0.0
 40
2.5617634478219951
100
AcDbArc
 50
236.31699225252405
 51
270.43058874661494
  0
ARC
  5
45C
100
AcDbEntity
  8
0
  6
CONTINUOUS
 62
               7
100
AcDbCircle
 10
0.0
 20
-1.8534221649169922
 30
0.0
 40
9.5481252145487687
100
AcDbArc
 50
72.444475313364933
 51
107.55552468663467
  0
ARC
  5
45D
100
AcDbEntity
  8
0
  6
CONTINUOUS
 62
               7
100
AcDbCircle
 10
4.3242732694255492
 20
5.1423783909709337
 30
0.0
 40
2.5576280203374973
100
AcDbArc
 50
89.871710129899782
 51
124.10993645407211
  0
LINE
  5
45E
100
AcDbEntity
  8
0
  6
CONTINUOUS
 62
               7
100
AcDbLine
 10
-4.7300000000000004
 20
-4.0
 30
0.0
 11
4.7300000000000004
 21
-4.0
 31
0.0
  0
LINE
  5
45F
100
AcDbEntity
  8
0
  6
CONTINUOUS
 62
               2
100
AcDbLine
 10
4.1500000000000004
 20
-4.0
 30
0.0
 11
4.4000000000000004
 21
4.0
 31
0.0
  0
LINE
  5
460
100
AcDbEntity
  8
0
  6
CONTINUOUS
 62
               7
100
AcDbLine
 10
4.7300000000000004
 20
-4.0
 30
0.0
 11
4.9900000000000002
 21
4.0
 31
0.0
  0
LINE
  5
461
100
AcDbEntity
  8
0
  6
CONTINUOUS
 62
               7
100
AcDbLine
 10
-4.7300000000000004
 20
-4.0
 30
0.0
 11
-4.9900000000000002
 21
4.0
 31
0.0
  0
LINE
  5
462
100
AcDbEntity
  8
0
  6
CONTINUOUS
 62
               2
100
AcDbLine
 10
-4.1500000000000004
 20
-4.0
 30
0.0
 11
-4.4000000000000004
 21
4.0
 31
0.0
  0
LINE
  5
463
100
AcDbEntity
  8
0
  6
CONTINUOUS
 62
               7
100
AcDbLine
 10
5.7000000000000002
 20
7.7000000000000002
 30
0.0
 11
10.4
 21
7.7000000000000002
 31
0.0
  0
LINE
  5
464
100
AcDbEntity
  8
0
  6
CONTINUOUS
 62
               7
100
AcDbLine
 10
5.7000000000000002
 20
7.7000000000000002
 30
0.0
 11
5.1200000000000001
 21
8.6999999999999993
 31
0.0
  0
LINE
  5
465
100
AcDbEntity
  8
0
  6
CONTINUOUS
 62
               7
100
AcDbLine
 10
5.1200000000000001
 20
15.300000000000001
 30
0.0
 11
5.1200000000000001
 21
8.6999999999999993
 31
0.0
  0
LINE
  5
466
100
AcDbEntity
  8
0
  6
CONTINUOUS
 62
               7
100
AcDbLine
 10
5.7000000000000002
 20
16.300000000000001
 30
0.0
 11
5.7000000000000002
 21
7.7000000000000002
 31
0.0
  0
LINE
  5
467
100
AcDbEntity
  8
0
  6
CONTINUOUS
 62
               7
100
AcDbLine
 10
5.7000000000000002
 20
16.300000000000001
 30
0.0
 11
5.1200000000000001
 21
15.300000000000001
 31
0.0
  0
LINE
  5
468
100
AcDbEntity
  8
0
  6
CONTINUOUS
 62
               7
100
AcDbLine
 10
0.0
 20
16.300000000000001
 30
0.0
 11
10.4
 21
16.300000000000001
 31
0.0
  0
LINE
  5
469
100
AcDbEntity
  8
0
  6
CONTINUOUS
 62
               7
100
AcDbLine
 10
10.4
 20
16.300000000000001
 30
0.0
 11
10.4
 21
7.7000000000000002
 31
0.0
  0
LINE
  5
46A
100
AcDbEntity
  8
0
  6
CONTINUOUS
 62
               7
100
AcDbLine
 10
10.4
 20
16.300000000000001
 30
0.0
 11
12.4
 21
16.0
 31
0.0
  0
LINE
  5
46B
100
AcDbEntity
  8
0
  6
CONTINUOUS
 62
               7
100
AcDbLine
 10
10.4
 20
7.7000000000000002
 30
0.0
 11
12.4
 21
8.0
 31
0.0
  0
LINE
  5
46C
100
AcDbEntity
  8
0
  6
CONTINUOUS
 62
               7
100
AcDbLine
 10
12.4
 20
16.0
 30
0.0
 11
12.4
 21
8.0
 31
0.0
  0
LINE
  5
46D
100
AcDbEntity
  8
0
  6
CONTINUOUS
 62
               7
100
AcDbLine
 10
12.4
 20
8.0
 30
0.0
 11
13.199999999999999
 21
8.0
 31
0.0
  0
LINE
  5
46E
100
AcDbEntity
  8
0
  6
CONTINUOUS
 62
               7
100
AcDbLine
 10
12.4
 20
16.0
 30
0.0
 11
13.199999999999999
 21
16.0
 31
0.0
  0
LINE
  5
46F
100
AcDbEntity
  8
0
  6
CONTINUOUS
 62
               7
100
AcDbLine
 10
13.199999999999999
 20
16.0
 30
0.0
 11
13.199999999999999
 21
8.0
 31
0.0
  0
LINE
  5
470
100
AcDbEntity
  8
0
  6
CONTINUOUS
 62
               7
100
AcDbLine
 10
13.199999999999999
 20
14.5
 30
0.0
 11
13.9
 21
14.5
 31
0.0
  0
LINE
  5
471
100
AcDbEntity
  8
0
  6
CONTINUOUS
 62
               7
100
AcDbLine
 10
13.199999999999999
 20
9.5
 30
0.0
 11
13.9
 21
9.5
 31
0.0
  0
LINE
  5
472
100
AcDbEntity
  8
0
  6
CONTINUOUS
 62
               7
100
AcDbLine
 10
13.9
 20
7.0999999999999996
 30
0.0
 11
15.1
 21
7.0999999999999996
 31
0.0
  0
LINE
  5
473
100
AcDbEntity
  8
0
  6
CONTINUOUS
 62
               7
100
AcDbLine
 10
13.9
 20
16.899999999999999
 30
0.0
 11
13.9
 21
7.0999999999999996
 31
0.0
  0
LINE
  5
474
100
AcDbEntity
  8
0
  6
CONTINUOUS
 62
               7
100
AcDbLine
 10
15.1
 20
16.899999999999999
 30
0.0
 11
15.1
 21
7.0999999999999996
 31
0.0
  0
LINE
  5
475
100
AcDbEntity
  8
0
  6
CONTINUOUS
 62
               7
100
AcDbLine
 10
13.9
 20
16.899999999999999
 30
0.0
 11
15.1
 21
16.899999999999999
 31
0.0
  0
LINE
  5
476
100
AcDbEntity
  8
0
  6
CONTINUOUS
 62
               7
100
AcDbLine
 10
-3.0
 20
9.2699999999999996
 30
0.0
 11
3.0
 21
9.2699999999999996
 31
0.0
  0
LINE
  5
477
100
AcDbEntity
  8
0
  6
CONTINUOUS
 62
               7
100
AcDbLine
 10
4.0
 20
8.6999999999999993
 30
0.0
 11
3.0
 21
9.2699999999999996
 31
0.0
  0
LINE
  5
478
100
AcDbEntity
  8
0
  6
CONTINUOUS
 62
               7
100
AcDbLine
 10
-4.0
 20
8.6999999999999993
 30
0.0
 11
-3.0
 21
9.2699999999999996
 31
0.0
  0
LINE
  5
479
100
AcDbEntity
  8
0
  6
CONTINUOUS
 62
               7
100
AcDbLine
 10
0.0
 20
12.0
 30
0.0
 11
3.0
 21
9.2699999999999996
 31
0.0
  0
LINE
  5
47A
100
AcDbEntity
  8
0
  6
CONTINUOUS
 62
               7
100
AcDbLine
 10
-4.0
 20
8.6999999999999993
 30
0.0
 11
5.1200000000000001
 21
8.6999999999999993
 31
0.0
  0
LINE
  5
47B
100
AcDbEntity
  8
0
  6
CONTINUOUS
 62
               7
100
AcDbLine
 10
0.0
 20
15.300000000000001
 30
0.0
 11
5.1200000000000001
 21
15.300000000000001
 31
0.0
  0
LINE
  5
47C
100
AcDbEntity
  8
0
  6
CONTINUOUS
 62
               7
100
AcDbLine
 10
-3.0
 20
9.2699999999999996
 30
0.0
 11
-3.0
 21
12.300000000000001
 31
0.0
  0
LINE
  5
47D
100
AcDbEntity
  8
0
  6
CONTINUOUS
 62
               7
100
AcDbLine
 10
4.0
 20
7.7000000000000002
 30
0.0
 11
4.0
 21
8.6999999999999993
 31
0.0
  0
LINE
  5
47E
100
AcDbEntity
  8
0
  6
CONTINUOUS
 62
               7
100
AcDbLine
 10
-4.0
 20
7.7000000000000002
 30
0.0
 11
-4.0
 21
12.300000000000001
 31
0.0
  0
LINE
  5
47F
100
AcDbEntity
  8
0
  6
CENTER
 62
               2
100
AcDbLine
 10
-5.5999999999999996
 20
12.0
 30
0.0
 11
16.399999999999999
 21
12.0
 31
0.0
  0
LINE
  5
480
100
AcDbEntity
  8
0
  6
CENTER
 62
               2
100
AcDbLine
 10
0.0
 20
-6.4100000000000001
 30
0.0
 11
0.0
 21
18.579999999999998
 31
0.0
  0
LINE
  5
481
100
AcDbEntity
  8
0
  6
CONTINUOUS
 62
               7
100
AcDbLine
 10
-5.7699999999999996
 20
4.4400000000000004
 30
0.0
 11
-5.7699999999999996
 21
7.25
 31
0.0
  0
LINE
  5
482
100
AcDbEntity
  8
0
  6
CONTINUOUS
 62
               7
100
AcDbLine
 10
-5.7699999999999996
 20
4.4400000000000004
 30
0.0
 11
-5.0
 21
4.0
 31
0.0
  0
LINE
  5
483
100
AcDbEntity
  8
0
  6
CONTINUOUS
 62
               7
100
AcDbLine
 10
-5.7699999999999996
 20
7.25
 30
0.0
 11
-5.0
 21
7.7000000000000002
 31
0.0
  0
LINE
  5
484
100
AcDbEntity
  8
0
  6
CONTINUOUS
 62
               7
100
AcDbLine
 10
5.7699999999999996
 20
4.4400000000000004
 30
0.0
 11
5.0
 21
4.0
 31
0.0
  0
LINE
  5
485
100
AcDbEntity
  8
0
  6
CONTINUOUS
 62
               7
100
AcDbLine
 10
-2.8799999999999999
 20
4.4400000000000004
 30
0.0
 11
-2.8799999999999999
 21
7.25
 31
0.0
  0
LINE
  5
486
100
AcDbEntity
  8
0
  6
CONTINUOUS
 62
               7
100
AcDbLine
 10
5.7699999999999996
 20
7.25
 30
0.0
 11
5.0
 21
7.7000000000000002
 31
0.0
  0
LINE
  5
487
100
AcDbEntity
  8
0
  6
CONTINUOUS
 62
               7
100
AcDbLine
 10
2.8799999999999999
 20
4.4400000000000004
 30
0.0
 11
2.8799999999999999
 21
7.25
 31
0.0
  0
LINE
  5
488
100
AcDbEntity
  8
0
  6
CONTINUOUS
 62
               7
100
AcDbLine
 10
5.7699999999999996
 20
4.4400000000000004
 30
0.0
 11
5.7699999999999996
 21
7.25
 31
0.0
  0
LINE
  5
489
100
AcDbEntity
  8
0
  6
CONTINUOUS
 62
               7
100
AcDbLine
 10
-5.0
 20
7.7000000000000002
 30
0.0
 11
5.0
 21
7.7000000000000002
 31
0.0
  0
LINE
  5
48A
100
AcDbEntity
  8
0
  6
CONTINUOUS
 62
               7
100
AcDbLine
 10
-5.0
 20
4.0
 30
0.0
 11
5.0
 21
4.0
 31
0.0
  0
ENDBLK
  5
48B
100
AcDbEntity
  8
0
100
AcDbBlockEnd
  0
BLOCK
  5
48C
100
AcDbEntity
  8
0
100
AcDbBlockBegin
  2
MS_26
 70
               0
 10
0.0
 20
0.0
 30
0.0
  3
MS_26
  1

  0
ARC
  5
48D
100
AcDbEntity
  8
0
  6
CONTINUOUS
 62
               7
100
AcDbCircle
 10
-0.0000000000000004
 20
0.0
 30
0.0
 40
4.9960784621540926
100
AcDbArc
 50
40.128608968475824
 51
319.87139103152333
  0
ARC
  5
48E
100
AcDbEntity
  8
0
  6
CONTINUOUS
 62
               7
100
AcDbCircle
 10
0.0046887805741826
 20
-0.0039672389224641
 30
0.0
 40
2.996036430037718
100
AcDbArc
 50
189.52994147925332
 51
269.91033238283279
  0
ARC
  5
48F
100
AcDbEntity
  8
0
  6
CONTINUOUS
 62
               7
100
AcDbCircle
 10
0.0046887805741826
 20
0.0039672389224641
 30
0.0
 40
2.996036430037718
100
AcDbArc
 50
90.089667617166441
 51
170.47005852074585
  0
ARC
  5
490
100
AcDbEntity
  8
0
  6
CONTINUOUS
 62
               7
100
AcDbCircle
 10
0.0
 20
0.0
 30
0.0
 40
3.9950594488693159
100
AcDbArc
 50
51.810553098572974
 51
308.18944690142621
  0
LINE
  5
491
100
AcDbEntity
  8
0
  6
CONTINUOUS
 62
               7
100
AcDbLine
 10
3.8999999999999999
 20
3.2200000000000002
 30
0.0
 11
2.8799999999999999
 21
5.0
 31
0.0
  0
LINE
  5
492
100
AcDbEntity
  8
0
  6
CONTINUOUS
 62
               7
100
AcDbLine
 10
2.8799999999999999
 20
5.0
 30
0.0
 11
-2.8799999999999999
 21
5.0
 31
0.0
  0
LINE
  5
493
100
AcDbEntity
  8
0
  6
CONTINUOUS
 62
               7
100
AcDbLine
 10
-2.8799999999999999
 20
5.0
 30
0.0
 11
-5.7699999999999996
 21
0.0
 31
0.0
  0
LINE
  5
494
100
AcDbEntity
  8
0
  6
CONTINUOUS
 62
               7
100
AcDbLine
 10
-5.7699999999999996
 20
0.0
 30
0.0
 11
-2.8799999999999999
 21
-5.0
 31
0.0
  0
LINE
  5
495
100
AcDbEntity
  8
0
  6
CONTINUOUS
 62
               7
100
AcDbLine
 10
-2.8799999999999999
 20
-5.0
 30
0.0
 11
2.8799999999999999
 21
-5.0
 31
0.0
  0
LINE
  5
496
100
AcDbEntity
  8
0
  6
CONTINUOUS
 62
               7
100
AcDbLine
 10
2.8799999999999999
 20
-5.0
 30
0.0
 11
3.8999999999999999
 21
-3.2200000000000002
 31
0.0
  0
LINE
  5
497
100
AcDbEntity
  8
0
  6
CONTINUOUS
 62
               7
100
AcDbLine
 10
5.7000000000000002
 20
-4.2999999999999998
 30
0.0
 11
5.7000000000000002
 21
-0.5
 31
0.0
  0
LINE
  5
498
100
AcDbEntity
  8
0
  6
CONTINUOUS
 62
               7
100
AcDbLine
 10
5.1200000000000001
 20
-3.2999999999999998
 30
0.0
 11
5.1200000000000001
 21
-0.5
 31
0.0
  0
LINE
  5
499
100
AcDbEntity
  8
0
  6
CONTINUOUS
 62
               7
100
AcDbLine
 10
-3.96
 20
-0.5
 30
0.0
 11
5.7000000000000002
 21
-0.5
 31
0.0
  0
LINE
  5
49A
100
AcDbEntity
  8
0
  6
CONTINUOUS
 62
               7
100
AcDbLine
 10
-3.96
 20
0.5
 30
0.0
 11
5.7000000000000002
 21
0.5
 31
0.0
  0
LINE
  5
49B
100
AcDbEntity
  8
0
  6
CONTINUOUS
 62
               7
100
AcDbLine
 10
5.1200000000000001
 20
-3.2999999999999998
 30
0.0
 11
0.0
 21
-3.0
 31
0.0
  0
LINE
  5
49C
100
AcDbEntity
  8
0
  6
CONTINUOUS
 62
               7
100
AcDbLine
 10
5.1200000000000001
 20
3.2999999999999998
 30
0.0
 11
0.0
 21
3.0
 31
0.0
  0
LINE
  5
49D
100
AcDbEntity
  8
0
  6
CENTER
 62
               2
100
AcDbLine
 10
0.0
 20
6.2699999999999996
 30
0.0
 11
0.0
 21
-6.0899999999999999
 31
0.0
  0
LINE
  5
49E
100
AcDbEntity
  8
0
  6
CENTER
 62
               2
100
AcDbLine
 10
-6.9000000000000004
 20
0.0
 30
0.0
 11
16.399999999999999
 21
0.0
 31
0.0
  0
LINE
  5
49F
100
AcDbEntity
  8
0
  6
CONTINUOUS
 62
               7
100
AcDbLine
 10
5.1200000000000001
 20
3.2999999999999998
 30
0.0
 11
5.1200000000000001
 21
0.5
 31
0.0
  0
LINE
  5
4A0
100
AcDbEntity
  8
0
  6
CONTINUOUS
 62
               7
100
AcDbLine
 10
5.7000000000000002
 20
4.2999999999999998
 30
0.0
 11
5.1200000000000001
 21
3.2999999999999998
 31
0.0
  0
LINE
  5
4A1
100
AcDbEntity
  8
0
  6
CONTINUOUS
 62
               7
100
AcDbLine
 10
5.7000000000000002
 20
-4.2999999999999998
 30
0.0
 11
5.1200000000000001
 21
-3.2999999999999998
 31
0.0
  0
LINE
  5
4A2
100
AcDbEntity
  8
0
  6
CONTINUOUS
 62
               7
100
AcDbLine
 10
10.4
 20
-4.2999999999999998
 30
0.0
 11
12.4
 21
-4.0
 31
0.0
  0
LINE
  5
4A3
100
AcDbEntity
  8
0
  6
CONTINUOUS
 62
               7
100
AcDbLine
 10
10.4
 20
4.2999999999999998
 30
0.0
 11
12.4
 21
4.0
 31
0.0
  0
LINE
  5
4A4
100
AcDbEntity
  8
0
  6
CONTINUOUS
 62
               7
100
AcDbLine
 10
10.4
 20
4.2999999999999998
 30
0.0
 11
10.4
 21
-4.2999999999999998
 31
0.0
  0
LINE
  5
4A5
100
AcDbEntity
  8
0
  6
CONTINUOUS
 62
               7
100
AcDbLine
 10
5.7000000000000002
 20
4.2999999999999998
 30
0.0
 11
5.7000000000000002
 21
0.5
 31
0.0
  0
LINE
  5
4A6
100
AcDbEntity
  8
0
  6
CONTINUOUS
 62
               7
100
AcDbLine
 10
12.4
 20
4.0
 30
0.0
 11
12.4
 21
-4.0
 31
0.0
  0
LINE
  5
4A7
100
AcDbEntity
  8
0
  6
CONTINUOUS
 62
               7
100
AcDbLine
 10
5.7000000000000002
 20
-4.2999999999999998
 30
0.0
 11
10.4
 21
-4.2999999999999998
 31
0.0
  0
LINE
  5
4A8
100
AcDbEntity
  8
0
  6
CONTINUOUS
 62
               7
100
AcDbLine
 10
5.7000000000000002
 20
4.2999999999999998
 30
0.0
 11
10.4
 21
4.2999999999999998
 31
0.0
  0
LINE
  5
4A9
100
AcDbEntity
  8
0
  6
CONTINUOUS
 62
               7
100
AcDbLine
 10
13.199999999999999
 20
2.5
 30
0.0
 11
13.9
 21
2.5
 31
0.0
  0
LINE
  5
4AA
100
AcDbEntity
  8
0
  6
CONTINUOUS
 62
               7
100
AcDbLine
 10
13.199999999999999
 20
-2.5
 30
0.0
 11
13.9
 21
-2.5
 31
0.0
  0
LINE
  5
4AB
100
AcDbEntity
  8
0
  6
CONTINUOUS
 62
               7
100
AcDbLine
 10
12.4
 20
4.0
 30
0.0
 11
13.199999999999999
 21
4.0
 31
0.0
  0
LINE
  5
4AC
100
AcDbEntity
  8
0
  6
CONTINUOUS
 62
               7
100
AcDbLine
 10
12.4
 20
-4.0
 30
0.0
 11
13.199999999999999
 21
-4.0
 31
0.0
  0
LINE
  5
4AD
100
AcDbEntity
  8
0
  6
CONTINUOUS
 62
               7
100
AcDbLine
 10
13.9
 20
4.9000000000000004
 30
0.0
 11
13.9
 21
-4.9000000000000004
 31
0.0
  0
LINE
  5
4AE
100
AcDbEntity
  8
0
  6
CONTINUOUS
 62
               7
100
AcDbLine
 10
13.199999999999999
 20
4.0
 30
0.0
 11
13.199999999999999
 21
-4.0
 31
0.0
  0
LINE
  5
4AF
100
AcDbEntity
  8
0
  6
CONTINUOUS
 62
               7
100
AcDbLine
 10
13.9
 20
-4.9000000000000004
 30
0.0
 11
15.1
 21
-4.9000000000000004
 31
0.0
  0
LINE
  5
4B0
100
AcDbEntity
  8
0
  6
CONTINUOUS
 62
               7
100
AcDbLine
 10
13.9
 20
4.9000000000000004
 30
0.0
 11
15.1
 21
4.9000000000000004
 31
0.0
  0
LINE
  5
4B1
100
AcDbEntity
  8
0
  6
CONTINUOUS
 62
               7
100
AcDbLine
 10
15.1
 20
4.9000000000000004
 30
0.0
 11
15.1
 21
-4.9000000000000004
 31
0.0
  0
ENDBLK
  5
4B2
100
AcDbEntity
  8
0
100
AcDbBlockEnd
  0
BLOCK
  5
4B3
100
AcDbEntity
  8
0
100
AcDbBlockBegin
  2
MS_27
 70
               0
 10
0.0
 20
0.0
 30
0.0
  3
MS_27
  1

  0
ARC
  5
4B4
100
AcDbEntity
  8
0
  6
CONTINUOUS
 62
               7
100
AcDbCircle
 10
2.5
 20
0.4790878295896075
 30
0.0
 40
7.2177040407190134
100
AcDbArc
 50
69.73451929919591
 51
110.26548070080369
  0
ARC
  5
4B5
100
AcDbEntity
  8
0
  6
CONTINUOUS
 62
               7
100
AcDbCircle
 10
-2.5
 20
0.4790878295898446
 30
0.0
 40
7.2177040407187913
100
AcDbArc
 50
69.73451929919527
 51
110.26548070080435
  0
ARC
  5
4B6
100
AcDbEntity
  8
0
  6
CONTINUOUS
 62
               7
100
AcDbCircle
 10
-2.5
 20
11.220912933349846
 30
0.0
 40
7.2270865644235371
100
AcDbArc
 50
249.76198138146501
 51
290.23801861853377
  0
ARC
  5
4B7
100
AcDbEntity
  8
0
  6
CONTINUOUS
 62
               7
100
AcDbCircle
 10
2.5
 20
11.220911026001213
 30
0.0
 40
7.2270847748275937
100
AcDbArc
 50
249.76197615068665
 51
290.23802384931213
  0
ARC
  5
4B8
100
AcDbEntity
  8
0
  6
CONTINUOUS
 62
               7
100
AcDbCircle
 10
-0.0039673328244667
 20
12.295311299003785
 30
0.0
 40
2.9960363360112927
100
AcDbArc
 50
99.52993996022785
 51
179.91033390185865
  0
ARC
  5
4B9
100
AcDbEntity
  8
0
  6
CONTINUOUS
 62
               7
100
AcDbCircle
 10
-0.0012054019423418
 20
11.997761531218934
 30
0.0
 40
3.3001508871938774
100
AcDbArc
 50
98.693168994229922
 51
204.67586906087999
  0
ARC
  5
4BA
100
AcDbEntity
  8
0
  6
CONTINUOUS
 62
               7
100
AcDbCircle
 10
0.0039673328244667
 20
12.295311299003785
 30
0.0
 40
2.9960363360112927
100
AcDbArc
 50
0.0896660981409607
 51
80.470060039771752
  0
ARC
  5
4BB
100
AcDbEntity
  8
0
  6
CONTINUOUS
 62
               7
100
AcDbCircle
 10
0.0
 20
12.0
 30
0.0
 40
4.3001046498893487
100
AcDbArc
 50
318.48817804978364
 51
221.51182195021516
  0
ARC
  5
4BC
100
AcDbEntity
  8
0
  6
CONTINUOUS
 62
               7
100
AcDbCircle
 10
0.0012054019423418
 20
11.997761531218934
 30
0.0
 40
3.3001508871938774
100
AcDbArc
 50
335.32413093911885
 51
81.306831005769695
  0
LINE
  5
4BD
100
AcDbEntity
  8
0
  6
CONTINUOUS
 62
               7
100
AcDbLine
 10
5.0
 20
4.0
 30
0.0
 11
5.0
 21
7.7000000000000002
 31
0.0
  0
LINE
  5
4BE
100
AcDbEntity
  8
0
  6
CONTINUOUS
 62
               7
100
AcDbLine
 10
-4.0
 20
7.7000000000000002
 30
0.0
 11
-4.0
 21
8.6999999999999993
 31
0.0
  0
LINE
  5
4BF
100
AcDbEntity
  8
0
  6
CONTINUOUS
 62
               7
100
AcDbLine
 10
-5.0
 20
7.7000000000000002
 30
0.0
 11
5.0
 21
7.7000000000000002
 31
0.0
  0
LINE
  5
4C0
100
AcDbEntity
  8
0
  6
CONTINUOUS
 62
               7
100
AcDbLine
 10
-5.0
 20
4.0
 30
0.0
 11
-5.0
 21
7.7000000000000002
 31
0.0
  0
LINE
  5
4C1
100
AcDbEntity
  8
0
  6
CONTINUOUS
 62
               7
100
AcDbLine
 10
0.0
 20
4.4400000000000004
 30
0.0
 11
0.0
 21
7.25
 31
0.0
  0
LINE
  5
4C2
100
AcDbEntity
  8
0
  6
CONTINUOUS
 62
               7
100
AcDbLine
 10
-5.0
 20
4.0
 30
0.0
 11
5.0
 21
4.0
 31
0.0
  0
LINE
  5
4C3
100
AcDbEntity
  8
0
  6
CONTINUOUS
 62
               7
100
AcDbLine
 10
4.7300000000000004
 20
-4.0
 30
0.0
 11
4.9900000000000002
 21
4.0
 31
0.0
  0
LINE
  5
4C4
100
AcDbEntity
  8
0
  6
CONTINUOUS
 62
               2
100
AcDbLine
 10
4.1500000000000004
 20
-4.0
 30
0.0
 11
4.4000000000000004
 21
4.0
 31
0.0
  0
LINE
  5
4C5
100
AcDbEntity
  8
0
  6
CONTINUOUS
 62
               7
100
AcDbLine
 10
-4.7300000000000004
 20
-4.0
 30
0.0
 11
-4.9900000000000002
 21
4.0
 31
0.0
  0
LINE
  5
4C6
100
AcDbEntity
  8
0
  6
CONTINUOUS
 62
               2
100
AcDbLine
 10
-4.1500000000000004
 20
-4.0
 30
0.0
 11
-4.4000000000000004
 21
4.0
 31
0.0
  0
LINE
  5
4C7
100
AcDbEntity
  8
0
  6
CONTINUOUS
 62
               7
100
AcDbLine
 10
-4.7300000000000004
 20
-4.0
 30
0.0
 11
4.7300000000000004
 21
-4.0
 31
0.0
  0
LINE
  5
4C8
100
AcDbEntity
  8
0
  6
CONTINUOUS
 62
               7
100
AcDbLine
 10
4.0
 20
7.7000000000000002
 30
0.0
 11
4.0
 21
8.6999999999999993
 31
0.0
  0
LINE
  5
4C9
100
AcDbEntity
  8
0
  6
CONTINUOUS
 62
               7
100
AcDbLine
 10
-3.0
 20
9.2699999999999996
 30
0.0
 11
-3.0
 21
12.300000000000001
 31
0.0
  0
LINE
  5
4CA
100
AcDbEntity
  8
0
  6
CONTINUOUS
 62
               7
100
AcDbLine
 10
-3.0
 20
9.2699999999999996
 30
0.0
 11
-0.5
 21
9.2699999999999996
 31
0.0
  0
LINE
  5
4CB
100
AcDbEntity
  8
0
  6
CONTINUOUS
 62
               7
100
AcDbLine
 10
-4.0
 20
8.6999999999999993
 30
0.0
 11
-3.0
 21
9.2699999999999996
 31
0.0
  0
LINE
  5
4CC
100
AcDbEntity
  8
0
  6
CONTINUOUS
 62
               7
100
AcDbLine
 10
0.5
 20
8.6999999999999993
 30
0.0
 11
4.0
 21
8.6999999999999993
 31
0.0
  0
LINE
  5
4CD
100
AcDbEntity
  8
0
  6
CONTINUOUS
 62
               7
100
AcDbLine
 10
0.5
 20
9.2699999999999996
 30
0.0
 11
3.0
 21
9.2699999999999996
 31
0.0
  0
LINE
  5
4CE
100
AcDbEntity
  8
0
  6
CONTINUOUS
 62
               7
100
AcDbLine
 10
-0.5
 20
8.6999999999999993
 30
0.0
 11
-0.5
 21
16.27
 31
0.0
  0
LINE
  5
4CF
100
AcDbEntity
  8
0
  6
CONTINUOUS
 62
               7
100
AcDbLine
 10
0.5
 20
8.6999999999999993
 30
0.0
 11
0.5
 21
16.27
 31
0.0
  0
LINE
  5
4D0
100
AcDbEntity
  8
0
  6
CONTINUOUS
 62
               7
100
AcDbLine
 10
3.0
 20
9.2699999999999996
 30
0.0
 11
3.0
 21
12.300000000000001
 31
0.0
  0
LINE
  5
4D1
100
AcDbEntity
  8
0
  6
CENTER
 62
               2
100
AcDbLine
 10
-6.4500000000000002
 20
12.0
 30
0.0
 11
6.3300000000000001
 21
12.0
 31
0.0
  0
LINE
  5
4D2
100
AcDbEntity
  8
0
  6
CONTINUOUS
 62
               7
100
AcDbLine
 10
-4.0
 20
8.6999999999999993
 30
0.0
 11
-0.5
 21
8.6999999999999993
 31
0.0
  0
LINE
  5
4D3
100
AcDbEntity
  8
0
  6
CENTER
 62
               2
100
AcDbLine
 10
0.0
 20
-6.3499999999999996
 30
0.0
 11
0.0
 21
18.579999999999998
 31
0.0
  0
LINE
  5
4D4
100
AcDbEntity
  8
0
  6
CONTINUOUS
 62
               7
100
AcDbLine
 10
4.0
 20
8.6999999999999993
 30
0.0
 11
3.0
 21
9.2699999999999996
 31
0.0
  0
ENDBLK
  5
4D5
100
AcDbEntity
  8
0
100
AcDbBlockEnd
  0
BLOCK
  5
4D6
100
AcDbEntity
  8
0
100
AcDbBlockBegin
  2
MS_28
 70
               0
 10
0.0
 20
0.0
 30
0.0
  3
MS_28
  1

  0
ARC
  5
4D7
100
AcDbEntity
  8
0
  6
CONTINUOUS
 62
               7
100
AcDbCircle
 10
2.5
 20
11.220911026000977
 30
0.0
 40
7.2270847748273725
100
AcDbArc
 50
249.761976150686
 51
290.23802384931281
  0
ARC
  5
4D8
100
AcDbEntity
  8
0
  6
CONTINUOUS
 62
               7
100
AcDbCircle
 10
-2.5065743721802365
 20
0.4781265068178975
 30
0.0
 40
7.2163316144098282
100
AcDbArc
 50
86.372496360965386
 51
110.21386939927058
  0
ARC
  5
4D9
100
AcDbEntity
  8
0
  6
CONTINUOUS
 62
               7
100
AcDbCircle
 10
2.5065743721802365
 20
0.4781265068178975
 30
0.0
 40
7.2163316144098282
100
AcDbArc
 50
69.786130600729024
 51
93.627503639034231
  0
ARC
  5
4DA
100
AcDbEntity
  8
0
  6
CONTINUOUS
 62
               7
100
AcDbCircle
 10
-2.5
 20
11.220912933349609
 30
0.0
 40
7.2270865644233151
100
AcDbArc
 50
249.76198138146435
 51
290.2380186185344
  0
ARC
  5
4DB
100
AcDbEntity
  8
0
  6
CONTINUOUS
 62
               7
100
AcDbCircle
 10
0.0
 20
12.0
 30
0.0
 40
4.3002906878489044
100
AcDbArc
 50
330.15596256406684
 51
29.844037435932339
  0
ARC
  5
4DC
100
AcDbEntity
  8
0
  6
CONTINUOUS
 62
               7
100
AcDbCircle
 10
0.0
 20
12.0
 30
0.0
 40
4.3002906878489044
100
AcDbArc
 50
150.15596256406727
 51
209.84403743593194
  0
CIRCLE
  5
4DD
100
AcDbEntity
  8
0
  6
CONTINUOUS
 62
               7
100
AcDbCircle
 10
0.0
 20
12.0
 30
0.0
 40
2.0
  0
ARC
  5
4DE
100
AcDbEntity
  8
0
  6
CONTINUOUS
 62
               7
100
AcDbCircle
 10
0.0
 20
11.0
 30
0.0
 40
3.8999999999999999
100
AcDbArc
 50
179.9999999999996
 51
0.0
  0
ARC
  5
4DF
100
AcDbEntity
  8
0
  6
CONTINUOUS
 62
               7
100
AcDbCircle
 10
0.0
 20
13.0
 30
0.0
 40
3.8999999999999999
100
AcDbArc
 50
0.0
 51
179.9999999999996
  0
LINE
  5
4E0
100
AcDbEntity
  8
0
  6
CONTINUOUS
 62
               7
100
AcDbLine
 10
2.0699999999999998
 20
7.7000000000000002
 30
0.0
 11
5.0
 21
7.7000000000000002
 31
0.0
  0
LINE
  5
4E1
100
AcDbEntity
  8
0
  6
CONTINUOUS
 62
               7
100
AcDbLine
 10
4.0
 20
7.7000000000000002
 30
0.0
 11
4.0
 21
8.6999999999999993
 31
0.0
  0
LINE
  5
4E2
100
AcDbEntity
  8
0
  6
CONTINUOUS
 62
               7
100
AcDbLine
 10
-5.0
 20
4.0
 30
0.0
 11
-5.0
 21
7.7000000000000002
 31
0.0
  0
LINE
  5
4E3
100
AcDbEntity
  8
0
  6
CONTINUOUS
 62
               7
100
AcDbLine
 10
0.0
 20
4.4400000000000004
 30
0.0
 11
0.0
 21
7.0999999999999996
 31
0.0
  0
LINE
  5
4E4
100
AcDbEntity
  8
0
  6
CONTINUOUS
 62
               7
100
AcDbLine
 10
5.0
 20
4.0
 30
0.0
 11
5.0
 21
7.7000000000000002
 31
0.0
  0
LINE
  5
4E5
100
AcDbEntity
  8
0
  6
CONTINUOUS
 62
               7
100
AcDbLine
 10
-5.0
 20
7.7000000000000002
 30
0.0
 11
-2.0699999999999998
 21
7.7000000000000002
 31
0.0
  0
LINE
  5
4E6
100
AcDbEntity
  8
0
  6
CONTINUOUS
 62
               7
100
AcDbLine
 10
-5.0
 20
4.0
 30
0.0
 11
5.0
 21
4.0
 31
0.0
  0
LINE
  5
4E7
100
AcDbEntity
  8
0
  6
CONTINUOUS
 62
               7
100
AcDbLine
 10
-4.0
 20
7.7000000000000002
 30
0.0
 11
-4.0
 21
8.6999999999999993
 31
0.0
  0
LINE
  5
4E8
100
AcDbEntity
  8
0
  6
CONTINUOUS
 62
               7
100
AcDbLine
 10
4.0
 20
8.6999999999999993
 30
0.0
 11
3.1499999999999999
 21
8.6999999999999993
 31
0.0
  0
LINE
  5
4E9
100
AcDbEntity
  8
0
  6
CONTINUOUS
 62
               7
100
AcDbLine
 10
-4.0
 20
8.6999999999999993
 30
0.0
 11
-3.1499999999999999
 21
8.6999999999999993
 31
0.0
  0
LINE
  5
4EA
100
AcDbEntity
  8
0
  6
CONTINUOUS
 62
               7
100
AcDbLine
 10
4.0
 20
8.6999999999999993
 30
0.0
 11
3.3799999999999999
 21
9.0500000000000007
 31
0.0
  0
LINE
  5
4EB
100
AcDbEntity
  8
0
  6
CENTER
 62
               2
100
AcDbLine
 10
0.0
 20
-6.4800000000000004
 30
0.0
 11
0.0
 21
18.550000000000001
 31
0.0
  0
LINE
  5
4EC
100
AcDbEntity
  8
0
  6
CONTINUOUS
 62
               7
100
AcDbLine
 10
-4.0
 20
8.6999999999999993
 30
0.0
 11
-3.3799999999999999
 21
9.0500000000000007
 31
0.0
  0
LINE
  5
4ED
100
AcDbEntity
  8
0
  6
CENTER
 62
               2
100
AcDbLine
 10
-5.0199999999999996
 20
12.0
 30
0.0
 11
5.1900000000000004
 21
12.0
 31
0.0
  0
LINE
  5
4EE
100
AcDbEntity
  8
0
  6
CONTINUOUS
 62
               7
100
AcDbLine
 10
-3.8999999999999999
 20
13.0
 30
0.0
 11
-3.8999999999999999
 21
11.0
 31
0.0
  0
LINE
  5
4EF
100
AcDbEntity
  8
0
  6
CONTINUOUS
 62
               7
100
AcDbLine
 10
3.8999999999999999
 20
13.0
 30
0.0
 11
3.8999999999999999
 21
11.0
 31
0.0
  0
LINE
  5
4F0
100
AcDbEntity
  8
0
  6
CONTINUOUS
 62
               2
100
AcDbLine
 10
-4.1500000000000004
 20
-4.0
 30
0.0
 11
-4.4000000000000004
 21
4.0
 31
0.0
  0
LINE
  5
4F1
100
AcDbEntity
  8
0
  6
CONTINUOUS
 62
               7
100
AcDbLine
 10
-4.7300000000000004
 20
-4.0
 30
0.0
 11
-4.9900000000000002
 21
4.0
 31
0.0
  0
LINE
  5
4F2
100
AcDbEntity
  8
0
  6
CONTINUOUS
 62
               2
100
AcDbLine
 10
4.1500000000000004
 20
-4.0
 30
0.0
 11
4.4000000000000004
 21
4.0
 31
0.0
  0
LINE
  5
4F3
100
AcDbEntity
  8
0
  6
CONTINUOUS
 62
               7
100
AcDbLine
 10
4.7300000000000004
 20
-4.0
 30
0.0
 11
4.9900000000000002
 21
4.0
 31
0.0
  0
LINE
  5
4F4
100
AcDbEntity
  8
0
  6
CONTINUOUS
 62
               7
100
AcDbLine
 10
-4.7300000000000004
 20
-4.0
 30
0.0
 11
4.7300000000000004
 21
-4.0
 31
0.0
  0
ENDBLK
  5
4F5
100
AcDbEntity
  8
0
100
AcDbBlockEnd
  0
BLOCK
  5
4F6
100
AcDbEntity
  8
0
100
AcDbBlockBegin
  2
MS_29
 70
               0
 10
0.0
 20
0.0
 30
0.0
  3
MS_29
  1

  0
ARC
  5
4F7
100
AcDbEntity
  8
0
  6
CONTINUOUS
 62
               7
100
AcDbCircle
 10
10.618090041371561
 20
11.32
 30
0.0
 40
11.237714897908468
100
AcDbArc
 50
160.88479169776119
 51
199.11520830223802
  0
ARC
  5
4F8
100
AcDbEntity
  8
0
  6
CONTINUOUS
 62
               7
100
AcDbCircle
 10
-0.0012456366542497
 20
11.984779821183233
 30
0.0
 40
3.9987572200706589
100
AcDbArc
 50
94.71584565333329
 51
180.06848719008661
  0
ARC
  5
4F9
100
AcDbEntity
  8
0
  6
CONTINUOUS
 62
               7
100
AcDbCircle
 10
-0.0025383236829433
 20
11.984491512927907
 30
0.0
 40
2.9974650414438266
100
AcDbArc
 50
95.119270249190208
 51
180.08585415580882
  0
ARC
  5
4FA
100
AcDbEntity
  8
0
  6
CONTINUOUS
 62
               7
100
AcDbCircle
 10
0.0
 20
9.9427337646484357
 30
0.0
 40
7.6468271696203098
100
AcDbArc
 50
252.49564184491589
 51
287.50435815508291
  0
ARC
  5
4FB
100
AcDbEntity
  8
0
  6
CONTINUOUS
 62
               7
100
AcDbCircle
 10
-3.445812689689125
 20
4.3502649143982435
 30
0.0
 40
2.0503140000951792
100
AcDbArc
 50
269.60353414629969
 51
303.97612659606847
  0
ARC
  5
4FC
100
AcDbEntity
  8
0
  6
CONTINUOUS
 62
               7
100
AcDbCircle
 10
-3.4591649474482513
 20
3.6538018360000795
 30
0.0
 40
2.0461983343921988
100
AcDbArc
 50
55.493698821531133
 51
90.023382380588586
  0
ARC
  5
4FD
100
AcDbEntity
  8
0
  6
CONTINUOUS
 62
               7
100
AcDbCircle
 10
3.4458127716126929
 20
4.3502651859163537
 30
0.0
 40
2.0503142710399143
100
AcDbArc
 50
236.02387574572205
 51
270.39646351190731
  0
ARC
  5
4FE
100
AcDbEntity
  8
0
  6
CONTINUOUS
 62
               7
100
AcDbCircle
 10
3.4591650318821374
 20
3.6538015639353363
 30
0.0
 40
2.0461986064224638
100
AcDbArc
 50
89.976619986760127
 51
124.50629881111939
  0
ARC
  5
4FF
100
AcDbEntity
  8
0
  6
CONTINUOUS
 62
               7
100
AcDbCircle
 10
0.0
 20
-1.9427347183227539
 30
0.0
 40
7.6372917305458223
100
AcDbArc
 50
72.473079283293458
 51
107.52692071670616
  0
LINE
  5
500
100
AcDbEntity
  8
0
  6
CONTINUOUS
 62
               7
100
AcDbLine
 10
-4.0
 20
6.5
 30
0.0
 11
-3.0
 21
7.0700000000000003
 31
0.0
  0
LINE
  5
501
100
AcDbEntity
  8
0
  6
CONTINUOUS
 62
               7
100
AcDbLine
 10
0.0
 20
15.0
 30
0.0
 11
0.0
 21
7.6399999999999997
 31
0.0
  0
LINE
  5
502
100
AcDbEntity
  8
0
  6
CONTINUOUS
 62
               7
100
AcDbLine
 10
0.0
 20
7.6399999999999997
 30
0.0
 11
3.0
 21
7.0700000000000003
 31
0.0
  0
LINE
  5
503
100
AcDbEntity
  8
0
  6
CONTINUOUS
 62
               7
100
AcDbLine
 10
3.73
 20
6.6500000000000004
 30
0.0
 11
5.4199999999999999
 21
6.5
 31
0.0
  0
LINE
  5
504
100
AcDbEntity
  8
0
  6
CONTINUOUS
 62
               7
100
AcDbLine
 10
-0.27
 20
14.970000000000001
 30
0.0
 11
5.4199999999999999
 21
15.5
 31
0.0
  0
LINE
  5
505
100
AcDbEntity
  8
0
  6
CONTINUOUS
 62
               7
100
AcDbLine
 10
6.0
 20
16.5
 30
0.0
 11
5.4199999999999999
 21
15.5
 31
0.0
  0
LINE
  5
506
100
AcDbEntity
  8
0
  6
CONTINUOUS
 62
               7
100
AcDbLine
 10
6.0
 20
5.5
 30
0.0
 11
5.4199999999999999
 21
6.5
 31
0.0
  0
LINE
  5
507
100
AcDbEntity
  8
0
  6
CONTINUOUS
 62
               7
100
AcDbLine
 10
5.4199999999999999
 20
15.5
 30
0.0
 11
5.4199999999999999
 21
6.5
 31
0.0
  0
LINE
  5
508
100
AcDbEntity
  8
0
  6
CONTINUOUS
 62
               7
100
AcDbLine
 10
6.0
 20
16.5
 30
0.0
 11
6.0
 21
5.5
 31
0.0
  0
LINE
  5
509
100
AcDbEntity
  8
0
  6
CONTINUOUS
 62
               7
100
AcDbLine
 10
6.0
 20
5.5
 30
0.0
 11
11.0
 21
5.5
 31
0.0
  0
LINE
  5
50A
100
AcDbEntity
  8
0
  6
CONTINUOUS
 62
               7
100
AcDbLine
 10
6.0
 20
16.5
 30
0.0
 11
11.0
 21
16.5
 31
0.0
  0
LINE
  5
50B
100
AcDbEntity
  8
0
  6
CONTINUOUS
 62
               7
100
AcDbLine
 10
11.0
 20
16.5
 30
0.0
 11
11.0
 21
5.5
 31
0.0
  0
LINE
  5
50C
100
AcDbEntity
  8
0
  6
CONTINUOUS
 62
               7
100
AcDbLine
 10
11.0
 20
16.5
 30
0.0
 11
13.0
 21
16.0
 31
0.0
  0
LINE
  5
50D
100
AcDbEntity
  8
0
  6
CONTINUOUS
 62
               7
100
AcDbLine
 10
11.0
 20
5.5
 30
0.0
 11
13.0
 21
6.0
 31
0.0
  0
LINE
  5
50E
100
AcDbEntity
  8
0
  6
CONTINUOUS
 62
               7
100
AcDbLine
 10
13.0
 20
16.0
 30
0.0
 11
13.0
 21
6.0
 31
0.0
  0
LINE
  5
50F
100
AcDbEntity
  8
0
  6
CONTINUOUS
 62
               7
100
AcDbLine
 10
13.0
 20
6.0
 30
0.0
 11
14.0
 21
6.0
 31
0.0
  0
LINE
  5
510
100
AcDbEntity
  8
0
  6
CONTINUOUS
 62
               7
100
AcDbLine
 10
13.0
 20
16.0
 30
0.0
 11
14.0
 21
16.0
 31
0.0
  0
LINE
  5
511
100
AcDbEntity
  8
0
  6
CONTINUOUS
 62
               7
100
AcDbLine
 10
14.0
 20
16.0
 30
0.0
 11
14.0
 21
6.0
 31
0.0
  0
LINE
  5
512
100
AcDbEntity
  8
0
  6
CONTINUOUS
 62
               7
100
AcDbLine
 10
14.0
 20
14.5
 30
0.0
 11
14.800000000000001
 21
14.5
 31
0.0
  0
LINE
  5
513
100
AcDbEntity
  8
0
  6
CONTINUOUS
 62
               7
100
AcDbLine
 10
14.0
 20
7.5
 30
0.0
 11
14.800000000000001
 21
7.5
 31
0.0
  0
LINE
  5
514
100
AcDbEntity
  8
0
  6
CONTINUOUS
 62
               7
100
AcDbLine
 10
14.800000000000001
 20
5.0999999999999996
 30
0.0
 11
16.0
 21
5.0999999999999996
 31
0.0
  0
LINE
  5
515
100
AcDbEntity
  8
0
  6
CONTINUOUS
 62
               7
100
AcDbLine
 10
14.800000000000001
 20
16.899999999999999
 30
0.0
 11
14.800000000000001
 21
5.0999999999999996
 31
0.0
  0
LINE
  5
516
100
AcDbEntity
  8
0
  6
CONTINUOUS
 62
               7
100
AcDbLine
 10
16.0
 20
16.899999999999999
 30
0.0
 11
16.0
 21
5.0999999999999996
 31
0.0
  0
LINE
  5
517
100
AcDbEntity
  8
0
  6
CONTINUOUS
 62
               7
100
AcDbLine
 10
14.800000000000001
 20
16.899999999999999
 30
0.0
 11
16.0
 21
16.899999999999999
 31
0.0
  0
LINE
  5
518
100
AcDbEntity
  8
0
  6
CONTINUOUS
 62
               7
100
AcDbLine
 10
4.0
 20
6.5
 30
0.0
 11
3.0
 21
7.0700000000000003
 31
0.0
  0
LINE
  5
519
100
AcDbEntity
  8
0
  6
CONTINUOUS
 62
               7
100
AcDbLine
 10
-0.33
 20
15.970000000000001
 30
0.0
 11
6.0
 21
16.5
 31
0.0
  0
LINE
  5
51A
100
AcDbEntity
  8
0
  6
CONTINUOUS
 62
               7
100
AcDbLine
 10
-4.0
 20
6.5
 30
0.0
 11
4.0
 21
6.5
 31
0.0
  0
LINE
  5
51B
100
AcDbEntity
  8
0
  6
CONTINUOUS
 62
               7
100
AcDbLine
 10
-3.0
 20
7.0700000000000003
 30
0.0
 11
3.0
 21
7.0700000000000003
 31
0.0
  0
LINE
  5
51C
100
AcDbEntity
  8
0
  6
CONTINUOUS
 62
               7
100
AcDbLine
 10
-3.0
 20
7.0700000000000003
 30
0.0
 11
-3.0
 21
11.98
 31
0.0
  0
LINE
  5
51D
100
AcDbEntity
  8
0
  6
CONTINUOUS
 62
               7
100
AcDbLine
 10
4.0
 20
6.5
 30
0.0
 11
4.0
 21
5.7000000000000002
 31
0.0
  0
LINE
  5
51E
100
AcDbEntity
  8
0
  6
CONTINUOUS
 62
               7
100
AcDbLine
 10
-4.0
 20
11.98
 30
0.0
 11
-4.0
 21
5.7000000000000002
 31
0.0
  0
LINE
  5
51F
100
AcDbEntity
  8
0
  6
CENTER
 62
               2
100
AcDbLine
 10
-5.8200000000000003
 20
11.0
 30
0.0
 11
17.98
 21
11.0
 31
0.0
  0
LINE
  5
520
100
AcDbEntity
  8
0
  6
CONTINUOUS
 62
               7
100
AcDbLine
 10
-4.0
 20
0.0
 30
0.0
 11
-4.0
 21
2.2999999999999998
 31
0.0
  0
LINE
  5
521
100
AcDbEntity
  8
0
  6
CONTINUOUS
 62
               7
100
AcDbLine
 10
4.0
 20
0.0
 30
0.0
 11
4.0
 21
2.2999999999999998
 31
0.0
  0
LINE
  5
522
100
AcDbEntity
  8
0
  6
CONTINUOUS
 62
               7
100
AcDbLine
 10
-4.0
 20
0.0
 30
0.0
 11
4.0
 21
0.0
 31
0.0
  0
LINE
  5
523
100
AcDbEntity
  8
0
  6
CONTINUOUS
 62
               7
100
AcDbLine
 10
-4.0
 20
0.8
 30
0.0
 11
4.0
 21
0.8
 31
0.0
  0
LINE
  5
524
100
AcDbEntity
  8
0
  6
CONTINUOUS
 62
               7
100
AcDbLine
 10
-4.6100000000000003
 20
2.6499999999999999
 30
0.0
 11
-4.6100000000000003
 21
5.3399999999999999
 31
0.0
  0
LINE
  5
525
100
AcDbEntity
  8
0
  6
CONTINUOUS
 62
               7
100
AcDbLine
 10
-4.6100000000000003
 20
2.6499999999999999
 30
0.0
 11
-4.0
 21
2.2999999999999998
 31
0.0
  0
LINE
  5
526
100
AcDbEntity
  8
0
  6
CONTINUOUS
 62
               7
100
AcDbLine
 10
-4.6100000000000003
 20
5.3399999999999999
 30
0.0
 11
-4.0
 21
5.7000000000000002
 31
0.0
  0
LINE
  5
527
100
AcDbEntity
  8
0
  6
CONTINUOUS
 62
               7
100
AcDbLine
 10
4.6100000000000003
 20
2.6499999999999999
 30
0.0
 11
4.0
 21
2.2999999999999998
 31
0.0
  0
LINE
  5
528
100
AcDbEntity
  8
0
  6
CONTINUOUS
 62
               7
100
AcDbLine
 10
-2.2999999999999998
 20
2.6499999999999999
 30
0.0
 11
-2.2999999999999998
 21
5.3399999999999999
 31
0.0
  0
LINE
  5
529
100
AcDbEntity
  8
0
  6
CONTINUOUS
 62
               7
100
AcDbLine
 10
2.2999999999999998
 20
2.6499999999999999
 30
0.0
 11
2.2999999999999998
 21
5.3399999999999999
 31
0.0
  0
LINE
  5
52A
100
AcDbEntity
  8
0
  6
CONTINUOUS
 62
               7
100
AcDbLine
 10
4.6100000000000003
 20
2.6499999999999999
 30
0.0
 11
4.6100000000000003
 21
5.3399999999999999
 31
0.0
  0
LINE
  5
52B
100
AcDbEntity
  8
0
  6
CONTINUOUS
 62
               7
100
AcDbLine
 10
4.6100000000000003
 20
5.3399999999999999
 30
0.0
 11
4.0
 21
5.7000000000000002
 31
0.0
  0
LINE
  5
52C
100
AcDbEntity
  8
0
  6
CONTINUOUS
 62
               7
100
AcDbLine
 10
-4.0
 20
5.7000000000000002
 30
0.0
 11
4.0
 21
5.7000000000000002
 31
0.0
  0
LINE
  5
52D
100
AcDbEntity
  8
0
  6
CONTINUOUS
 62
               7
100
AcDbLine
 10
-4.0
 20
2.2999999999999998
 30
0.0
 11
4.0
 21
2.2999999999999998
 31
0.0
  0
LINE
  5
52E
100
AcDbEntity
  8
0
  6
CONTINUOUS
 62
               7
100
AcDbLine
 10
-2.5
 20
-3.5
 30
0.0
 11
2.5
 21
-3.5
 31
0.0
  0
LINE
  5
52F
100
AcDbEntity
  8
0
  6
CONTINUOUS
 62
               2
100
AcDbLine
 10
-2.0600000000000001
 20
-3.5
 30
0.0
 11
-2.0600000000000001
 21
0.0
 31
0.0
  0
LINE
  5
530
100
AcDbEntity
  8
0
  6
CONTINUOUS
 62
               2
100
AcDbLine
 10
2.0600000000000001
 20
-3.5
 30
0.0
 11
2.0600000000000001
 21
0.0
 31
0.0
  0
LINE
  5
531
100
AcDbEntity
  8
0
  6
CONTINUOUS
 62
               7
100
AcDbLine
 10
-2.5
 20
-3.5
 30
0.0
 11
-2.5
 21
0.0
 31
0.0
  0
LINE
  5
532
100
AcDbEntity
  8
0
  6
CONTINUOUS
 62
               7
100
AcDbLine
 10
2.5
 20
-3.5
 30
0.0
 11
2.5
 21
0.0
 31
0.0
  0
LINE
  5
533
100
AcDbEntity
  8
0
  6
CENTER
 62
               2
100
AcDbLine
 10
0.0
 20
-5.3099999999999996
 30
0.0
 11
0.0
 21
18.550000000000001
 31
0.0
  0
ENDBLK
  5
534
100
AcDbEntity
  8
0
100
AcDbBlockEnd
  0
BLOCK
  5
535
100
AcDbEntity
  8
0
100
AcDbBlockBegin
  2
MS_30
 70
               0
 10
0.0
 20
0.0
 30
0.0
  3
MS_30
  1

  0
ARC
  5
536
100
AcDbEntity
  8
0
  6
CONTINUOUS
 62
               7
100
AcDbCircle
 10
0.0004626776754582
 20
-0.0004803844606698
 30
0.0
 40
2.9924488063564922
100
AcDbArc
 50
189.60917893849674
 51
258.22897268818087
  0
ARC
  5
537
100
AcDbEntity
  8
0
  6
CONTINUOUS
 62
               7
100
AcDbCircle
 10
0.0
 20
0.0
 30
0.0
 40
4.0
100
AcDbArc
 50
89.999999999999801
 51
269.99999999999937
  0
ARC
  5
538
100
AcDbEntity
  8
0
  6
CONTINUOUS
 62
               7
100
AcDbCircle
 10
0.0004626776754582
 20
0.0004803844606698
 30
0.0
 40
2.9924488063564922
100
AcDbArc
 50
101.77102731181832
 51
170.39082106150246
  0
LINE
  5
539
100
AcDbEntity
  8
0
  6
CONTINUOUS
 62
               7
100
AcDbLine
 10
5.4199999999999999
 20
-0.5
 30
0.0
 11
5.4199999999999999
 21
-4.5
 31
0.0
  0
LINE
  5
53A
100
AcDbEntity
  8
0
  6
CONTINUOUS
 62
               7
100
AcDbLine
 10
-3.96
 20
0.5
 30
0.0
 11
6.0
 21
0.5
 31
0.0
  0
LINE
  5
53B
100
AcDbEntity
  8
0
  6
CONTINUOUS
 62
               7
100
AcDbLine
 10
-3.96
 20
-0.5
 30
0.0
 11
6.0
 21
-0.5
 31
0.0
  0
LINE
  5
53C
100
AcDbEntity
  8
0
  6
CONTINUOUS
 62
               7
100
AcDbLine
 10
0.0
 20
4.0
 30
0.0
 11
-2.2999999999999998
 21
4.0
 31
0.0
  0
LINE
  5
53D
100
AcDbEntity
  8
0
  6
CONTINUOUS
 62
               7
100
AcDbLine
 10
-2.2999999999999998
 20
-4.0
 30
0.0
 11
0.0
 21
-4.0
 31
0.0
  0
LINE
  5
53E
100
AcDbEntity
  8
0
  6
CONTINUOUS
 62
               7
100
AcDbLine
 10
-4.6100000000000003
 20
0.0
 30
0.0
 11
-2.2999999999999998
 21
-4.0
 31
0.0
  0
LINE
  5
53F
100
AcDbEntity
  8
0
  6
CONTINUOUS
 62
               7
100
AcDbLine
 10
-2.2999999999999998
 20
4.0
 30
0.0
 11
-4.6100000000000003
 21
0.0
 31
0.0
  0
LINE
  5
540
100
AcDbEntity
  8
0
  6
CONTINUOUS
 62
               7
100
AcDbLine
 10
-0.61
 20
-2.9300000000000002
 30
0.0
 11
0.0
 21
-4.0
 31
0.0
  0
LINE
  5
541
100
AcDbEntity
  8
0
  6
CONTINUOUS
 62
               7
100
AcDbLine
 10
-0.61
 20
-2.9300000000000002
 30
0.0
 11
-0.1
 21
-0.5
 31
0.0
  0
LINE
  5
542
100
AcDbEntity
  8
0
  6
CONTINUOUS
 62
               7
100
AcDbLine
 10
0.0
 20
-4.0
 30
0.0
 11
0.0
 21
-0.5
 31
0.0
  0
LINE
  5
543
100
AcDbEntity
  8
0
  6
CONTINUOUS
 62
               7
100
AcDbLine
 10
0.0
 20
4.0
 30
0.0
 11
0.0
 21
0.5
 31
0.0
  0
LINE
  5
544
100
AcDbEntity
  8
0
  6
CONTINUOUS
 62
               7
100
AcDbLine
 10
-0.61
 20
2.9300000000000002
 30
0.0
 11
-0.1
 21
0.5
 31
0.0
  0
LINE
  5
545
100
AcDbEntity
  8
0
  6
CONTINUOUS
 62
               7
100
AcDbLine
 10
-0.61
 20
2.9300000000000002
 30
0.0
 11
0.0
 21
4.0
 31
0.0
  0
LINE
  5
546
100
AcDbEntity
  8
0
  6
CENTER
 62
               2
100
AcDbLine
 10
0.0
 20
5.6699999999999999
 30
0.0
 11
0.0
 21
-5.0899999999999999
 31
0.0
  0
LINE
  5
547
100
AcDbEntity
  8
0
  6
CONTINUOUS
 62
               7
100
AcDbLine
 10
0.0
 20
-4.0
 30
0.0
 11
5.4199999999999999
 21
-4.5
 31
0.0
  0
LINE
  5
548
100
AcDbEntity
  8
0
  6
CONTINUOUS
 62
               7
100
AcDbLine
 10
0.0
 20
4.0
 30
0.0
 11
5.4199999999999999
 21
4.5
 31
0.0
  0
LINE
  5
549
100
AcDbEntity
  8
0
  6
CENTER
 62
               2
100
AcDbLine
 10
-5.8200000000000003
 20
0.0
 30
0.0
 11
17.98
 21
0.0
 31
0.0
  0
LINE
  5
54A
100
AcDbEntity
  8
0
  6
CONTINUOUS
 62
               7
100
AcDbLine
 10
5.4199999999999999
 20
4.5
 30
0.0
 11
5.4199999999999999
 21
0.5
 31
0.0
  0
LINE
  5
54B
100
AcDbEntity
  8
0
  6
CONTINUOUS
 62
               7
100
AcDbLine
 10
6.0
 20
-5.5
 30
0.0
 11
5.4199999999999999
 21
-4.5
 31
0.0
  0
LINE
  5
54C
100
AcDbEntity
  8
0
  6
CONTINUOUS
 62
               7
100
AcDbLine
 10
6.0
 20
5.5
 30
0.0
 11
5.4199999999999999
 21
4.5
 31
0.0
  0
LINE
  5
54D
100
AcDbEntity
  8
0
  6
CONTINUOUS
 62
               7
100
AcDbLine
 10
6.0
 20
-5.5
 30
0.0
 11
11.0
 21
-5.5
 31
0.0
  0
LINE
  5
54E
100
AcDbEntity
  8
0
  6
CONTINUOUS
 62
               7
100
AcDbLine
 10
11.0
 20
-5.5
 30
0.0
 11
13.0
 21
-5.0
 31
0.0
  0
LINE
  5
54F
100
AcDbEntity
  8
0
  6
CONTINUOUS
 62
               7
100
AcDbLine
 10
11.0
 20
5.5
 30
0.0
 11
13.0
 21
5.0
 31
0.0
  0
LINE
  5
550
100
AcDbEntity
  8
0
  6
CONTINUOUS
 62
               7
100
AcDbLine
 10
6.0
 20
5.5
 30
0.0
 11
6.0
 21
-5.5
 31
0.0
  0
LINE
  5
551
100
AcDbEntity
  8
0
  6
CONTINUOUS
 62
               7
100
AcDbLine
 10
11.0
 20
5.5
 30
0.0
 11
11.0
 21
-5.5
 31
0.0
  0
LINE
  5
552
100
AcDbEntity
  8
0
  6
CONTINUOUS
 62
               7
100
AcDbLine
 10
13.0
 20
5.0
 30
0.0
 11
13.0
 21
-5.0
 31
0.0
  0
LINE
  5
553
100
AcDbEntity
  8
0
  6
CONTINUOUS
 62
               7
100
AcDbLine
 10
6.0
 20
5.5
 30
0.0
 11
11.0
 21
5.5
 31
0.0
  0
LINE
  5
554
100
AcDbEntity
  8
0
  6
CONTINUOUS
 62
               7
100
AcDbLine
 10
14.0
 20
-3.5
 30
0.0
 11
14.800000000000001
 21
-3.5
 31
0.0
  0
LINE
  5
555
100
AcDbEntity
  8
0
  6
CONTINUOUS
 62
               7
100
AcDbLine
 10
14.0
 20
3.5
 30
0.0
 11
14.800000000000001
 21
3.5
 31
0.0
  0
LINE
  5
556
100
AcDbEntity
  8
0
  6
CONTINUOUS
 62
               7
100
AcDbLine
 10
13.0
 20
5.0
 30
0.0
 11
14.0
 21
5.0
 31
0.0
  0
LINE
  5
557
100
AcDbEntity
  8
0
  6
CONTINUOUS
 62
               7
100
AcDbLine
 10
13.0
 20
-5.0
 30
0.0
 11
14.0
 21
-5.0
 31
0.0
  0
LINE
  5
558
100
AcDbEntity
  8
0
  6
CONTINUOUS
 62
               7
100
AcDbLine
 10
14.0
 20
5.0
 30
0.0
 11
14.0
 21
-5.0
 31
0.0
  0
LINE
  5
559
100
AcDbEntity
  8
0
  6
CONTINUOUS
 62
               7
100
AcDbLine
 10
14.800000000000001
 20
5.9000000000000004
 30
0.0
 11
16.0
 21
5.9000000000000004
 31
0.0
  0
LINE
  5
55A
100
AcDbEntity
  8
0
  6
CONTINUOUS
 62
               7
100
AcDbLine
 10
14.800000000000001
 20
-5.9000000000000004
 30
0.0
 11
16.0
 21
-5.9000000000000004
 31
0.0
  0
LINE
  5
55B
100
AcDbEntity
  8
0
  6
CONTINUOUS
 62
               7
100
AcDbLine
 10
14.800000000000001
 20
5.9000000000000004
 30
0.0
 11
14.800000000000001
 21
-5.9000000000000004
 31
0.0
  0
LINE
  5
55C
100
AcDbEntity
  8
0
  6
CONTINUOUS
 62
               7
100
AcDbLine
 10
16.0
 20
5.9000000000000004
 30
0.0
 11
16.0
 21
-5.9000000000000004
 31
0.0
  0
ENDBLK
  5
55D
100
AcDbEntity
  8
0
100
AcDbBlockEnd
  0
BLOCK
  5
55E
100
AcDbEntity
  8
0
100
AcDbBlockBegin
  2
MS_31
 70
               0
 10
0.0
 20
0.0
 30
0.0
  3
MS_31
  1

  0
ARC
  5
55F
100
AcDbEntity
  8
0
  6
CONTINUOUS
 62
               7
100
AcDbCircle
 10
-0.0013506665885663
 20
11.90310022515926
 30
0.0
 40
2.9986509360318809
100
AcDbArc
 50
99.572252487203215
 51
180.05923658758505
  0
ARC
  5
560
100
AcDbEntity
  8
0
  6
CONTINUOUS
 62
               7
100
AcDbCircle
 10
-0.0010849868987517
 20
10.996598016251198
 30
0.0
 40
4.5011378004350791
100
AcDbArc
 50
96.363854124274127
 51
228.22116098487871
  0
ARC
  5
561
100
AcDbEntity
  8
0
  6
CONTINUOUS
 62
               7
100
AcDbCircle
 10
0.0
 20
11.999998092651317
 30
0.0
 40
4.8993887368232709
100
AcDbArc
 50
32.327702911853677
 51
147.67229708814591
  0
ARC
  5
562
100
AcDbEntity
  8
0
  6
CONTINUOUS
 62
               7
100
AcDbCircle
 10
0.0010849868987517
 20
10.996598016251198
 30
0.0
 40
4.5011378004350791
100
AcDbArc
 50
311.77883901512007
 51
83.636145875725475
  0
ARC
  5
563
100
AcDbEntity
  8
0
  6
CONTINUOUS
 62
               7
100
AcDbCircle
 10
0.0
 20
10.999998092651367
 30
0.0
 40
5.5030249739424413
100
AcDbArc
 50
309.76559140057276
 51
230.23440859942608
  0
ARC
  5
564
100
AcDbEntity
  8
0
  6
CONTINUOUS
 62
               7
100
AcDbCircle
 10
2.0
 20
8.0767173767089844
 30
0.0
 40
5.7835336505181019
100
AcDbArc
 50
249.76879080816275
 51
290.23120919183606
  0
ARC
  5
565
100
AcDbEntity
  8
0
  6
CONTINUOUS
 62
               7
100
AcDbCircle
 10
-2.0
 20
8.076717376709059
 30
0.0
 40
5.7835336505181711
100
AcDbArc
 50
249.76879080816295
 51
290.23120919183577
  0
ARC
  5
566
100
AcDbEntity
  8
0
  6
CONTINUOUS
 62
               7
100
AcDbCircle
 10
-2.0
 20
-0.0767170190811894
 30
0.0
 40
5.7741513025555369
100
AcDbArc
 50
69.734475590432282
 51
110.26552440956733
  0
ARC
  5
567
100
AcDbEntity
  8
0
  6
CONTINUOUS
 62
               7
100
AcDbCircle
 10
2.0
 20
-0.0767189264297485
 30
0.0
 40
5.7741530918345285
100
AcDbArc
 50
69.734482145938586
 51
110.26551785406102
  0
ARC
  5
568
100
AcDbEntity
  8
0
  6
CONTINUOUS
 62
               7
100
AcDbCircle
 10
0.0013506665885663
 20
11.90310022515926
 30
0.0
 40
2.9986509360318809
100
AcDbArc
 50
359.94076341241373
 51
80.427747512796387
  0
LINE
  5
569
100
AcDbEntity
  8
0
  6
CONTINUOUS
 62
               7
100
AcDbLine
 10
-0.5
 20
7.0700000000000003
 30
0.0
 11
-3.0
 21
7.0700000000000003
 31
0.0
  0
LINE
  5
56A
100
AcDbEntity
  8
0
  6
CONTINUOUS
 62
               7
100
AcDbLine
 10
-0.5
 20
6.5
 30
0.0
 11
-0.5
 21
16.469999999999999
 31
0.0
  0
LINE
  5
56B
100
AcDbEntity
  8
0
  6
CONTINUOUS
 62
               7
100
AcDbLine
 10
0.5
 20
6.5
 30
0.0
 11
0.5
 21
16.469999999999999
 31
0.0
  0
LINE
  5
56C
100
AcDbEntity
  8
0
  6
CONTINUOUS
 62
               7
100
AcDbLine
 10
0.5
 20
7.0700000000000003
 30
0.0
 11
3.0
 21
7.0700000000000003
 31
0.0
  0
LINE
  5
56D
100
AcDbEntity
  8
0
  6
CONTINUOUS
 62
               7
100
AcDbLine
 10
4.0
 20
6.5
 30
0.0
 11
3.0
 21
7.0700000000000003
 31
0.0
  0
LINE
  5
56E
100
AcDbEntity
  8
0
  6
CONTINUOUS
 62
               7
100
AcDbLine
 10
-4.0
 20
6.5
 30
0.0
 11
4.0
 21
6.5
 31
0.0
  0
LINE
  5
56F
100
AcDbEntity
  8
0
  6
CONTINUOUS
 62
               7
100
AcDbLine
 10
-3.0
 20
7.0700000000000003
 30
0.0
 11
-3.0
 21
11.9
 31
0.0
  0
LINE
  5
570
100
AcDbEntity
  8
0
  6
CONTINUOUS
 62
               7
100
AcDbLine
 10
3.0
 20
7.0700000000000003
 30
0.0
 11
3.0
 21
11.9
 31
0.0
  0
LINE
  5
571
100
AcDbEntity
  8
0
  6
CONTINUOUS
 62
               7
100
AcDbLine
 10
-4.0
 20
6.5
 30
0.0
 11
-3.0
 21
7.0700000000000003
 31
0.0
  0
LINE
  5
572
100
AcDbEntity
  8
0
  6
CONTINUOUS
 62
               7
100
AcDbLine
 10
-4.0
 20
2.2999999999999998
 30
0.0
 11
4.0
 21
2.2999999999999998
 31
0.0
  0
LINE
  5
573
100
AcDbEntity
  8
0
  6
CONTINUOUS
 62
               7
100
AcDbLine
 10
-4.0
 20
0.0
 30
0.0
 11
4.0
 21
0.0
 31
0.0
  0
LINE
  5
574
100
AcDbEntity
  8
0
  6
CONTINUOUS
 62
               7
100
AcDbLine
 10
-4.0
 20
0.8
 30
0.0
 11
4.0
 21
0.8
 31
0.0
  0
LINE
  5
575
100
AcDbEntity
  8
0
  6
CONTINUOUS
 62
               2
100
AcDbLine
 10
2.0600000000000001
 20
-3.5
 30
0.0
 11
2.0600000000000001
 21
0.0
 31
0.0
  0
LINE
  5
576
100
AcDbEntity
  8
0
  6
CONTINUOUS
 62
               7
100
AcDbLine
 10
2.5
 20
-3.5
 30
0.0
 11
2.5
 21
0.0
 31
0.0
  0
LINE
  5
577
100
AcDbEntity
  8
0
  6
CONTINUOUS
 62
               7
100
AcDbLine
 10
-2.5
 20
-3.5
 30
0.0
 11
-2.5
 21
0.0
 31
0.0
  0
LINE
  5
578
100
AcDbEntity
  8
0
  6
CONTINUOUS
 62
               2
100
AcDbLine
 10
-2.0600000000000001
 20
-3.5
 30
0.0
 11
-2.0600000000000001
 21
0.0
 31
0.0
  0
LINE
  5
579
100
AcDbEntity
  8
0
  6
CONTINUOUS
 62
               7
100
AcDbLine
 10
-2.5
 20
-3.5
 30
0.0
 11
2.5
 21
-3.5
 31
0.0
  0
LINE
  5
57A
100
AcDbEntity
  8
0
  6
CENTER
 62
               2
100
AcDbLine
 10
-6.4500000000000002
 20
11.0
 30
0.0
 11
6.3300000000000001
 21
11.0
 31
0.0
  0
LINE
  5
57B
100
AcDbEntity
  8
0
  6
CONTINUOUS
 62
               7
100
AcDbLine
 10
0.0
 20
5.3399999999999999
 30
0.0
 11
0.0
 21
2.6499999999999999
 31
0.0
  0
LINE
  5
57C
100
AcDbEntity
  8
0
  6
CONTINUOUS
 62
               7
100
AcDbLine
 10
-4.0
 20
0.0
 30
0.0
 11
-4.0
 21
6.5
 31
0.0
  0
LINE
  5
57D
100
AcDbEntity
  8
0
  6
CONTINUOUS
 62
               7
100
AcDbLine
 10
4.0
 20
0.0
 30
0.0
 11
4.0
 21
6.5
 31
0.0
  0
LINE
  5
57E
100
AcDbEntity
  8
0
  6
CONTINUOUS
 62
               7
100
AcDbLine
 10
-4.0
 20
5.7000000000000002
 30
0.0
 11
4.0
 21
5.7000000000000002
 31
0.0
  0
LINE
  5
57F
100
AcDbEntity
  8
0
  6
CENTER
 62
               2
100
AcDbLine
 10
0.0
 20
-5.3600000000000003
 30
0.0
 11
0.0
 21
19.219999999999999
 31
0.0
  0
ENDBLK
  5
580
100
AcDbEntity
  8
0
100
AcDbBlockEnd
  0
BLOCK
  5
581
100
AcDbEntity
  8
0
100
AcDbBlockBegin
  2
MS_32
 70
               0
 10
0.0
 20
0.0
 30
0.0
  3
MS_32
  1

  0
ARC
  5
582
100
AcDbEntity
  8
0
  6
CONTINUOUS
 62
               7
100
AcDbCircle
 10
0.0
 20
12.0
 30
0.0
 40
4.9000000000003716
100
AcDbArc
 50
0.0
 51
179.9999999999996
  0
ARC
  5
583
100
AcDbEntity
  8
0
  6
CONTINUOUS
 62
               7
100
AcDbCircle
 10
1.9933727808887982
 20
-0.0753355883305824
 30
0.0
 40
5.7751547451750316
100
AcDbArc
 50
69.668049316173438
 51
86.658399948100723
  0
ARC
  5
584
100
AcDbEntity
  8
0
  6
CONTINUOUS
 62
               7
100
AcDbCircle
 10
-0.0000038146975143
 20
11.0
 30
0.0
 40
5.4994573901167714
100
AcDbArc
 50
318.8337026979375
 51
41.166297302061686
  0
CIRCLE
  5
585
100
AcDbEntity
  8
0
  6
CONTINUOUS
 62
               7
100
AcDbCircle
 10
0.0
 20
10.999998092651367
 30
0.0
 40
3.0
  0
ARC
  5
586
100
AcDbEntity
  8
0
  6
CONTINUOUS
 62
               7
100
AcDbCircle
 10
0.0
 20
10.0
 30
0.0
 40
4.9000000000003716
100
AcDbArc
 50
179.9999999999996
 51
0.0
  0
ARC
  5
587
100
AcDbEntity
  8
0
  6
CONTINUOUS
 62
               7
100
AcDbCircle
 10
0.0000038146975143
 20
11.0
 30
0.0
 40
5.4994573901167714
100
AcDbArc
 50
138.83370269793792
 51
221.16629730206128
  0
ARC
  5
588
100
AcDbEntity
  8
0
  6
CONTINUOUS
 62
               7
100
AcDbCircle
 10
2.0
 20
8.0767173767101639
 30
0.0
 40
5.7835336505192094
100
AcDbArc
 50
249.76879080816676
 51
290.23120919183202
  0
ARC
  5
589
100
AcDbEntity
  8
0
  6
CONTINUOUS
 62
               7
100
AcDbCircle
 10
-2.0
 20
8.0767173767101639
 30
0.0
 40
5.7835336505192094
100
AcDbArc
 50
249.76879080816676
 51
290.23120919183202
  0
ARC
  5
58A
100
AcDbEntity
  8
0
  6
CONTINUOUS
 62
               7
100
AcDbCircle
 10
-1.9933733235254691
 20
-0.0753329991784666
 30
0.0
 40
5.7751521287954368
100
AcDbArc
 50
93.341596174785039
 51
110.33195456094002
  0
LINE
  5
58B
100
AcDbEntity
  8
0
  6
CONTINUOUS
 62
               7
100
AcDbLine
 10
4.0
 20
5.7000000000000002
 30
0.0
 11
2.3399999999999999
 21
5.7000000000000002
 31
0.0
  0
LINE
  5
58C
100
AcDbEntity
  8
0
  6
CONTINUOUS
 62
               7
100
AcDbLine
 10
4.0
 20
6.5
 30
0.0
 11
3.4199999999999999
 21
6.5
 31
0.0
  0
LINE
  5
58D
100
AcDbEntity
  8
0
  6
CONTINUOUS
 62
               7
100
AcDbLine
 10
4.9000000000000004
 20
12.0
 30
0.0
 11
4.9000000000000004
 21
10.0
 31
0.0
  0
LINE
  5
58E
100
AcDbEntity
  8
0
  6
CONTINUOUS
 62
               7
100
AcDbLine
 10
-4.9000000000000004
 20
12.0
 30
0.0
 11
-4.9000000000000004
 21
10.0
 31
0.0
  0
LINE
  5
58F
100
AcDbEntity
  8
0
  6
CONTINUOUS
 62
               7
100
AcDbLine
 10
4.0
 20
6.5
 30
0.0
 11
3.6299999999999999
 21
6.71
 31
0.0
  0
LINE
  5
590
100
AcDbEntity
  8
0
  6
CONTINUOUS
 62
               7
100
AcDbLine
 10
-4.0
 20
6.5
 30
0.0
 11
-3.4199999999999999
 21
6.5
 31
0.0
  0
LINE
  5
591
100
AcDbEntity
  8
0
  6
CONTINUOUS
 62
               7
100
AcDbLine
 10
-4.0
 20
6.5
 30
0.0
 11
-3.6299999999999999
 21
6.71
 31
0.0
  0
LINE
  5
592
100
AcDbEntity
  8
0
  6
CONTINUOUS
 62
               7
100
AcDbLine
 10
-4.0
 20
2.2999999999999998
 30
0.0
 11
4.0
 21
2.2999999999999998
 31
0.0
  0
LINE
  5
593
100
AcDbEntity
  8
0
  6
CONTINUOUS
 62
               7
100
AcDbLine
 10
-4.0
 20
0.0
 30
0.0
 11
4.0
 21
0.0
 31
0.0
  0
LINE
  5
594
100
AcDbEntity
  8
0
  6
CONTINUOUS
 62
               7
100
AcDbLine
 10
-4.0
 20
0.8
 30
0.0
 11
4.0
 21
0.8
 31
0.0
  0
LINE
  5
595
100
AcDbEntity
  8
0
  6
CONTINUOUS
 62
               2
100
AcDbLine
 10
2.0600000000000001
 20
-3.5
 30
0.0
 11
2.0600000000000001
 21
0.0
 31
0.0
  0
LINE
  5
596
100
AcDbEntity
  8
0
  6
CONTINUOUS
 62
               7
100
AcDbLine
 10
2.5
 20
-3.5
 30
0.0
 11
2.5
 21
0.0
 31
0.0
  0
LINE
  5
597
100
AcDbEntity
  8
0
  6
CONTINUOUS
 62
               7
100
AcDbLine
 10
-2.5
 20
-3.5
 30
0.0
 11
-2.5
 21
0.0
 31
0.0
  0
LINE
  5
598
100
AcDbEntity
  8
0
  6
CONTINUOUS
 62
               2
100
AcDbLine
 10
-2.0600000000000001
 20
-3.5
 30
0.0
 11
-2.0600000000000001
 21
0.0
 31
0.0
  0
LINE
  5
599
100
AcDbEntity
  8
0
  6
CONTINUOUS
 62
               7
100
AcDbLine
 10
-2.5
 20
-3.5
 30
0.0
 11
2.5
 21
-3.5
 31
0.0
  0
LINE
  5
59A
100
AcDbEntity
  8
0
  6
CENTER
 62
               2
100
AcDbLine
 10
-6.4500000000000002
 20
11.0
 30
0.0
 11
6.3300000000000001
 21
11.0
 31
0.0
  0
LINE
  5
59B
100
AcDbEntity
  8
0
  6
CONTINUOUS
 62
               7
100
AcDbLine
 10
0.0
 20
5.0999999999999996
 30
0.0
 11
0.0
 21
2.6499999999999999
 31
0.0
  0
LINE
  5
59C
100
AcDbEntity
  8
0
  6
CONTINUOUS
 62
               7
100
AcDbLine
 10
-4.0
 20
0.0
 30
0.0
 11
-4.0
 21
6.5
 31
0.0
  0
LINE
  5
59D
100
AcDbEntity
  8
0
  6
CONTINUOUS
 62
               7
100
AcDbLine
 10
4.0
 20
0.0
 30
0.0
 11
4.0
 21
6.5
 31
0.0
  0
LINE
  5
59E
100
AcDbEntity
  8
0
  6
CONTINUOUS
 62
               7
100
AcDbLine
 10
-4.0
 20
5.7000000000000002
 30
0.0
 11
-2.3399999999999999
 21
5.7000000000000002
 31
0.0
  0
LINE
  5
59F
100
AcDbEntity
  8
0
  6
CENTER
 62
               2
100
AcDbLine
 10
0.0
 20
-5.3600000000000003
 30
0.0
 11
0.0
 21
19.219999999999999
 31
0.0
  0
ENDBLK
  5
5A0
100
AcDbEntity
  8
0
100
AcDbBlockEnd
  0
BLOCK
  5
5A1
100
AcDbEntity
  8
0
100
AcDbBlockBegin
  2
MS_33
 70
               0
 10
0.0
 20
0.0
 30
0.0
  3
MS_33
  1

  0
ARC
  5
5A2
100
AcDbEntity
  8
0
  6
CONTINUOUS
 62
               7
100
AcDbCircle
 10
10.618090041371561
 20
11.32
 30
0.0
 40
11.237714897908468
100
AcDbArc
 50
160.88479169776119
 51
199.11520830223802
  0
ARC
  5
5A3
100
AcDbEntity
  8
0
  6
CONTINUOUS
 62
               7
100
AcDbCircle
 10
-0.0012456366542497
 20
11.984779821183233
 30
0.0
 40
3.9987572200706589
100
AcDbArc
 50
94.71584565333329
 51
180.06848719008661
  0
ARC
  5
5A4
100
AcDbEntity
  8
0
  6
CONTINUOUS
 62
               7
100
AcDbCircle
 10
-0.0025383236829433
 20
11.984491512927907
 30
0.0
 40
2.9974650414438266
100
AcDbArc
 50
95.119270249190208
 51
180.08585415580882
  0
ARC
  5
5A5
100
AcDbEntity
  8
0
  6
CONTINUOUS
 62
               7
100
AcDbCircle
 10
0.0
 20
9.9427337646484357
 30
0.0
 40
7.6468271696203098
100
AcDbArc
 50
252.49564184491589
 51
287.50435815508291
  0
ARC
  5
5A6
100
AcDbEntity
  8
0
  6
CONTINUOUS
 62
               7
100
AcDbCircle
 10
-3.445812689689125
 20
4.3502649143982435
 30
0.0
 40
2.0503140000951792
100
AcDbArc
 50
269.60353414629969
 51
303.97612659606847
  0
ARC
  5
5A7
100
AcDbEntity
  8
0
  6
CONTINUOUS
 62
               7
100
AcDbCircle
 10
-3.459164677684746
 20
3.6538027052380411
 30
0.0
 40
2.0461974652644175
100
AcDbArc
 50
55.493691257923935
 51
90.023389944195785
  0
ARC
  5
5A8
100
AcDbEntity
  8
0
  6
CONTINUOUS
 62
               7
100
AcDbCircle
 10
3.4458127716126929
 20
4.3502651859163537
 30
0.0
 40
2.0503142710399143
100
AcDbArc
 50
236.02387574572205
 51
270.39646351190731
  0
ARC
  5
5A9
100
AcDbEntity
  8
0
  6
CONTINUOUS
 62
               7
100
AcDbCircle
 10
3.4591647621186676
 20
3.6538024331731824
 30
0.0
 40
2.0461977372947868
100
AcDbArc
 50
89.976612423155942
 51
124.50630637472355
  0
ARC
  5
5AA
100
AcDbEntity
  8
0
  6
CONTINUOUS
 62
               7
100
AcDbCircle
 10
0.0
 20
-1.9427347183227539
 30
0.0
 40
7.6372917305458223
100
AcDbArc
 50
72.473079283293458
 51
107.52692071670616
  0
LINE
  5
5AB
100
AcDbEntity
  8
0
  6
CONTINUOUS
 62
               7
100
AcDbLine
 10
4.5
 20
0.0
 30
0.0
 11
4.5
 21
0.8
 31
0.0
  0
LINE
  5
5AC
100
AcDbEntity
  8
0
  6
CONTINUOUS
 62
               7
100
AcDbLine
 10
-4.5
 20
0.8
 30
0.0
 11
4.5
 21
0.8
 31
0.0
  0
LINE
  5
5AD
100
AcDbEntity
  8
0
  6
CONTINUOUS
 62
               7
100
AcDbLine
 10
-4.5
 20
0.0
 30
0.0
 11
4.5
 21
0.0
 31
0.0
  0
LINE
  5
5AE
100
AcDbEntity
  8
0
  6
CONTINUOUS
 62
               7
100
AcDbLine
 10
-4.5
 20
0.0
 30
0.0
 11
-4.5
 21
0.8
 31
0.0
  0
LINE
  5
5AF
100
AcDbEntity
  8
0
  6
CONTINUOUS
 62
               7
100
AcDbLine
 10
-4.0
 20
6.5
 30
0.0
 11
-3.0
 21
7.0700000000000003
 31
0.0
  0
LINE
  5
5B0
100
AcDbEntity
  8
0
  6
CONTINUOUS
 62
               7
100
AcDbLine
 10
-3.0
 20
-4.5
 30
0.0
 11
-3.0
 21
0.0
 31
0.0
  0
LINE
  5
5B1
100
AcDbEntity
  8
0
  6
CONTINUOUS
 62
               2
100
AcDbLine
 10
-2.4500000000000002
 20
-4.5
 30
0.0
 11
-2.4500000000000002
 21
0.0
 31
0.0
  0
LINE
  5
5B2
100
AcDbEntity
  8
0
  6
CONTINUOUS
 62
               7
100
AcDbLine
 10
-3.0
 20
-4.5
 30
0.0
 11
3.0
 21
-4.5
 31
0.0
  0
LINE
  5
5B3
100
AcDbEntity
  8
0
  6
CONTINUOUS
 62
               2
100
AcDbLine
 10
2.4500000000000002
 20
-4.5
 30
0.0
 11
2.4500000000000002
 21
0.0
 31
0.0
  0
LINE
  5
5B4
100
AcDbEntity
  8
0
  6
CONTINUOUS
 62
               7
100
AcDbLine
 10
3.0
 20
-4.5
 30
0.0
 11
3.0
 21
0.0
 31
0.0
  0
LINE
  5
5B5
100
AcDbEntity
  8
0
  6
CONTINUOUS
 62
               7
100
AcDbLine
 10
0.0
 20
15.0
 30
0.0
 11
0.0
 21
7.6399999999999997
 31
0.0
  0
LINE
  5
5B6
100
AcDbEntity
  8
0
  6
CONTINUOUS
 62
               7
100
AcDbLine
 10
0.0
 20
7.6399999999999997
 30
0.0
 11
3.0
 21
7.0700000000000003
 31
0.0
  0
LINE
  5
5B7
100
AcDbEntity
  8
0
  6
CONTINUOUS
 62
               7
100
AcDbLine
 10
3.73
 20
6.6500000000000004
 30
0.0
 11
5.4199999999999999
 21
6.5
 31
0.0
  0
LINE
  5
5B8
100
AcDbEntity
  8
0
  6
CONTINUOUS
 62
               7
100
AcDbLine
 10
-0.27
 20
14.970000000000001
 30
0.0
 11
5.4199999999999999
 21
15.5
 31
0.0
  0
LINE
  5
5B9
100
AcDbEntity
  8
0
  6
CONTINUOUS
 62
               7
100
AcDbLine
 10
6.0
 20
16.5
 30
0.0
 11
5.4199999999999999
 21
15.5
 31
0.0
  0
LINE
  5
5BA
100
AcDbEntity
  8
0
  6
CONTINUOUS
 62
               7
100
AcDbLine
 10
6.0
 20
5.5
 30
0.0
 11
5.4199999999999999
 21
6.5
 31
0.0
  0
LINE
  5
5BB
100
AcDbEntity
  8
0
  6
CONTINUOUS
 62
               7
100
AcDbLine
 10
5.4199999999999999
 20
15.5
 30
0.0
 11
5.4199999999999999
 21
6.5
 31
0.0
  0
LINE
  5
5BC
100
AcDbEntity
  8
0
  6
CONTINUOUS
 62
               7
100
AcDbLine
 10
6.0
 20
16.5
 30
0.0
 11
6.0
 21
5.5
 31
0.0
  0
LINE
  5
5BD
100
AcDbEntity
  8
0
  6
CONTINUOUS
 62
               7
100
AcDbLine
 10
6.0
 20
5.5
 30
0.0
 11
11.0
 21
5.5
 31
0.0
  0
LINE
  5
5BE
100
AcDbEntity
  8
0
  6
CONTINUOUS
 62
               7
100
AcDbLine
 10
6.0
 20
16.5
 30
0.0
 11
11.0
 21
16.5
 31
0.0
  0
LINE
  5
5BF
100
AcDbEntity
  8
0
  6
CONTINUOUS
 62
               7
100
AcDbLine
 10
11.0
 20
16.5
 30
0.0
 11
11.0
 21
5.5
 31
0.0
  0
LINE
  5
5C0
100
AcDbEntity
  8
0
  6
CONTINUOUS
 62
               7
100
AcDbLine
 10
11.0
 20
16.5
 30
0.0
 11
13.0
 21
16.0
 31
0.0
  0
LINE
  5
5C1
100
AcDbEntity
  8
0
  6
CONTINUOUS
 62
               7
100
AcDbLine
 10
11.0
 20
5.5
 30
0.0
 11
13.0
 21
6.0
 31
0.0
  0
LINE
  5
5C2
100
AcDbEntity
  8
0
  6
CONTINUOUS
 62
               7
100
AcDbLine
 10
13.0
 20
16.0
 30
0.0
 11
13.0
 21
6.0
 31
0.0
  0
LINE
  5
5C3
100
AcDbEntity
  8
0
  6
CONTINUOUS
 62
               7
100
AcDbLine
 10
13.0
 20
6.0
 30
0.0
 11
14.0
 21
6.0
 31
0.0
  0
LINE
  5
5C4
100
AcDbEntity
  8
0
  6
CONTINUOUS
 62
               7
100
AcDbLine
 10
13.0
 20
16.0
 30
0.0
 11
14.0
 21
16.0
 31
0.0
  0
LINE
  5
5C5
100
AcDbEntity
  8
0
  6
CONTINUOUS
 62
               7
100
AcDbLine
 10
14.0
 20
16.0
 30
0.0
 11
14.0
 21
6.0
 31
0.0
  0
LINE
  5
5C6
100
AcDbEntity
  8
0
  6
CONTINUOUS
 62
               7
100
AcDbLine
 10
14.0
 20
14.5
 30
0.0
 11
14.800000000000001
 21
14.5
 31
0.0
  0
LINE
  5
5C7
100
AcDbEntity
  8
0
  6
CONTINUOUS
 62
               7
100
AcDbLine
 10
14.0
 20
7.5
 30
0.0
 11
14.800000000000001
 21
7.5
 31
0.0
  0
LINE
  5
5C8
100
AcDbEntity
  8
0
  6
CONTINUOUS
 62
               7
100
AcDbLine
 10
14.800000000000001
 20
5.0999999999999996
 30
0.0
 11
16.0
 21
5.0999999999999996
 31
0.0
  0
LINE
  5
5C9
100
AcDbEntity
  8
0
  6
CONTINUOUS
 62
               7
100
AcDbLine
 10
14.800000000000001
 20
16.899999999999999
 30
0.0
 11
14.800000000000001
 21
5.0999999999999996
 31
0.0
  0
LINE
  5
5CA
100
AcDbEntity
  8
0
  6
CONTINUOUS
 62
               7
100
AcDbLine
 10
16.0
 20
16.899999999999999
 30
0.0
 11
16.0
 21
5.0999999999999996
 31
0.0
  0
LINE
  5
5CB
100
AcDbEntity
  8
0
  6
CONTINUOUS
 62
               7
100
AcDbLine
 10
14.800000000000001
 20
16.899999999999999
 30
0.0
 11
16.0
 21
16.899999999999999
 31
0.0
  0
LINE
  5
5CC
100
AcDbEntity
  8
0
  6
CONTINUOUS
 62
               7
100
AcDbLine
 10
4.0
 20
6.5
 30
0.0
 11
3.0
 21
7.0700000000000003
 31
0.0
  0
LINE
  5
5CD
100
AcDbEntity
  8
0
  6
CONTINUOUS
 62
               7
100
AcDbLine
 10
-0.33
 20
15.970000000000001
 30
0.0
 11
6.0
 21
16.5
 31
0.0
  0
LINE
  5
5CE
100
AcDbEntity
  8
0
  6
CONTINUOUS
 62
               7
100
AcDbLine
 10
-4.0
 20
6.5
 30
0.0
 11
4.0
 21
6.5
 31
0.0
  0
LINE
  5
5CF
100
AcDbEntity
  8
0
  6
CONTINUOUS
 62
               7
100
AcDbLine
 10
-3.0
 20
7.0700000000000003
 30
0.0
 11
3.0
 21
7.0700000000000003
 31
0.0
  0
LINE
  5
5D0
100
AcDbEntity
  8
0
  6
CONTINUOUS
 62
               7
100
AcDbLine
 10
-3.0
 20
7.0700000000000003
 30
0.0
 11
-3.0
 21
11.98
 31
0.0
  0
LINE
  5
5D1
100
AcDbEntity
  8
0
  6
CONTINUOUS
 62
               7
100
AcDbLine
 10
4.0
 20
6.5
 30
0.0
 11
4.0
 21
5.7000000000000002
 31
0.0
  0
LINE
  5
5D2
100
AcDbEntity
  8
0
  6
CONTINUOUS
 62
               7
100
AcDbLine
 10
-4.0
 20
11.98
 30
0.0
 11
-4.0
 21
5.7000000000000002
 31
0.0
  0
LINE
  5
5D3
100
AcDbEntity
  8
0
  6
CENTER
 62
               2
100
AcDbLine
 10
-5.8200000000000003
 20
11.0
 30
0.0
 11
17.98
 21
11.0
 31
0.0
  0
LINE
  5
5D4
100
AcDbEntity
  8
0
  6
CONTINUOUS
 62
               7
100
AcDbLine
 10
-4.0
 20
0.8
 30
0.0
 11
-4.0
 21
2.2999999999999998
 31
0.0
  0
LINE
  5
5D5
100
AcDbEntity
  8
0
  6
CONTINUOUS
 62
               7
100
AcDbLine
 10
4.0
 20
0.8
 30
0.0
 11
4.0
 21
2.2999999999999998
 31
0.0
  0
LINE
  5
5D6
100
AcDbEntity
  8
0
  6
CONTINUOUS
 62
               7
100
AcDbLine
 10
-4.6100000000000003
 20
2.6499999999999999
 30
0.0
 11
-4.6100000000000003
 21
5.3399999999999999
 31
0.0
  0
LINE
  5
5D7
100
AcDbEntity
  8
0
  6
CONTINUOUS
 62
               7
100
AcDbLine
 10
-4.6100000000000003
 20
2.6499999999999999
 30
0.0
 11
-4.0
 21
2.2999999999999998
 31
0.0
  0
LINE
  5
5D8
100
AcDbEntity
  8
0
  6
CONTINUOUS
 62
               7
100
AcDbLine
 10
-4.6100000000000003
 20
5.3399999999999999
 30
0.0
 11
-4.0
 21
5.7000000000000002
 31
0.0
  0
LINE
  5
5D9
100
AcDbEntity
  8
0
  6
CONTINUOUS
 62
               7
100
AcDbLine
 10
4.6100000000000003
 20
2.6499999999999999
 30
0.0
 11
4.0
 21
2.2999999999999998
 31
0.0
  0
LINE
  5
5DA
100
AcDbEntity
  8
0
  6
CONTINUOUS
 62
               7
100
AcDbLine
 10
-2.2999999999999998
 20
2.6499999999999999
 30
0.0
 11
-2.2999999999999998
 21
5.3399999999999999
 31
0.0
  0
LINE
  5
5DB
100
AcDbEntity
  8
0
  6
CONTINUOUS
 62
               7
100
AcDbLine
 10
2.2999999999999998
 20
2.6499999999999999
 30
0.0
 11
2.2999999999999998
 21
5.3399999999999999
 31
0.0
  0
LINE
  5
5DC
100
AcDbEntity
  8
0
  6
CONTINUOUS
 62
               7
100
AcDbLine
 10
4.6100000000000003
 20
2.6499999999999999
 30
0.0
 11
4.6100000000000003
 21
5.3399999999999999
 31
0.0
  0
LINE
  5
5DD
100
AcDbEntity
  8
0
  6
CONTINUOUS
 62
               7
100
AcDbLine
 10
4.6100000000000003
 20
5.3399999999999999
 30
0.0
 11
4.0
 21
5.7000000000000002
 31
0.0
  0
LINE
  5
5DE
100
AcDbEntity
  8
0
  6
CONTINUOUS
 62
               7
100
AcDbLine
 10
-4.0
 20
5.7000000000000002
 30
0.0
 11
4.0
 21
5.7000000000000002
 31
0.0
  0
LINE
  5
5DF
100
AcDbEntity
  8
0
  6
CONTINUOUS
 62
               7
100
AcDbLine
 10
-4.0
 20
2.2999999999999998
 30
0.0
 11
4.0
 21
2.2999999999999998
 31
0.0
  0
LINE
  5
5E0
100
AcDbEntity
  8
0
  6
CENTER
 62
               2
100
AcDbLine
 10
0.0
 20
-6.4299999999999997
 30
0.0
 11
0.0
 21
18.550000000000001
 31
0.0
  0
ENDBLK
  5
5E1
100
AcDbEntity
  8
0
100
AcDbBlockEnd
  0
BLOCK
  5
5E2
100
AcDbEntity
  8
0
100
AcDbBlockBegin
  2
MS_34
 70
               0
 10
0.0
 20
0.0
 30
0.0
  3
MS_34
  1

  0
ARC
  5
5E3
100
AcDbEntity
  8
0
  6
CONTINUOUS
 62
               7
100
AcDbCircle
 10
-0.0006607090973474
 20
-0.0011453611371053
 30
0.0
 40
4.4943019071232904
100
AcDbArc
 50
122.72024499299935
 51
177.3072140999854
  0
ARC
  5
5E4
100
AcDbEntity
  8
0
  6
CONTINUOUS
 62
               7
100
AcDbCircle
 10
-0.0128437245379602
 20
-0.0005277232792569
 30
0.0
 40
4.4938926200889053
100
AcDbArc
 50
67.457137297771638
 51
117.09980491519323
  0
ARC
  5
5E5
100
AcDbEntity
  8
0
  6
CONTINUOUS
 62
               7
100
AcDbCircle
 10
-0.0128437245379602
 20
0.0005277232792569
 30
0.0
 40
4.4938926200889053
100
AcDbArc
 50
242.90019508480597
 51
292.54286270222752
  0
ARC
  5
5E6
100
AcDbEntity
  8
0
  6
CONTINUOUS
 62
               7
100
AcDbCircle
 10
-0.0006607090973474
 20
0.0011453611371053
 30
0.0
 40
4.4943019071232904
100
AcDbArc
 50
182.6927859000138
 51
237.27975500699981
  0
ARC
  5
5E7
100
AcDbEntity
  8
0
  6
CONTINUOUS
 62
               7
100
AcDbCircle
 10
0.0004626776754582
 20
-0.0004803844606698
 30
0.0
 40
2.9924488063564922
100
AcDbArc
 50
189.60917893849674
 51
258.22897268818087
  0
ARC
  5
5E8
100
AcDbEntity
  8
0
  6
CONTINUOUS
 62
               7
100
AcDbCircle
 10
0.0
 20
0.0
 30
0.0
 40
4.0
100
AcDbArc
 50
89.999999999999801
 51
269.99999999999937
  0
ARC
  5
5E9
100
AcDbEntity
  8
0
  6
CONTINUOUS
 62
               7
100
AcDbCircle
 10
0.0004626776754582
 20
0.0004803844606698
 30
0.0
 40
2.9924488063564922
100
AcDbArc
 50
101.77102731181832
 51
170.39082106150246
  0
LINE
  5
5EA
100
AcDbEntity
  8
0
  6
CONTINUOUS
 62
               7
100
AcDbLine
 10
5.4199999999999999
 20
-0.5
 30
0.0
 11
5.4199999999999999
 21
-4.5
 31
0.0
  0
LINE
  5
5EB
100
AcDbEntity
  8
0
  6
CONTINUOUS
 62
               7
100
AcDbLine
 10
-3.96
 20
0.5
 30
0.0
 11
6.0
 21
0.5
 31
0.0
  0
LINE
  5
5EC
100
AcDbEntity
  8
0
  6
CONTINUOUS
 62
               7
100
AcDbLine
 10
-3.96
 20
-0.5
 30
0.0
 11
6.0
 21
-0.5
 31
0.0
  0
LINE
  5
5ED
100
AcDbEntity
  8
0
  6
CONTINUOUS
 62
               7
100
AcDbLine
 10
0.0
 20
4.0
 30
0.0
 11
-2.2999999999999998
 21
4.0
 31
0.0
  0
LINE
  5
5EE
100
AcDbEntity
  8
0
  6
CONTINUOUS
 62
               7
100
AcDbLine
 10
-2.2999999999999998
 20
-4.0
 30
0.0
 11
0.0
 21
-4.0
 31
0.0
  0
LINE
  5
5EF
100
AcDbEntity
  8
0
  6
CONTINUOUS
 62
               7
100
AcDbLine
 10
-4.6100000000000003
 20
0.0
 30
0.0
 11
-2.2999999999999998
 21
-4.0
 31
0.0
  0
LINE
  5
5F0
100
AcDbEntity
  8
0
  6
CONTINUOUS
 62
               7
100
AcDbLine
 10
-2.2999999999999998
 20
4.0
 30
0.0
 11
-4.6100000000000003
 21
0.0
 31
0.0
  0
LINE
  5
5F1
100
AcDbEntity
  8
0
  6
CONTINUOUS
 62
               7
100
AcDbLine
 10
-0.61
 20
-2.9300000000000002
 30
0.0
 11
0.0
 21
-4.0
 31
0.0
  0
LINE
  5
5F2
100
AcDbEntity
  8
0
  6
CONTINUOUS
 62
               7
100
AcDbLine
 10
-0.61
 20
-2.9300000000000002
 30
0.0
 11
-0.1
 21
-0.5
 31
0.0
  0
LINE
  5
5F3
100
AcDbEntity
  8
0
  6
CONTINUOUS
 62
               7
100
AcDbLine
 10
0.0
 20
-4.0
 30
0.0
 11
0.0
 21
-0.5
 31
0.0
  0
LINE
  5
5F4
100
AcDbEntity
  8
0
  6
CONTINUOUS
 62
               7
100
AcDbLine
 10
0.0
 20
4.0
 30
0.0
 11
0.0
 21
0.5
 31
0.0
  0
LINE
  5
5F5
100
AcDbEntity
  8
0
  6
CONTINUOUS
 62
               7
100
AcDbLine
 10
-0.61
 20
2.9300000000000002
 30
0.0
 11
-0.1
 21
0.5
 31
0.0
  0
LINE
  5
5F6
100
AcDbEntity
  8
0
  6
CONTINUOUS
 62
               7
100
AcDbLine
 10
-0.61
 20
2.9300000000000002
 30
0.0
 11
0.0
 21
4.0
 31
0.0
  0
LINE
  5
5F7
100
AcDbEntity
  8
0
  6
CENTER
 62
               2
100
AcDbLine
 10
0.0
 20
5.6699999999999999
 30
0.0
 11
0.0
 21
-5.0899999999999999
 31
0.0
  0
LINE
  5
5F8
100
AcDbEntity
  8
0
  6
CONTINUOUS
 62
               7
100
AcDbLine
 10
0.0
 20
-4.0
 30
0.0
 11
5.4199999999999999
 21
-4.5
 31
0.0
  0
LINE
  5
5F9
100
AcDbEntity
  8
0
  6
CONTINUOUS
 62
               7
100
AcDbLine
 10
0.0
 20
4.0
 30
0.0
 11
5.4199999999999999
 21
4.5
 31
0.0
  0
LINE
  5
5FA
100
AcDbEntity
  8
0
  6
CENTER
 62
               2
100
AcDbLine
 10
-5.8200000000000003
 20
0.0
 30
0.0
 11
17.98
 21
0.0
 31
0.0
  0
LINE
  5
5FB
100
AcDbEntity
  8
0
  6
CONTINUOUS
 62
               7
100
AcDbLine
 10
5.4199999999999999
 20
4.5
 30
0.0
 11
5.4199999999999999
 21
0.5
 31
0.0
  0
LINE
  5
5FC
100
AcDbEntity
  8
0
  6
CONTINUOUS
 62
               7
100
AcDbLine
 10
6.0
 20
-5.5
 30
0.0
 11
5.4199999999999999
 21
-4.5
 31
0.0
  0
LINE
  5
5FD
100
AcDbEntity
  8
0
  6
CONTINUOUS
 62
               7
100
AcDbLine
 10
6.0
 20
5.5
 30
0.0
 11
5.4199999999999999
 21
4.5
 31
0.0
  0
LINE
  5
5FE
100
AcDbEntity
  8
0
  6
CONTINUOUS
 62
               7
100
AcDbLine
 10
6.0
 20
-5.5
 30
0.0
 11
11.0
 21
-5.5
 31
0.0
  0
LINE
  5
5FF
100
AcDbEntity
  8
0
  6
CONTINUOUS
 62
               7
100
AcDbLine
 10
11.0
 20
-5.5
 30
0.0
 11
13.0
 21
-5.0
 31
0.0
  0
LINE
  5
600
100
AcDbEntity
  8
0
  6
CONTINUOUS
 62
               7
100
AcDbLine
 10
11.0
 20
5.5
 30
0.0
 11
13.0
 21
5.0
 31
0.0
  0
LINE
  5
601
100
AcDbEntity
  8
0
  6
CONTINUOUS
 62
               7
100
AcDbLine
 10
6.0
 20
5.5
 30
0.0
 11
6.0
 21
-5.5
 31
0.0
  0
LINE
  5
602
100
AcDbEntity
  8
0
  6
CONTINUOUS
 62
               7
100
AcDbLine
 10
11.0
 20
5.5
 30
0.0
 11
11.0
 21
-5.5
 31
0.0
  0
LINE
  5
603
100
AcDbEntity
  8
0
  6
CONTINUOUS
 62
               7
100
AcDbLine
 10
13.0
 20
5.0
 30
0.0
 11
13.0
 21
-5.0
 31
0.0
  0
LINE
  5
604
100
AcDbEntity
  8
0
  6
CONTINUOUS
 62
               7
100
AcDbLine
 10
6.0
 20
5.5
 30
0.0
 11
11.0
 21
5.5
 31
0.0
  0
LINE
  5
605
100
AcDbEntity
  8
0
  6
CONTINUOUS
 62
               7
100
AcDbLine
 10
14.0
 20
-3.5
 30
0.0
 11
14.800000000000001
 21
-3.5
 31
0.0
  0
LINE
  5
606
100
AcDbEntity
  8
0
  6
CONTINUOUS
 62
               7
100
AcDbLine
 10
14.0
 20
3.5
 30
0.0
 11
14.800000000000001
 21
3.5
 31
0.0
  0
LINE
  5
607
100
AcDbEntity
  8
0
  6
CONTINUOUS
 62
               7
100
AcDbLine
 10
13.0
 20
5.0
 30
0.0
 11
14.0
 21
5.0
 31
0.0
  0
LINE
  5
608
100
AcDbEntity
  8
0
  6
CONTINUOUS
 62
               7
100
AcDbLine
 10
13.0
 20
-5.0
 30
0.0
 11
14.0
 21
-5.0
 31
0.0
  0
LINE
  5
609
100
AcDbEntity
  8
0
  6
CONTINUOUS
 62
               7
100
AcDbLine
 10
14.0
 20
5.0
 30
0.0
 11
14.0
 21
-5.0
 31
0.0
  0
LINE
  5
60A
100
AcDbEntity
  8
0
  6
CONTINUOUS
 62
               7
100
AcDbLine
 10
14.800000000000001
 20
5.9000000000000004
 30
0.0
 11
16.0
 21
5.9000000000000004
 31
0.0
  0
LINE
  5
60B
100
AcDbEntity
  8
0
  6
CONTINUOUS
 62
               7
100
AcDbLine
 10
14.800000000000001
 20
-5.9000000000000004
 30
0.0
 11
16.0
 21
-5.9000000000000004
 31
0.0
  0
LINE
  5
60C
100
AcDbEntity
  8
0
  6
CONTINUOUS
 62
               7
100
AcDbLine
 10
14.800000000000001
 20
5.9000000000000004
 30
0.0
 11
14.800000000000001
 21
-5.9000000000000004
 31
0.0
  0
LINE
  5
60D
100
AcDbEntity
  8
0
  6
CONTINUOUS
 62
               7
100
AcDbLine
 10
16.0
 20
5.9000000000000004
 30
0.0
 11
16.0
 21
-5.9000000000000004
 31
0.0
  0
ENDBLK
  5
60E
100
AcDbEntity
  8
0
100
AcDbBlockEnd
  0
BLOCK
  5
60F
100
AcDbEntity
  8
0
100
AcDbBlockBegin
  2
MS_35
 70
               0
 10
0.0
 20
0.0
 30
0.0
  3
MS_35
  1

  0
ARC
  5
610
100
AcDbEntity
  8
0
  6
CONTINUOUS
 62
               7
100
AcDbCircle
 10
-0.0013506665885663
 20
11.90310022515926
 30
0.0
 40
2.9986509360318809
100
AcDbArc
 50
99.572252487203215
 51
180.05923658758505
  0
ARC
  5
611
100
AcDbEntity
  8
0
  6
CONTINUOUS
 62
               7
100
AcDbCircle
 10
-0.0010849868987517
 20
10.996598016251198
 30
0.0
 40
4.5011378004350791
100
AcDbArc
 50
96.363854124274127
 51
228.22116098487871
  0
ARC
  5
612
100
AcDbEntity
  8
0
  6
CONTINUOUS
 62
               7
100
AcDbCircle
 10
0.0
 20
11.999998092651317
 30
0.0
 40
4.8993887368232709
100
AcDbArc
 50
32.327702911853677
 51
147.67229708814591
  0
ARC
  5
613
100
AcDbEntity
  8
0
  6
CONTINUOUS
 62
               7
100
AcDbCircle
 10
0.0010849868987517
 20
10.996598016251198
 30
0.0
 40
4.5011378004350791
100
AcDbArc
 50
311.77883901512007
 51
83.636145875725475
  0
ARC
  5
614
100
AcDbEntity
  8
0
  6
CONTINUOUS
 62
               7
100
AcDbCircle
 10
0.0
 20
10.999998092651367
 30
0.0
 40
5.5030249739424413
100
AcDbArc
 50
309.76559140057276
 51
230.23440859942608
  0
ARC
  5
615
100
AcDbEntity
  8
0
  6
CONTINUOUS
 62
               7
100
AcDbCircle
 10
2.0
 20
8.0767173767089844
 30
0.0
 40
5.7835336505181019
100
AcDbArc
 50
249.76879080816275
 51
290.23120919183606
  0
ARC
  5
616
100
AcDbEntity
  8
0
  6
CONTINUOUS
 62
               7
100
AcDbCircle
 10
-2.0
 20
8.076717376709059
 30
0.0
 40
5.7835336505181711
100
AcDbArc
 50
249.76879080816295
 51
290.23120919183577
  0
ARC
  5
617
100
AcDbEntity
  8
0
  6
CONTINUOUS
 62
               7
100
AcDbCircle
 10
-2.0
 20
-0.0767170190811894
 30
0.0
 40
5.7741513025555369
100
AcDbArc
 50
69.734475590432282
 51
110.26552440956733
  0
ARC
  5
618
100
AcDbEntity
  8
0
  6
CONTINUOUS
 62
               7
100
AcDbCircle
 10
2.0
 20
-0.0767189264297485
 30
0.0
 40
5.7741530918345285
100
AcDbArc
 50
69.734482145938586
 51
110.26551785406102
  0
ARC
  5
619
100
AcDbEntity
  8
0
  6
CONTINUOUS
 62
               7
100
AcDbCircle
 10
0.0013506665885663
 20
11.90310022515926
 30
0.0
 40
2.9986509360318809
100
AcDbArc
 50
359.94076341241373
 51
80.427747512796387
  0
LINE
  5
61A
100
AcDbEntity
  8
0
  6
CONTINUOUS
 62
               7
100
AcDbLine
 10
4.5
 20
0.0
 30
0.0
 11
4.5
 21
0.8
 31
0.0
  0
LINE
  5
61B
100
AcDbEntity
  8
0
  6
CONTINUOUS
 62
               7
100
AcDbLine
 10
-4.5
 20
0.8
 30
0.0
 11
4.5
 21
0.8
 31
0.0
  0
LINE
  5
61C
100
AcDbEntity
  8
0
  6
CONTINUOUS
 62
               7
100
AcDbLine
 10
-4.5
 20
0.0
 30
0.0
 11
4.5
 21
0.0
 31
0.0
  0
LINE
  5
61D
100
AcDbEntity
  8
0
  6
CONTINUOUS
 62
               7
100
AcDbLine
 10
-4.5
 20
0.0
 30
0.0
 11
-4.5
 21
0.8
 31
0.0
  0
LINE
  5
61E
100
AcDbEntity
  8
0
  6
CONTINUOUS
 62
               7
100
AcDbLine
 10
-3.0
 20
-4.5
 30
0.0
 11
-3.0
 21
0.0
 31
0.0
  0
LINE
  5
61F
100
AcDbEntity
  8
0
  6
CONTINUOUS
 62
               2
100
AcDbLine
 10
-2.4500000000000002
 20
-4.5
 30
0.0
 11
-2.4500000000000002
 21
0.0
 31
0.0
  0
LINE
  5
620
100
AcDbEntity
  8
0
  6
CONTINUOUS
 62
               7
100
AcDbLine
 10
-3.0
 20
-4.5
 30
0.0
 11
3.0
 21
-4.5
 31
0.0
  0
LINE
  5
621
100
AcDbEntity
  8
0
  6
CONTINUOUS
 62
               2
100
AcDbLine
 10
2.4500000000000002
 20
-4.5
 30
0.0
 11
2.4500000000000002
 21
0.0
 31
0.0
  0
LINE
  5
622
100
AcDbEntity
  8
0
  6
CONTINUOUS
 62
               7
100
AcDbLine
 10
3.0
 20
-4.5
 30
0.0
 11
3.0
 21
0.0
 31
0.0
  0
LINE
  5
623
100
AcDbEntity
  8
0
  6
CONTINUOUS
 62
               7
100
AcDbLine
 10
-0.5
 20
7.0700000000000003
 30
0.0
 11
-3.0
 21
7.0700000000000003
 31
0.0
  0
LINE
  5
624
100
AcDbEntity
  8
0
  6
CONTINUOUS
 62
               7
100
AcDbLine
 10
-0.5
 20
6.5
 30
0.0
 11
-0.5
 21
16.469999999999999
 31
0.0
  0
LINE
  5
625
100
AcDbEntity
  8
0
  6
CONTINUOUS
 62
               7
100
AcDbLine
 10
0.5
 20
6.5
 30
0.0
 11
0.5
 21
16.469999999999999
 31
0.0
  0
LINE
  5
626
100
AcDbEntity
  8
0
  6
CONTINUOUS
 62
               7
100
AcDbLine
 10
0.5
 20
7.0700000000000003
 30
0.0
 11
3.0
 21
7.0700000000000003
 31
0.0
  0
LINE
  5
627
100
AcDbEntity
  8
0
  6
CONTINUOUS
 62
               7
100
AcDbLine
 10
4.0
 20
6.5
 30
0.0
 11
3.0
 21
7.0700000000000003
 31
0.0
  0
LINE
  5
628
100
AcDbEntity
  8
0
  6
CONTINUOUS
 62
               7
100
AcDbLine
 10
-4.0
 20
6.5
 30
0.0
 11
4.0
 21
6.5
 31
0.0
  0
LINE
  5
629
100
AcDbEntity
  8
0
  6
CONTINUOUS
 62
               7
100
AcDbLine
 10
-3.0
 20
7.0700000000000003
 30
0.0
 11
-3.0
 21
11.9
 31
0.0
  0
LINE
  5
62A
100
AcDbEntity
  8
0
  6
CONTINUOUS
 62
               7
100
AcDbLine
 10
3.0
 20
7.0700000000000003
 30
0.0
 11
3.0
 21
11.9
 31
0.0
  0
LINE
  5
62B
100
AcDbEntity
  8
0
  6
CONTINUOUS
 62
               7
100
AcDbLine
 10
-4.0
 20
6.5
 30
0.0
 11
-3.0
 21
7.0700000000000003
 31
0.0
  0
LINE
  5
62C
100
AcDbEntity
  8
0
  6
CONTINUOUS
 62
               7
100
AcDbLine
 10
-4.0
 20
2.2999999999999998
 30
0.0
 11
4.0
 21
2.2999999999999998
 31
0.0
  0
LINE
  5
62D
100
AcDbEntity
  8
0
  6
CENTER
 62
               2
100
AcDbLine
 10
-6.4500000000000002
 20
11.0
 30
0.0
 11
6.3300000000000001
 21
11.0
 31
0.0
  0
LINE
  5
62E
100
AcDbEntity
  8
0
  6
CONTINUOUS
 62
               7
100
AcDbLine
 10
0.0
 20
5.3399999999999999
 30
0.0
 11
0.0
 21
2.6499999999999999
 31
0.0
  0
LINE
  5
62F
100
AcDbEntity
  8
0
  6
CONTINUOUS
 62
               7
100
AcDbLine
 10
-4.0
 20
0.8
 30
0.0
 11
-4.0
 21
6.5
 31
0.0
  0
LINE
  5
630
100
AcDbEntity
  8
0
  6
CONTINUOUS
 62
               7
100
AcDbLine
 10
4.0
 20
0.8
 30
0.0
 11
4.0
 21
6.5
 31
0.0
  0
LINE
  5
631
100
AcDbEntity
  8
0
  6
CONTINUOUS
 62
               7
100
AcDbLine
 10
-4.0
 20
5.7000000000000002
 30
0.0
 11
4.0
 21
5.7000000000000002
 31
0.0
  0
LINE
  5
632
100
AcDbEntity
  8
0
  6
CENTER
 62
               2
100
AcDbLine
 10
0.0
 20
-5.96
 30
0.0
 11
0.0
 21
18.620000000000001
 31
0.0
  0
ENDBLK
  5
633
100
AcDbEntity
  8
0
100
AcDbBlockEnd
  0
BLOCK
  5
634
100
AcDbEntity
  8
0
100
AcDbBlockBegin
  2
MS_36
 70
               0
 10
0.0
 20
0.0
 30
0.0
  3
MS_36
  1

  0
ARC
  5
635
100
AcDbEntity
  8
0
  6
CONTINUOUS
 62
               7
100
AcDbCircle
 10
0.0
 20
12.0
 30
0.0
 40
4.9000000000003716
100
AcDbArc
 50
0.0
 51
179.9999999999996
  0
ARC
  5
636
100
AcDbEntity
  8
0
  6
CONTINUOUS
 62
               7
100
AcDbCircle
 10
1.9933731639056065
 20
-0.0753337607932396
 30
0.0
 40
5.7751528984193357
100
AcDbArc
 50
69.66804657953648
 51
86.658402684737695
  0
ARC
  5
637
100
AcDbEntity
  8
0
  6
CONTINUOUS
 62
               7
100
AcDbCircle
 10
-0.0000038146975143
 20
11.0
 30
0.0
 40
5.4994573901167714
100
AcDbArc
 50
318.8337026979375
 51
41.166297302061686
  0
CIRCLE
  5
638
100
AcDbEntity
  8
0
  6
CONTINUOUS
 62
               7
100
AcDbCircle
 10
0.0
 20
10.999998092651367
 30
0.0
 40
3.0
  0
ARC
  5
639
100
AcDbEntity
  8
0
  6
CONTINUOUS
 62
               7
100
AcDbCircle
 10
0.0
 20
10.0
 30
0.0
 40
4.9000000000003716
100
AcDbArc
 50
179.9999999999996
 51
0.0
  0
ARC
  5
63A
100
AcDbEntity
  8
0
  6
CONTINUOUS
 62
               7
100
AcDbCircle
 10
0.0000038146975143
 20
11.0
 30
0.0
 40
5.4994573901167714
100
AcDbArc
 50
138.83370269793792
 51
221.16629730206128
  0
ARC
  5
63B
100
AcDbEntity
  8
0
  6
CONTINUOUS
 62
               7
100
AcDbCircle
 10
2.0
 20
8.0767173767101639
 30
0.0
 40
5.7835336505192094
100
AcDbArc
 50
249.76879080816676
 51
290.23120919183202
  0
ARC
  5
63C
100
AcDbEntity
  8
0
  6
CONTINUOUS
 62
               7
100
AcDbCircle
 10
-2.0
 20
8.0767173767101639
 30
0.0
 40
5.7835336505192094
100
AcDbArc
 50
249.76879080816676
 51
290.23120919183202
  0
ARC
  5
63D
100
AcDbEntity
  8
0
  6
CONTINUOUS
 62
               7
100
AcDbCircle
 10
-1.9933733235254691
 20
-0.0753329991784666
 30
0.0
 40
5.7751521287954368
100
AcDbArc
 50
93.341596174785039
 51
110.33195456094002
  0
LINE
  5
63E
100
AcDbEntity
  8
0
  6
CONTINUOUS
 62
               7
100
AcDbLine
 10
4.5
 20
0.0
 30
0.0
 11
4.5
 21
0.8
 31
0.0
  0
LINE
  5
63F
100
AcDbEntity
  8
0
  6
CONTINUOUS
 62
               7
100
AcDbLine
 10
-4.5
 20
0.0
 30
0.0
 11
-4.5
 21
0.8
 31
0.0
  0
LINE
  5
640
100
AcDbEntity
  8
0
  6
CONTINUOUS
 62
               2
100
AcDbLine
 10
2.4500000000000002
 20
-4.5
 30
0.0
 11
2.4500000000000002
 21
0.0
 31
0.0
  0
LINE
  5
641
100
AcDbEntity
  8
0
  6
CONTINUOUS
 62
               2
100
AcDbLine
 10
-2.4500000000000002
 20
-4.5
 30
0.0
 11
-2.4500000000000002
 21
0.0
 31
0.0
  0
LINE
  5
642
100
AcDbEntity
  8
0
  6
CONTINUOUS
 62
               7
100
AcDbLine
 10
3.0
 20
-4.5
 30
0.0
 11
3.0
 21
0.0
 31
0.0
  0
LINE
  5
643
100
AcDbEntity
  8
0
  6
CONTINUOUS
 62
               7
100
AcDbLine
 10
-3.0
 20
-4.5
 30
0.0
 11
-3.0
 21
0.0
 31
0.0
  0
LINE
  5
644
100
AcDbEntity
  8
0
  6
CONTINUOUS
 62
               7
100
AcDbLine
 10
-3.0
 20
-4.5
 30
0.0
 11
3.0
 21
-4.5
 31
0.0
  0
LINE
  5
645
100
AcDbEntity
  8
0
  6
CONTINUOUS
 62
               7
100
AcDbLine
 10
4.0
 20
5.7000000000000002
 30
0.0
 11
2.3399999999999999
 21
5.7000000000000002
 31
0.0
  0
LINE
  5
646
100
AcDbEntity
  8
0
  6
CONTINUOUS
 62
               7
100
AcDbLine
 10
4.0
 20
6.5
 30
0.0
 11
3.4199999999999999
 21
6.5
 31
0.0
  0
LINE
  5
647
100
AcDbEntity
  8
0
  6
CONTINUOUS
 62
               7
100
AcDbLine
 10
4.9000000000000004
 20
12.0
 30
0.0
 11
4.9000000000000004
 21
10.0
 31
0.0
  0
LINE
  5
648
100
AcDbEntity
  8
0
  6
CONTINUOUS
 62
               7
100
AcDbLine
 10
-4.9000000000000004
 20
12.0
 30
0.0
 11
-4.9000000000000004
 21
10.0
 31
0.0
  0
LINE
  5
649
100
AcDbEntity
  8
0
  6
CONTINUOUS
 62
               7
100
AcDbLine
 10
4.0
 20
6.5
 30
0.0
 11
3.6299999999999999
 21
6.71
 31
0.0
  0
LINE
  5
64A
100
AcDbEntity
  8
0
  6
CONTINUOUS
 62
               7
100
AcDbLine
 10
-4.0
 20
6.5
 30
0.0
 11
-3.4199999999999999
 21
6.5
 31
0.0
  0
LINE
  5
64B
100
AcDbEntity
  8
0
  6
CONTINUOUS
 62
               7
100
AcDbLine
 10
-4.0
 20
6.5
 30
0.0
 11
-3.6299999999999999
 21
6.71
 31
0.0
  0
LINE
  5
64C
100
AcDbEntity
  8
0
  6
CONTINUOUS
 62
               7
100
AcDbLine
 10
-4.0
 20
2.2999999999999998
 30
0.0
 11
4.0
 21
2.2999999999999998
 31
0.0
  0
LINE
  5
64D
100
AcDbEntity
  8
0
  6
CONTINUOUS
 62
               7
100
AcDbLine
 10
-4.5
 20
0.0
 30
0.0
 11
4.5
 21
0.0
 31
0.0
  0
LINE
  5
64E
100
AcDbEntity
  8
0
  6
CONTINUOUS
 62
               7
100
AcDbLine
 10
-4.5
 20
0.8
 30
0.0
 11
4.5
 21
0.8
 31
0.0
  0
LINE
  5
64F
100
AcDbEntity
  8
0
  6
CENTER
 62
               2
100
AcDbLine
 10
-6.4500000000000002
 20
11.0
 30
0.0
 11
6.3300000000000001
 21
11.0
 31
0.0
  0
LINE
  5
650
100
AcDbEntity
  8
0
  6
CONTINUOUS
 62
               7
100
AcDbLine
 10
0.0
 20
5.0999999999999996
 30
0.0
 11
0.0
 21
2.6499999999999999
 31
0.0
  0
LINE
  5
651
100
AcDbEntity
  8
0
  6
CONTINUOUS
 62
               7
100
AcDbLine
 10
-4.0
 20
0.8
 30
0.0
 11
-4.0
 21
6.5
 31
0.0
  0
LINE
  5
652
100
AcDbEntity
  8
0
  6
CONTINUOUS
 62
               7
100
AcDbLine
 10
4.0
 20
0.8
 30
0.0
 11
4.0
 21
6.5
 31
0.0
  0
LINE
  5
653
100
AcDbEntity
  8
0
  6
CONTINUOUS
 62
               7
100
AcDbLine
 10
-4.0
 20
5.7000000000000002
 30
0.0
 11
-2.3399999999999999
 21
5.7000000000000002
 31
0.0
  0
LINE
  5
654
100
AcDbEntity
  8
0
  6
CENTER
 62
               2
100
AcDbLine
 10
0.0
 20
-5.96
 30
0.0
 11
0.0
 21
18.620000000000001
 31
0.0
  0
ENDBLK
  5
655
100
AcDbEntity
  8
0
100
AcDbBlockEnd
  0
BLOCK
  5
656
100
AcDbEntity
  8
0
100
AcDbBlockBegin
  2
MS_37
 70
               0
 10
0.0
 20
0.0
 30
0.0
  3
MS_37
  1

  0
ARC
  5
657
100
AcDbEntity
  8
0
  6
CONTINUOUS
 62
               7
100
AcDbCircle
 10
10.618088133550291
 20
13.32
 30
0.0
 40
11.237713095280618
100
AcDbArc
 50
160.88478851244764
 51
199.11521148755156
  0
ARC
  5
658
100
AcDbEntity
  8
0
  6
CONTINUOUS
 62
               7
100
AcDbCircle
 10
-0.0012442116512079
 20
13.984778510466148
 30
0.0
 40
3.9987586435061626
100
AcDbArc
 50
94.715864458193636
 51
180.06846838522625
  0
ARC
  5
659
100
AcDbEntity
  8
0
  6
CONTINUOUS
 62
               7
100
AcDbCircle
 10
-0.0025373749051112
 20
13.984490646652493
 30
0.0
 40
2.9974659889226603
100
AcDbArc
 50
95.119286834974986
 51
180.08583757002401
  0
ARC
  5
65A
100
AcDbEntity
  8
0
  6
CONTINUOUS
 62
               7
100
AcDbCircle
 10
0.0
 20
13.55341911315918
 30
0.0
 40
9.557657031516408
100
AcDbArc
 50
252.46255175832189
 51
287.53744824167688
  0
ARC
  5
65B
100
AcDbEntity
  8
0
  6
CONTINUOUS
 62
               7
100
AcDbCircle
 10
-4.3107480387151904
 20
6.561691106395056
 30
0.0
 40
2.5617634478219951
100
AcDbArc
 50
269.56941125338386
 51
303.68300774747473
  0
ARC
  5
65C
100
AcDbEntity
  8
0
  6
CONTINUOUS
 62
               7
100
AcDbCircle
 10
-4.3242732694255492
 20
5.1423783909709337
 30
0.0
 40
2.5576280203374973
100
AcDbArc
 50
55.890063545927482
 51
90.12828987009982
  0
ARC
  5
65D
100
AcDbEntity
  8
0
  6
CONTINUOUS
 62
               7
100
AcDbCircle
 10
4.3107480387151904
 20
6.561691106395056
 30
0.0
 40
2.5617634478219951
100
AcDbArc
 50
236.31699225252405
 51
270.43058874661494
  0
ARC
  5
65E
100
AcDbEntity
  8
0
  6
CONTINUOUS
 62
               7
100
AcDbCircle
 10
0.0
 20
-1.8534221649169922
 30
0.0
 40
9.5481252145487687
100
AcDbArc
 50
72.444475313364933
 51
107.55552468663467
  0
ARC
  5
65F
100
AcDbEntity
  8
0
  6
CONTINUOUS
 62
               7
100
AcDbCircle
 10
4.3242732694255492
 20
5.1423783909709337
 30
0.0
 40
2.5576280203374973
100
AcDbArc
 50
89.871710129899782
 51
124.10993645407211
  0
LINE
  5
660
100
AcDbEntity
  8
0
  6
CONTINUOUS
 62
               7
100
AcDbLine
 10
-4.0
 20
8.5
 30
0.0
 11
-3.0
 21
9.0700000000000003
 31
0.0
  0
LINE
  5
661
100
AcDbEntity
  8
0
  6
CONTINUOUS
 62
               7
100
AcDbLine
 10
0.0
 20
17.0
 30
0.0
 11
0.0
 21
9.6400000000000006
 31
0.0
  0
LINE
  5
662
100
AcDbEntity
  8
0
  6
CONTINUOUS
 62
               7
100
AcDbLine
 10
0.0
 20
9.6400000000000006
 30
0.0
 11
3.0
 21
9.0700000000000003
 31
0.0
  0
LINE
  5
663
100
AcDbEntity
  8
0
  6
CONTINUOUS
 62
               7
100
AcDbLine
 10
3.73
 20
8.6500000000000004
 30
0.0
 11
5.4199999999999999
 21
8.5
 31
0.0
  0
LINE
  5
664
100
AcDbEntity
  8
0
  6
CONTINUOUS
 62
               7
100
AcDbLine
 10
-0.27
 20
16.969999999999999
 30
0.0
 11
5.4199999999999999
 21
17.5
 31
0.0
  0
LINE
  5
665
100
AcDbEntity
  8
0
  6
CONTINUOUS
 62
               7
100
AcDbLine
 10
6.0
 20
18.5
 30
0.0
 11
5.4199999999999999
 21
17.5
 31
0.0
  0
LINE
  5
666
100
AcDbEntity
  8
0
  6
CONTINUOUS
 62
               7
100
AcDbLine
 10
6.0
 20
7.5
 30
0.0
 11
5.4199999999999999
 21
8.5
 31
0.0
  0
LINE
  5
667
100
AcDbEntity
  8
0
  6
CONTINUOUS
 62
               7
100
AcDbLine
 10
5.4199999999999999
 20
17.5
 30
0.0
 11
5.4199999999999999
 21
8.5
 31
0.0
  0
LINE
  5
668
100
AcDbEntity
  8
0
  6
CONTINUOUS
 62
               7
100
AcDbLine
 10
6.0
 20
18.5
 30
0.0
 11
6.0
 21
7.5
 31
0.0
  0
LINE
  5
669
100
AcDbEntity
  8
0
  6
CONTINUOUS
 62
               7
100
AcDbLine
 10
6.0
 20
7.5
 30
0.0
 11
11.0
 21
7.5
 31
0.0
  0
LINE
  5
66A
100
AcDbEntity
  8
0
  6
CONTINUOUS
 62
               7
100
AcDbLine
 10
6.0
 20
18.5
 30
0.0
 11
11.0
 21
18.5
 31
0.0
  0
LINE
  5
66B
100
AcDbEntity
  8
0
  6
CONTINUOUS
 62
               7
100
AcDbLine
 10
11.0
 20
18.5
 30
0.0
 11
11.0
 21
7.5
 31
0.0
  0
LINE
  5
66C
100
AcDbEntity
  8
0
  6
CONTINUOUS
 62
               7
100
AcDbLine
 10
11.0
 20
18.5
 30
0.0
 11
13.0
 21
18.0
 31
0.0
  0
LINE
  5
66D
100
AcDbEntity
  8
0
  6
CONTINUOUS
 62
               7
100
AcDbLine
 10
11.0
 20
7.5
 30
0.0
 11
13.0
 21
8.0
 31
0.0
  0
LINE
  5
66E
100
AcDbEntity
  8
0
  6
CONTINUOUS
 62
               7
100
AcDbLine
 10
13.0
 20
18.0
 30
0.0
 11
13.0
 21
8.0
 31
0.0
  0
LINE
  5
66F
100
AcDbEntity
  8
0
  6
CONTINUOUS
 62
               7
100
AcDbLine
 10
13.0
 20
8.0
 30
0.0
 11
14.0
 21
8.0
 31
0.0
  0
LINE
  5
670
100
AcDbEntity
  8
0
  6
CONTINUOUS
 62
               7
100
AcDbLine
 10
13.0
 20
18.0
 30
0.0
 11
14.0
 21
18.0
 31
0.0
  0
LINE
  5
671
100
AcDbEntity
  8
0
  6
CONTINUOUS
 62
               7
100
AcDbLine
 10
14.0
 20
18.0
 30
0.0
 11
14.0
 21
8.0
 31
0.0
  0
LINE
  5
672
100
AcDbEntity
  8
0
  6
CONTINUOUS
 62
               7
100
AcDbLine
 10
14.0
 20
16.5
 30
0.0
 11
14.800000000000001
 21
16.5
 31
0.0
  0
LINE
  5
673
100
AcDbEntity
  8
0
  6
CONTINUOUS
 62
               7
100
AcDbLine
 10
14.0
 20
9.5
 30
0.0
 11
14.800000000000001
 21
9.5
 31
0.0
  0
LINE
  5
674
100
AcDbEntity
  8
0
  6
CONTINUOUS
 62
               7
100
AcDbLine
 10
14.800000000000001
 20
7.0999999999999996
 30
0.0
 11
16.0
 21
7.0999999999999996
 31
0.0
  0
LINE
  5
675
100
AcDbEntity
  8
0
  6
CONTINUOUS
 62
               7
100
AcDbLine
 10
14.800000000000001
 20
18.899999999999999
 30
0.0
 11
14.800000000000001
 21
7.0999999999999996
 31
0.0
  0
LINE
  5
676
100
AcDbEntity
  8
0
  6
CONTINUOUS
 62
               7
100
AcDbLine
 10
16.0
 20
18.899999999999999
 30
0.0
 11
16.0
 21
7.0999999999999996
 31
0.0
  0
LINE
  5
677
100
AcDbEntity
  8
0
  6
CONTINUOUS
 62
               7
100
AcDbLine
 10
14.800000000000001
 20
18.899999999999999
 30
0.0
 11
16.0
 21
18.899999999999999
 31
0.0
  0
LINE
  5
678
100
AcDbEntity
  8
0
  6
CONTINUOUS
 62
               7
100
AcDbLine
 10
4.0
 20
8.5
 30
0.0
 11
3.0
 21
9.0700000000000003
 31
0.0
  0
LINE
  5
679
100
AcDbEntity
  8
0
  6
CONTINUOUS
 62
               7
100
AcDbLine
 10
-0.33
 20
17.969999999999999
 30
0.0
 11
6.0
 21
18.5
 31
0.0
  0
LINE
  5
67A
100
AcDbEntity
  8
0
  6
CONTINUOUS
 62
               7
100
AcDbLine
 10
-4.0
 20
8.5
 30
0.0
 11
4.0
 21
8.5
 31
0.0
  0
LINE
  5
67B
100
AcDbEntity
  8
0
  6
CONTINUOUS
 62
               7
100
AcDbLine
 10
-3.0
 20
9.0700000000000003
 30
0.0
 11
3.0
 21
9.0700000000000003
 31
0.0
  0
LINE
  5
67C
100
AcDbEntity
  8
0
  6
CONTINUOUS
 62
               7
100
AcDbLine
 10
-3.0
 20
9.0700000000000003
 30
0.0
 11
-3.0
 21
13.98
 31
0.0
  0
LINE
  5
67D
100
AcDbEntity
  8
0
  6
CONTINUOUS
 62
               7
100
AcDbLine
 10
4.0
 20
8.5
 30
0.0
 11
4.0
 21
7.7000000000000002
 31
0.0
  0
LINE
  5
67E
100
AcDbEntity
  8
0
  6
CONTINUOUS
 62
               7
100
AcDbLine
 10
-4.0
 20
13.98
 30
0.0
 11
-4.0
 21
7.7000000000000002
 31
0.0
  0
LINE
  5
67F
100
AcDbEntity
  8
0
  6
CENTER
 62
               2
100
AcDbLine
 10
-5.7999999999999998
 20
13.0
 30
0.0
 11
18.0
 21
13.0
 31
0.0
  0
LINE
  5
680
100
AcDbEntity
  8
0
  6
CONTINUOUS
 62
               7
100
AcDbLine
 10
-4.7300000000000004
 20
-4.0
 30
0.0
 11
4.7300000000000004
 21
-4.0
 31
0.0
  0
LINE
  5
681
100
AcDbEntity
  8
0
  6
CONTINUOUS
 62
               2
100
AcDbLine
 10
4.1500000000000004
 20
-4.0
 30
0.0
 11
4.4000000000000004
 21
4.0
 31
0.0
  0
LINE
  5
682
100
AcDbEntity
  8
0
  6
CONTINUOUS
 62
               7
100
AcDbLine
 10
4.7300000000000004
 20
-4.0
 30
0.0
 11
4.9900000000000002
 21
4.0
 31
0.0
  0
LINE
  5
683
100
AcDbEntity
  8
0
  6
CONTINUOUS
 62
               7
100
AcDbLine
 10
-4.7300000000000004
 20
-4.0
 30
0.0
 11
-4.9900000000000002
 21
4.0
 31
0.0
  0
LINE
  5
684
100
AcDbEntity
  8
0
  6
CONTINUOUS
 62
               2
100
AcDbLine
 10
-4.1500000000000004
 20
-4.0
 30
0.0
 11
-4.4000000000000004
 21
4.0
 31
0.0
  0
LINE
  5
685
100
AcDbEntity
  8
0
  6
CENTER
 62
               2
100
AcDbLine
 10
0.0
 20
-6.4100000000000001
 30
0.0
 11
0.0
 21
20.530000000000001
 31
0.0
  0
LINE
  5
686
100
AcDbEntity
  8
0
  6
CONTINUOUS
 62
               7
100
AcDbLine
 10
-5.7699999999999996
 20
4.4400000000000004
 30
0.0
 11
-5.7699999999999996
 21
7.25
 31
0.0
  0
LINE
  5
687
100
AcDbEntity
  8
0
  6
CONTINUOUS
 62
               7
100
AcDbLine
 10
-5.7699999999999996
 20
4.4400000000000004
 30
0.0
 11
-5.0
 21
4.0
 31
0.0
  0
LINE
  5
688
100
AcDbEntity
  8
0
  6
CONTINUOUS
 62
               7
100
AcDbLine
 10
-5.7699999999999996
 20
7.25
 30
0.0
 11
-5.0
 21
7.7000000000000002
 31
0.0
  0
LINE
  5
689
100
AcDbEntity
  8
0
  6
CONTINUOUS
 62
               7
100
AcDbLine
 10
5.7699999999999996
 20
4.4400000000000004
 30
0.0
 11
5.0
 21
4.0
 31
0.0
  0
LINE
  5
68A
100
AcDbEntity
  8
0
  6
CONTINUOUS
 62
               7
100
AcDbLine
 10
-2.8799999999999999
 20
4.4400000000000004
 30
0.0
 11
-2.8799999999999999
 21
7.25
 31
0.0
  0
LINE
  5
68B
100
AcDbEntity
  8
0
  6
CONTINUOUS
 62
               7
100
AcDbLine
 10
5.7699999999999996
 20
7.25
 30
0.0
 11
5.0
 21
7.7000000000000002
 31
0.0
  0
LINE
  5
68C
100
AcDbEntity
  8
0
  6
CONTINUOUS
 62
               7
100
AcDbLine
 10
2.8799999999999999
 20
4.4400000000000004
 30
0.0
 11
2.8799999999999999
 21
7.25
 31
0.0
  0
LINE
  5
68D
100
AcDbEntity
  8
0
  6
CONTINUOUS
 62
               7
100
AcDbLine
 10
5.7699999999999996
 20
4.4400000000000004
 30
0.0
 11
5.7699999999999996
 21
7.25
 31
0.0
  0
LINE
  5
68E
100
AcDbEntity
  8
0
  6
CONTINUOUS
 62
               7
100
AcDbLine
 10
-5.0
 20
7.7000000000000002
 30
0.0
 11
5.0
 21
7.7000000000000002
 31
0.0
  0
LINE
  5
68F
100
AcDbEntity
  8
0
  6
CONTINUOUS
 62
               7
100
AcDbLine
 10
-5.0
 20
4.0
 30
0.0
 11
5.0
 21
4.0
 31
0.0
  0
ENDBLK
  5
690
100
AcDbEntity
  8
0
100
AcDbBlockEnd
  0
BLOCK
  5
691
100
AcDbEntity
  8
0
100
AcDbBlockBegin
  2
MS_38
 70
               0
 10
0.0
 20
0.0
 30
0.0
  3
MS_38
  1

  0
ARC
  5
692
100
AcDbEntity
  8
0
  6
CONTINUOUS
 62
               7
100
AcDbCircle
 10
0.0004626776754582
 20
-0.0004803844606698
 30
0.0
 40
2.9924488063564922
100
AcDbArc
 50
189.60917893849674
 51
258.22897268818087
  0
ARC
  5
693
100
AcDbEntity
  8
0
  6
CONTINUOUS
 62
               7
100
AcDbCircle
 10
0.0
 20
0.0
 30
0.0
 40
4.0
100
AcDbArc
 50
89.999999999999801
 51
269.99999999999937
  0
ARC
  5
694
100
AcDbEntity
  8
0
  6
CONTINUOUS
 62
               7
100
AcDbCircle
 10
0.0004626776754582
 20
0.0004803844606698
 30
0.0
 40
2.9924488063564922
100
AcDbArc
 50
101.77102731181832
 51
170.39082106150246
  0
ARC
  5
695
100
AcDbEntity
  8
0
  6
CONTINUOUS
 62
               7
100
AcDbCircle
 10
0.0
 20
0.0
 30
0.0
 40
4.9947172092121495
100
AcDbArc
 50
58.091893064346721
 51
301.90810693565243
  0
LINE
  5
696
100
AcDbEntity
  8
0
  6
CONTINUOUS
 62
               7
100
AcDbLine
 10
5.4199999999999999
 20
-0.5
 30
0.0
 11
5.4199999999999999
 21
-4.5
 31
0.0
  0
LINE
  5
697
100
AcDbEntity
  8
0
  6
CONTINUOUS
 62
               7
100
AcDbLine
 10
-3.96
 20
0.5
 30
0.0
 11
6.0
 21
0.5
 31
0.0
  0
LINE
  5
698
100
AcDbEntity
  8
0
  6
CONTINUOUS
 62
               7
100
AcDbLine
 10
-3.96
 20
-0.5
 30
0.0
 11
6.0
 21
-0.5
 31
0.0
  0
LINE
  5
699
100
AcDbEntity
  8
0
  6
CONTINUOUS
 62
               7
100
AcDbLine
 10
-0.61
 20
-2.9300000000000002
 30
0.0
 11
0.0
 21
-4.0
 31
0.0
  0
LINE
  5
69A
100
AcDbEntity
  8
0
  6
CONTINUOUS
 62
               7
100
AcDbLine
 10
-0.61
 20
-2.9300000000000002
 30
0.0
 11
-0.1
 21
-0.5
 31
0.0
  0
LINE
  5
69B
100
AcDbEntity
  8
0
  6
CONTINUOUS
 62
               7
100
AcDbLine
 10
0.0
 20
-4.0
 30
0.0
 11
0.0
 21
-0.5
 31
0.0
  0
LINE
  5
69C
100
AcDbEntity
  8
0
  6
CONTINUOUS
 62
               7
100
AcDbLine
 10
0.0
 20
4.0
 30
0.0
 11
0.0
 21
0.5
 31
0.0
  0
LINE
  5
69D
100
AcDbEntity
  8
0
  6
CONTINUOUS
 62
               7
100
AcDbLine
 10
-0.61
 20
2.9300000000000002
 30
0.0
 11
-0.1
 21
0.5
 31
0.0
  0
LINE
  5
69E
100
AcDbEntity
  8
0
  6
CONTINUOUS
 62
               7
100
AcDbLine
 10
-0.61
 20
2.9300000000000002
 30
0.0
 11
0.0
 21
4.0
 31
0.0
  0
LINE
  5
69F
100
AcDbEntity
  8
0
  6
CONTINUOUS
 62
               7
100
AcDbLine
 10
0.0
 20
-4.0
 30
0.0
 11
5.4199999999999999
 21
-4.5
 31
0.0
  0
LINE
  5
6A0
100
AcDbEntity
  8
0
  6
CONTINUOUS
 62
               7
100
AcDbLine
 10
0.0
 20
4.0
 30
0.0
 11
5.4199999999999999
 21
4.5
 31
0.0
  0
LINE
  5
6A1
100
AcDbEntity
  8
0
  6
CONTINUOUS
 62
               7
100
AcDbLine
 10
5.4199999999999999
 20
4.5
 30
0.0
 11
5.4199999999999999
 21
0.5
 31
0.0
  0
LINE
  5
6A2
100
AcDbEntity
  8
0
  6
CONTINUOUS
 62
               7
100
AcDbLine
 10
6.0
 20
-5.5
 30
0.0
 11
5.4199999999999999
 21
-4.5
 31
0.0
  0
LINE
  5
6A3
100
AcDbEntity
  8
0
  6
CONTINUOUS
 62
               7
100
AcDbLine
 10
6.0
 20
5.5
 30
0.0
 11
5.4199999999999999
 21
4.5
 31
0.0
  0
LINE
  5
6A4
100
AcDbEntity
  8
0
  6
CONTINUOUS
 62
               7
100
AcDbLine
 10
6.0
 20
-5.5
 30
0.0
 11
11.0
 21
-5.5
 31
0.0
  0
LINE
  5
6A5
100
AcDbEntity
  8
0
  6
CONTINUOUS
 62
               7
100
AcDbLine
 10
11.0
 20
-5.5
 30
0.0
 11
13.0
 21
-5.0
 31
0.0
  0
LINE
  5
6A6
100
AcDbEntity
  8
0
  6
CONTINUOUS
 62
               7
100
AcDbLine
 10
11.0
 20
5.5
 30
0.0
 11
13.0
 21
5.0
 31
0.0
  0
LINE
  5
6A7
100
AcDbEntity
  8
0
  6
CONTINUOUS
 62
               7
100
AcDbLine
 10
6.0
 20
5.5
 30
0.0
 11
6.0
 21
-5.5
 31
0.0
  0
LINE
  5
6A8
100
AcDbEntity
  8
0
  6
CONTINUOUS
 62
               7
100
AcDbLine
 10
11.0
 20
5.5
 30
0.0
 11
11.0
 21
-5.5
 31
0.0
  0
LINE
  5
6A9
100
AcDbEntity
  8
0
  6
CONTINUOUS
 62
               7
100
AcDbLine
 10
13.0
 20
5.0
 30
0.0
 11
13.0
 21
-5.0
 31
0.0
  0
LINE
  5
6AA
100
AcDbEntity
  8
0
  6
CONTINUOUS
 62
               7
100
AcDbLine
 10
6.0
 20
5.5
 30
0.0
 11
11.0
 21
5.5
 31
0.0
  0
LINE
  5
6AB
100
AcDbEntity
  8
0
  6
CONTINUOUS
 62
               7
100
AcDbLine
 10
14.0
 20
-3.5
 30
0.0
 11
14.800000000000001
 21
-3.5
 31
0.0
  0
LINE
  5
6AC
100
AcDbEntity
  8
0
  6
CONTINUOUS
 62
               7
100
AcDbLine
 10
14.0
 20
3.5
 30
0.0
 11
14.800000000000001
 21
3.5
 31
0.0
  0
LINE
  5
6AD
100
AcDbEntity
  8
0
  6
CONTINUOUS
 62
               7
100
AcDbLine
 10
13.0
 20
5.0
 30
0.0
 11
14.0
 21
5.0
 31
0.0
  0
LINE
  5
6AE
100
AcDbEntity
  8
0
  6
CONTINUOUS
 62
               7
100
AcDbLine
 10
13.0
 20
-5.0
 30
0.0
 11
14.0
 21
-5.0
 31
0.0
  0
LINE
  5
6AF
100
AcDbEntity
  8
0
  6
CONTINUOUS
 62
               7
100
AcDbLine
 10
14.0
 20
5.0
 30
0.0
 11
14.0
 21
-5.0
 31
0.0
  0
LINE
  5
6B0
100
AcDbEntity
  8
0
  6
CONTINUOUS
 62
               7
100
AcDbLine
 10
14.800000000000001
 20
5.9000000000000004
 30
0.0
 11
16.0
 21
5.9000000000000004
 31
0.0
  0
LINE
  5
6B1
100
AcDbEntity
  8
0
  6
CONTINUOUS
 62
               7
100
AcDbLine
 10
14.800000000000001
 20
-5.9000000000000004
 30
0.0
 11
16.0
 21
-5.9000000000000004
 31
0.0
  0
LINE
  5
6B2
100
AcDbEntity
  8
0
  6
CONTINUOUS
 62
               7
100
AcDbLine
 10
14.800000000000001
 20
5.9000000000000004
 30
0.0
 11
14.800000000000001
 21
-5.9000000000000004
 31
0.0
  0
LINE
  5
6B3
100
AcDbEntity
  8
0
  6
CONTINUOUS
 62
               7
100
AcDbLine
 10
16.0
 20
5.9000000000000004
 30
0.0
 11
16.0
 21
-5.9000000000000004
 31
0.0
  0
LINE
  5
6B4
100
AcDbEntity
  8
0
  6
CONTINUOUS
 62
               7
100
AcDbLine
 10
3.2799999999999998
 20
4.2999999999999998
 30
0.0
 11
2.8799999999999999
 21
5.0
 31
0.0
  0
LINE
  5
6B5
100
AcDbEntity
  8
0
  6
CONTINUOUS
 62
               7
100
AcDbLine
 10
2.8799999999999999
 20
5.0
 30
0.0
 11
-2.8799999999999999
 21
5.0
 31
0.0
  0
LINE
  5
6B6
100
AcDbEntity
  8
0
  6
CONTINUOUS
 62
               7
100
AcDbLine
 10
-2.8799999999999999
 20
5.0
 30
0.0
 11
-5.7699999999999996
 21
0.0
 31
0.0
  0
LINE
  5
6B7
100
AcDbEntity
  8
0
  6
CONTINUOUS
 62
               7
100
AcDbLine
 10
-5.7699999999999996
 20
0.0
 30
0.0
 11
-2.8799999999999999
 21
-5.0
 31
0.0
  0
LINE
  5
6B8
100
AcDbEntity
  8
0
  6
CONTINUOUS
 62
               7
100
AcDbLine
 10
-2.8799999999999999
 20
-5.0
 30
0.0
 11
2.8799999999999999
 21
-5.0
 31
0.0
  0
LINE
  5
6B9
100
AcDbEntity
  8
0
  6
CONTINUOUS
 62
               7
100
AcDbLine
 10
2.8799999999999999
 20
-5.0
 30
0.0
 11
3.2799999999999998
 21
-4.2999999999999998
 31
0.0
  0
LINE
  5
6BA
100
AcDbEntity
  8
0
  6
CENTER
 62
               2
100
AcDbLine
 10
0.0
 20
6.1799999999999997
 30
0.0
 11
0.0
 21
-6.0899999999999999
 31
0.0
  0
LINE
  5
6BB
100
AcDbEntity
  8
0
  6
CENTER
 62
               2
100
AcDbLine
 10
-7.25
 20
0.0
 30
0.0
 11
17.379999999999999
 21
0.0
 31
0.0
  0
ENDBLK
  5
6BC
100
AcDbEntity
  8
0
100
AcDbBlockEnd
  0
BLOCK
  5
6BD
100
AcDbEntity
  8
0
100
AcDbBlockBegin
  2
MS_39
 70
               0
 10
0.0
 20
0.0
 30
0.0
  3
MS_39
  1

  0
ARC
  5
6BE
100
AcDbEntity
  8
0
  6
CONTINUOUS
 62
               7
100
AcDbCircle
 10
-0.0010849868987504
 20
12.996598016251196
 30
0.0
 40
4.5011378004350782
100
AcDbArc
 50
96.363854124274141
 51
228.22116098487865
  0
ARC
  5
6BF
100
AcDbEntity
  8
0
  6
CONTINUOUS
 62
               7
100
AcDbCircle
 10
0.0
 20
13.999998092651367
 30
0.0
 40
4.8993887368232452
100
AcDbArc
 50
32.327702911853201
 51
147.67229708814639
  0
ARC
  5
6C0
100
AcDbEntity
  8
0
  6
CONTINUOUS
 62
               7
100
AcDbCircle
 10
0.0010849868987504
 20
12.996598016251196
 30
0.0
 40
4.5011378004350782
100
AcDbArc
 50
311.77883901512013
 51
83.636145875725475
  0
ARC
  5
6C1
100
AcDbEntity
  8
0
  6
CONTINUOUS
 62
               7
100
AcDbCircle
 10
0.0
 20
12.999998092651367
 30
0.0
 40
5.5030249739424413
100
AcDbArc
 50
309.76559140057276
 51
230.23440859942608
  0
ARC
  5
6C2
100
AcDbEntity
  8
0
  6
CONTINUOUS
 62
               7
100
AcDbCircle
 10
0.00135019676944
 20
13.903099828352566
 30
0.0
 40
2.9986514054405347
100
AcDbArc
 50
359.94077100354855
 51
80.427739921661541
  0
ARC
  5
6C3
100
AcDbEntity
  8
0
  6
CONTINUOUS
 62
               7
100
AcDbCircle
 10
2.5
 20
0.4790878295888978
 30
0.0
 40
7.2177040407196786
100
AcDbArc
 50
69.734519299197871
 51
110.26548070080173
  0
ARC
  5
6C4
100
AcDbEntity
  8
0
  6
CONTINUOUS
 62
               7
100
AcDbCircle
 10
-2.5
 20
0.4790878295898446
 30
0.0
 40
7.2177040407187913
100
AcDbArc
 50
69.73451929919527
 51
110.26548070080435
  0
ARC
  5
6C5
100
AcDbEntity
  8
0
  6
CONTINUOUS
 62
               7
100
AcDbCircle
 10
-2.5
 20
11.220914840698242
 30
0.0
 40
7.2270883540193189
100
AcDbArc
 50
249.76198661224015
 51
290.23801338775866
  0
ARC
  5
6C6
100
AcDbEntity
  8
0
  6
CONTINUOUS
 62
               7
100
AcDbCircle
 10
2.5
 20
11.220911026001922
 30
0.0
 40
7.2270847748282581
100
AcDbArc
 50
249.76197615068858
 51
290.2380238493102
  0
ARC
  5
6C7
100
AcDbEntity
  8
0
  6
CONTINUOUS
 62
               7
100
AcDbCircle
 10
-0.00135019676944
 20
13.903099828352566
 30
0.0
 40
2.9986514054405347
100
AcDbArc
 50
99.572260078338061
 51
180.0592289964502
  0
LINE
  5
6C8
100
AcDbEntity
  8
0
  6
CONTINUOUS
 62
               7
100
AcDbLine
 10
-0.5
 20
9.0700000000000003
 30
0.0
 11
-3.0
 21
9.0700000000000003
 31
0.0
  0
LINE
  5
6C9
100
AcDbEntity
  8
0
  6
CONTINUOUS
 62
               7
100
AcDbLine
 10
0.5
 20
9.0700000000000003
 30
0.0
 11
3.0
 21
9.0700000000000003
 31
0.0
  0
LINE
  5
6CA
100
AcDbEntity
  8
0
  6
CONTINUOUS
 62
               7
100
AcDbLine
 10
4.0
 20
8.5
 30
0.0
 11
3.0
 21
9.0700000000000003
 31
0.0
  0
LINE
  5
6CB
100
AcDbEntity
  8
0
  6
CONTINUOUS
 62
               7
100
AcDbLine
 10
-4.0
 20
8.5
 30
0.0
 11
-3.0
 21
9.0700000000000003
 31
0.0
  0
LINE
  5
6CC
100
AcDbEntity
  8
0
  6
CONTINUOUS
 62
               7
100
AcDbLine
 10
-4.0
 20
8.5
 30
0.0
 11
4.0
 21
8.5
 31
0.0
  0
LINE
  5
6CD
100
AcDbEntity
  8
0
  6
CONTINUOUS
 62
               7
100
AcDbLine
 10
-4.0
 20
7.7000000000000002
 30
0.0
 11
-4.0
 21
8.5
 31
0.0
  0
LINE
  5
6CE
100
AcDbEntity
  8
0
  6
CONTINUOUS
 62
               7
100
AcDbLine
 10
4.0
 20
7.7000000000000002
 30
0.0
 11
4.0
 21
8.5
 31
0.0
  0
LINE
  5
6CF
100
AcDbEntity
  8
0
  6
CONTINUOUS
 62
               7
100
AcDbLine
 10
-0.5
 20
8.5
 30
0.0
 11
-0.5
 21
18.469999999999999
 31
0.0
  0
LINE
  5
6D0
100
AcDbEntity
  8
0
  6
CONTINUOUS
 62
               7
100
AcDbLine
 10
0.5
 20
8.5
 30
0.0
 11
0.5
 21
18.469999999999999
 31
0.0
  0
LINE
  5
6D1
100
AcDbEntity
  8
0
  6
CONTINUOUS
 62
               7
100
AcDbLine
 10
-3.0
 20
9.0700000000000003
 30
0.0
 11
-3.0
 21
13.9
 31
0.0
  0
LINE
  5
6D2
100
AcDbEntity
  8
0
  6
CONTINUOUS
 62
               7
100
AcDbLine
 10
3.0
 20
9.0700000000000003
 30
0.0
 11
3.0
 21
13.9
 31
0.0
  0
LINE
  5
6D3
100
AcDbEntity
  8
0
  6
CENTER
 62
               2
100
AcDbLine
 10
-6.4299999999999997
 20
13.0
 30
0.0
 11
6.3499999999999996
 21
13.0
 31
0.0
  0
LINE
  5
6D4
100
AcDbEntity
  8
0
  6
CONTINUOUS
 62
               7
100
AcDbLine
 10
5.0
 20
4.0
 30
0.0
 11
5.0
 21
7.7000000000000002
 31
0.0
  0
LINE
  5
6D5
100
AcDbEntity
  8
0
  6
CONTINUOUS
 62
               7
100
AcDbLine
 10
-5.0
 20
7.7000000000000002
 30
0.0
 11
5.0
 21
7.7000000000000002
 31
0.0
  0
LINE
  5
6D6
100
AcDbEntity
  8
0
  6
CONTINUOUS
 62
               7
100
AcDbLine
 10
-5.0
 20
4.0
 30
0.0
 11
-5.0
 21
7.7000000000000002
 31
0.0
  0
LINE
  5
6D7
100
AcDbEntity
  8
0
  6
CONTINUOUS
 62
               7
100
AcDbLine
 10
0.0
 20
4.4400000000000004
 30
0.0
 11
0.0
 21
7.25
 31
0.0
  0
LINE
  5
6D8
100
AcDbEntity
  8
0
  6
CONTINUOUS
 62
               7
100
AcDbLine
 10
-5.0
 20
4.0
 30
0.0
 11
5.0
 21
4.0
 31
0.0
  0
LINE
  5
6D9
100
AcDbEntity
  8
0
  6
CONTINUOUS
 62
               7
100
AcDbLine
 10
4.7300000000000004
 20
-4.0
 30
0.0
 11
4.9900000000000002
 21
4.0
 31
0.0
  0
LINE
  5
6DA
100
AcDbEntity
  8
0
  6
CONTINUOUS
 62
               2
100
AcDbLine
 10
4.1500000000000004
 20
-4.0
 30
0.0
 11
4.4000000000000004
 21
4.0
 31
0.0
  0
LINE
  5
6DB
100
AcDbEntity
  8
0
  6
CONTINUOUS
 62
               7
100
AcDbLine
 10
-4.7300000000000004
 20
-4.0
 30
0.0
 11
-4.9900000000000002
 21
4.0
 31
0.0
  0
LINE
  5
6DC
100
AcDbEntity
  8
0
  6
CONTINUOUS
 62
               2
100
AcDbLine
 10
-4.1500000000000004
 20
-4.0
 30
0.0
 11
-4.4000000000000004
 21
4.0
 31
0.0
  0
LINE
  5
6DD
100
AcDbEntity
  8
0
  6
CONTINUOUS
 62
               7
100
AcDbLine
 10
-4.7300000000000004
 20
-4.0
 30
0.0
 11
4.7300000000000004
 21
-4.0
 31
0.0
  0
LINE
  5
6DE
100
AcDbEntity
  8
0
  6
CENTER
 62
               2
100
AcDbLine
 10
0.0
 20
-6.3499999999999996
 30
0.0
 11
0.0
 21
20.530000000000001
 31
0.0
  0
ENDBLK
  5
6DF
100
AcDbEntity
  8
0
100
AcDbBlockEnd
  0
BLOCK
  5
6E0
100
AcDbEntity
  8
0
100
AcDbBlockBegin
  2
MS_40
 70
               0
 10
0.0
 20
0.0
 30
0.0
  3
MS_40
  1

  0
ARC
  5
6E1
100
AcDbEntity
  8
0
  6
CONTINUOUS
 62
               7
100
AcDbCircle
 10
-0.0000000000002487
 20
13.0
 30
0.0
 40
5.4994545184047166
100
AcDbArc
 50
318.83367653708905
 51
41.166323462910128
  0
CIRCLE
  5
6E2
100
AcDbEntity
  8
0
  6
CONTINUOUS
 62
               7
100
AcDbCircle
 10
0.0000038146972656
 20
12.999998092651367
 30
0.0
 40
3.0
  0
ARC
  5
6E3
100
AcDbEntity
  8
0
  6
CONTINUOUS
 62
               7
100
AcDbCircle
 10
0.0
 20
12.0
 30
0.0
 40
4.9000000000003716
100
AcDbArc
 50
179.9999999999996
 51
0.0
  0
ARC
  5
6E4
100
AcDbEntity
  8
0
  6
CONTINUOUS
 62
               7
100
AcDbCircle
 10
0.0000076293947799
 20
13.0
 30
0.0
 40
5.4994602618299719
100
AcDbArc
 50
138.83372885875903
 51
221.16627114124014
  0
ARC
  5
6E5
100
AcDbEntity
  8
0
  6
CONTINUOUS
 62
               7
100
AcDbCircle
 10
2.5
 20
11.220911026001922
 30
0.0
 40
7.2270847748282581
100
AcDbArc
 50
249.76197615068858
 51
290.2380238493102
  0
ARC
  5
6E6
100
AcDbEntity
  8
0
  6
CONTINUOUS
 62
               7
100
AcDbCircle
 10
-2.5132440760732484
 20
0.4768846417155528
 30
0.0
 40
7.215195540095463
100
AcDbArc
 50
88.624138685956993
 51
110.16075999568044
  0
ARC
  5
6E7
100
AcDbEntity
  8
0
  6
CONTINUOUS
 62
               7
100
AcDbCircle
 10
2.5132439733539633
 20
0.4768840207307852
 30
0.0
 40
7.2151961584348054
100
AcDbArc
 50
69.839240938180339
 51
91.37586038018145
  0
ARC
  5
6E8
100
AcDbEntity
  8
0
  6
CONTINUOUS
 62
               7
100
AcDbCircle
 10
-2.5
 20
11.220914840698242
 30
0.0
 40
7.2270883540193189
100
AcDbArc
 50
249.76198661224015
 51
290.23801338775866
  0
ARC
  5
6E9
100
AcDbEntity
  8
0
  6
CONTINUOUS
 62
               7
100
AcDbCircle
 10
0.0
 20
14.0
 30
0.0
 40
4.9000000000003716
100
AcDbArc
 50
0.0
 51
179.9999999999996
  0
LINE
  5
6EA
100
AcDbEntity
  8
0
  6
CONTINUOUS
 62
               7
100
AcDbLine
 10
4.0
 20
8.5
 30
0.0
 11
3.4199999999999999
 21
8.5
 31
0.0
  0
LINE
  5
6EB
100
AcDbEntity
  8
0
  6
CONTINUOUS
 62
               7
100
AcDbLine
 10
-4.0
 20
7.7000000000000002
 30
0.0
 11
-4.0
 21
8.5
 31
0.0
  0
LINE
  5
6EC
100
AcDbEntity
  8
0
  6
CONTINUOUS
 62
               7
100
AcDbLine
 10
4.0
 20
7.7000000000000002
 30
0.0
 11
4.0
 21
8.5
 31
0.0
  0
LINE
  5
6ED
100
AcDbEntity
  8
0
  6
CONTINUOUS
 62
               7
100
AcDbLine
 10
4.9000000000000004
 20
14.0
 30
0.0
 11
4.9000000000000004
 21
12.0
 31
0.0
  0
LINE
  5
6EE
100
AcDbEntity
  8
0
  6
CONTINUOUS
 62
               7
100
AcDbLine
 10
-4.9000000000000004
 20
14.0
 30
0.0
 11
-4.9000000000000004
 21
12.0
 31
0.0
  0
LINE
  5
6EF
100
AcDbEntity
  8
0
  6
CONTINUOUS
 62
               7
100
AcDbLine
 10
4.0
 20
8.5
 30
0.0
 11
3.6299999999999999
 21
8.7100000000000009
 31
0.0
  0
LINE
  5
6F0
100
AcDbEntity
  8
0
  6
CONTINUOUS
 62
               7
100
AcDbLine
 10
-4.0
 20
8.5
 30
0.0
 11
-3.4199999999999999
 21
8.5
 31
0.0
  0
LINE
  5
6F1
100
AcDbEntity
  8
0
  6
CONTINUOUS
 62
               7
100
AcDbLine
 10
-4.0
 20
8.5
 30
0.0
 11
-3.6299999999999999
 21
8.7100000000000009
 31
0.0
  0
LINE
  5
6F2
100
AcDbEntity
  8
0
  6
CENTER
 62
               2
100
AcDbLine
 10
-6.4299999999999997
 20
13.0
 30
0.0
 11
6.3499999999999996
 21
13.0
 31
0.0
  0
LINE
  5
6F3
100
AcDbEntity
  8
0
  6
CONTINUOUS
 62
               7
100
AcDbLine
 10
2.3399999999999999
 20
7.7000000000000002
 30
0.0
 11
5.0
 21
7.7000000000000002
 31
0.0
  0
LINE
  5
6F4
100
AcDbEntity
  8
0
  6
CONTINUOUS
 62
               7
100
AcDbLine
 10
-5.0
 20
4.0
 30
0.0
 11
-5.0
 21
7.7000000000000002
 31
0.0
  0
LINE
  5
6F5
100
AcDbEntity
  8
0
  6
CONTINUOUS
 62
               7
100
AcDbLine
 10
0.0
 20
4.4400000000000004
 30
0.0
 11
0.0
 21
7.0999999999999996
 31
0.0
  0
LINE
  5
6F6
100
AcDbEntity
  8
0
  6
CONTINUOUS
 62
               7
100
AcDbLine
 10
5.0
 20
4.0
 30
0.0
 11
5.0
 21
7.7000000000000002
 31
0.0
  0
LINE
  5
6F7
100
AcDbEntity
  8
0
  6
CONTINUOUS
 62
               7
100
AcDbLine
 10
-5.0
 20
7.7000000000000002
 30
0.0
 11
-2.3399999999999999
 21
7.7000000000000002
 31
0.0
  0
LINE
  5
6F8
100
AcDbEntity
  8
0
  6
CONTINUOUS
 62
               7
100
AcDbLine
 10
-5.0
 20
4.0
 30
0.0
 11
5.0
 21
4.0
 31
0.0
  0
LINE
  5
6F9
100
AcDbEntity
  8
0
  6
CENTER
 62
               2
100
AcDbLine
 10
0.0
 20
-6.4800000000000004
 30
0.0
 11
0.0
 21
20.600000000000001
 31
0.0
  0
LINE
  5
6FA
100
AcDbEntity
  8
0
  6
CONTINUOUS
 62
               2
100
AcDbLine
 10
-4.1500000000000004
 20
-4.0
 30
0.0
 11
-4.4000000000000004
 21
4.0
 31
0.0
  0
LINE
  5
6FB
100
AcDbEntity
  8
0
  6
CONTINUOUS
 62
               7
100
AcDbLine
 10
-4.7300000000000004
 20
-4.0
 30
0.0
 11
-4.9900000000000002
 21
4.0
 31
0.0
  0
LINE
  5
6FC
100
AcDbEntity
  8
0
  6
CONTINUOUS
 62
               2
100
AcDbLine
 10
4.1500000000000004
 20
-4.0
 30
0.0
 11
4.4000000000000004
 21
4.0
 31
0.0
  0
LINE
  5
6FD
100
AcDbEntity
  8
0
  6
CONTINUOUS
 62
               7
100
AcDbLine
 10
4.7300000000000004
 20
-4.0
 30
0.0
 11
4.9900000000000002
 21
4.0
 31
0.0
  0
LINE
  5
6FE
100
AcDbEntity
  8
0
  6
CONTINUOUS
 62
               7
100
AcDbLine
 10
-4.7300000000000004
 20
-4.0
 30
0.0
 11
4.7300000000000004
 21
-4.0
 31
0.0
  0
ENDBLK
  5
6FF
100
AcDbEntity
  8
0
100
AcDbBlockEnd
  0
ENDSEC
  0
SECTION
  2
ENTITIES
  0
MTEXT
  5
700
100
AcDbEntity
  8
0
  6
CONTINUOUS
 62
               7
100
AcDbMText
 10
212.24000305175781
 20
-166.5
 30
0.0
 40
7.0
 41
0.0
 71
               2
 72
               1
  1
\T1.254;\W0.968;\A1;KOGANEI CORP.
  7
MX_NOTE_STANDARD
  0
MTEXT
  5
701
100
AcDbEntity
  8
0
  6
CONTINUOUS
 62
               7
100
AcDbMText
 10
189.24030238985688
 20
169.88499999999999
 30
0.0
 40
5.8000001907348633
 41
0.0
 71
               4
 72
               1
  1
\W1.273;\A1;Ver.1.0
  7
MX_NOTE_STANDARD
  0
INSERT
  5
702
100
AcDbEntity
  8
0
100
AcDbBlockReference
  2
MS_40
 10
222.41574096679687
 20
-135.00003051757813
 30
0.0
  0
INSERT
  5
703
100
AcDbEntity
  8
0
100
AcDbBlockReference
  2
MS_39
 10
122.41574096679687
 20
-135.00003051757813
 30
0.0
  0
INSERT
  5
704
100
AcDbEntity
  8
0
100
AcDbBlockReference
  2
MS_38
 10
172.41574096679687
 20
-100.00003051757812
 30
0.0
  0
INSERT
  5
705
100
AcDbEntity
  8
0
100
AcDbBlockReference
  2
MS_37
 10
172.41574096679687
 20
-135.00003051757813
 30
0.0
  0
INSERT
  5
706
100
AcDbEntity
  8
0
100
AcDbBlockReference
  2
MS_36
 10
222.41574096679687
 20
-25.0
 30
0.0
  0
INSERT
  5
707
100
AcDbEntity
  8
0
100
AcDbBlockReference
  2
MS_35
 10
122.41574096679687
 20
-25.0
 30
0.0
  0
INSERT
  5
708
100
AcDbEntity
  8
0
100
AcDbBlockReference
  2
MS_34
 10
172.41574096679687
 20
9.9999923706054687
 30
0.0
  0
INSERT
  5
709
100
AcDbEntity
  8
0
100
AcDbBlockReference
  2
MS_33
 10
172.41574096679687
 20
-25.0
 30
0.0
 50
359.99999548225372
  0
INSERT
  5
70A
100
AcDbEntity
  8
0
100
AcDbBlockReference
  2
MS_32
 10
222.41574096679687
 20
85.000030517578125
 30
0.0
  0
INSERT
  5
70B
100
AcDbEntity
  8
0
100
AcDbBlockReference
  2
MS_31
 10
122.41574096679687
 20
85.000030517578125
 30
0.0
  0
INSERT
  5
70C
100
AcDbEntity
  8
0
100
AcDbBlockReference
  2
MS_30
 10
172.41574096679687
 20
120.00003051757813
 30
0.0
  0
INSERT
  5
70D
100
AcDbEntity
  8
0
100
AcDbBlockReference
  2
MS_29
 10
172.41574096679687
 20
85.000030517578125
 30
0.0
  0
INSERT
  5
70E
100
AcDbEntity
  8
0
100
AcDbBlockReference
  2
MS_28
 10
47.584259033203125
 20
-159.99996948242187
 30
0.0
  0
INSERT
  5
70F
100
AcDbEntity
  8
0
100
AcDbBlockReference
  2
MS_27
 10
-52.415740966796875
 20
-159.99996948242187
 30
0.0
  0
INSERT
  5
710
100
AcDbEntity
  8
0
100
AcDbBlockReference
  2
MS_26
 10
-2.415740966796875
 20
-124.99996948242187
 30
0.0
  0
INSERT
  5
711
100
AcDbEntity
  8
0
100
AcDbBlockReference
  2
MS_25
 10
-2.415740966796875
 20
-159.99996948242187
 30
0.0
  0
INSERT
  5
712
100
AcDbEntity
  8
0
100
AcDbBlockReference
  2
MS_24
 10
47.584259033203125
 20
-69.999969482421875
 30
0.0
  0
INSERT
  5
713
100
AcDbEntity
  8
0
100
AcDbBlockReference
  2
MS_23
 10
-52.415740966796875
 20
-69.999969482421875
 30
0.0
  0
INSERT
  5
714
100
AcDbEntity
  8
0
100
AcDbBlockReference
  2
MS_22
 10
-2.415740966796875
 20
-34.999969482421875
 30
0.0
  0
INSERT
  5
715
100
AcDbEntity
  8
0
100
AcDbBlockReference
  2
MS_21
 10
-2.415740966796875
 20
-69.999969482421875
 30
0.0
  0
INSERT
  5
716
100
AcDbEntity
  8
0
100
AcDbBlockReference
  2
MS_20
 10
47.584259033203125
 20
20.000030517578125
 30
0.0
  0
INSERT
  5
717
100
AcDbEntity
  8
0
100
AcDbBlockReference
  2
MS_19
 10
-52.415740966796875
 20
20.000030517578125
 30
0.0
  0
INSERT
  5
718
100
AcDbEntity
  8
0
100
AcDbBlockReference
  2
MS_18
 10
-2.415740966796875
 20
55.000030517578125
 30
0.0
  0
INSERT
  5
719
100
AcDbEntity
  8
0
100
AcDbBlockReference
  2
MS_17
 10
-2.415740966796875
 20
20.000030517578125
 30
0.0
  0
INSERT
  5
71A
100
AcDbEntity
  8
0
100
AcDbBlockReference
  2
MS_16
 10
47.584259033203125
 20
110.00003051757813
 30
0.0
  0
INSERT
  5
71B
100
AcDbEntity
  8
0
100
AcDbBlockReference
  2
MS_15
 10
-52.415740966796875
 20
110.00003051757813
 30
0.0
  0
INSERT
  5
71C
100
AcDbEntity
  8
0
100
AcDbBlockReference
  2
MS_14
 10
-2.415740966796875
 20
145.00003051757812
 30
0.0
  0
INSERT
  5
71D
100
AcDbEntity
  8
0
100
AcDbBlockReference
  2
MS_13
 10
-2.415740966796875
 20
110.00003051757813
 30
0.0
  0
INSERT
  5
71E
100
AcDbEntity
  8
0
100
AcDbBlockReference
  2
MS_12
 10
-127.24722290039062
 20
-145.00003051757812
 30
0.0
  0
INSERT
  5
71F
100
AcDbEntity
  8
0
100
AcDbBlockReference
  2
MS_11
 10
-227.24722290039062
 20
-145.00003051757812
 30
0.0
  0
INSERT
  5
720
100
AcDbEntity
  8
0
100
AcDbBlockReference
  2
MS_10
 10
-177.24722290039062
 20
-110.00003051757813
 30
0.0
  0
INSERT
  5
721
100
AcDbEntity
  8
0
100
AcDbBlockReference
  2
MS_9
 10
-177.24722290039062
 20
-145.00003051757812
 30
0.0
  0
INSERT
  5
722
100
AcDbEntity
  8
0
100
AcDbBlockReference
  2
MS_8
 10
-127.24722290039062
 20
-25.0
 30
0.0
  0
INSERT
  5
723
100
AcDbEntity
  8
0
100
AcDbBlockReference
  2
MS_7
 10
-227.24722290039062
 20
-25.0
 30
0.0
  0
INSERT
  5
724
100
AcDbEntity
  8
0
100
AcDbBlockReference
  2
MS_6
 10
-177.24722290039062
 20
9.9999923706054687
 30
0.0
  0
INSERT
  5
725
100
AcDbEntity
  8
0
100
AcDbBlockReference
  2
MS_5
 10
-177.24722290039062
 20
-25.0
 30
0.0
  0
INSERT
  5
726
100
AcDbEntity
  8
0
100
AcDbBlockReference
  2
MS_4
 10
-127.24722290039062
 20
85.000015258789063
 30
0.0
  0
INSERT
  5
727
100
AcDbEntity
  8
0
100
AcDbBlockReference
  2
MS_3
 10
-227.24722290039062
 20
85.000015258789063
 30
0.0
  0
INSERT
  5
728
100
AcDbEntity
  8
0
100
AcDbBlockReference
  2
MS_2
 10
-177.24722290039062
 20
120.00001525878906
 30
0.0
  0
INSERT
  5
729
100
AcDbEntity
  8
0
100
AcDbBlockReference
  2
MS_1
 10
-177.24722290039062
 20
85.000015258789063
 30
0.0
 50
359.99997640122615
  0
MTEXT
  5
72A
100
AcDbEntity
  8
0
  6
CONTINUOUS
 62
               7
100
AcDbMText
 10
-244.52983159683151
 20
53.500015258789063
 30
0.0
 40
7.0
 41
0.0
 71
               1
 72
               1
  1
\W1.043;\A1;MODEL:CS-TL3-M5M
  7
MX_NOTE_STANDARD
  0
MTEXT
  5
72B
100
AcDbEntity
  8
0
  6
CONTINUOUS
 62
               7
100
AcDbMText
 10
-244.52983159683151
 20
-66.500015258789063
 30
0.0
 40
7.0
 41
0.0
 71
               1
 72
               1
  1
\W1.043;\A1;MODEL:CS-TL3-M6M
  7
MX_NOTE_STANDARD
  0
MTEXT
  5
72C
100
AcDbEntity
  8
0
  6
CONTINUOUS
 62
               7
100
AcDbMText
 10
-69.65731400134753
 20
-96.500015258789063
 30
0.0
 40
7.0
 41
0.0
 71
               1
 72
               1
  1
\W1.079;\A1;MODEL:CS-TL4-01M
  7
MX_NOTE_STANDARD
  0
MTEXT
  5
72D
100
AcDbEntity
  8
0
  6
CONTINUOUS
 62
               7
100
AcDbMText
 10
-69.698349663237764
 20
-6.5
 30
0.0
 40
7.0
 41
0.0
 71
               1
 72
               1
  1
\W1.043;\A1;MODEL:CS-TL4-M6M
  7
MX_NOTE_STANDARD
  0
MTEXT
  5
72E
100
AcDbEntity
  8
0
  6
CONTINUOUS
 62
               7
100
AcDbMText
 10
-69.698349663237764
 20
83.500015258789063
 30
0.0
 40
7.0
 41
0.0
 71
               1
 72
               1
  1
\W1.043;\A1;MODEL:CS-TL4-M5M
  7
MX_NOTE_STANDARD
  0
MTEXT
  5
72F
100
AcDbEntity
  8
0
  6
CONTINUOUS
 62
               7
100
AcDbMText
 10
105.13313227035599
 20
153.50004577636719
 30
0.0
 40
7.0
 41
0.0
 71
               1
 72
               1
  1
\W1.043;\A1;MODEL:CS-TL6-M5M
  7
MX_NOTE_STANDARD
  0
MTEXT
  5
730
100
AcDbEntity
  8
0
  6
CONTINUOUS
 62
               7
100
AcDbMText
 10
105.13313227035599
 20
53.500015258789063
 30
0.0
 40
7.0
 41
0.0
 71
               1
 72
               1
  1
\W1.043;\A1;MODEL:CS-TL6-M6M
  7
MX_NOTE_STANDARD
  0
MTEXT
  5
731
100
AcDbEntity
  8
0
  6
CONTINUOUS
 62
               7
100
AcDbMText
 10
105.17416793224622
 20
-66.500015258789063
 30
0.0
 40
7.0
 41
0.0
 71
               1
 72
               1
  1
\W1.079;\A1;MODEL:CS-TL6-01M
  7
MX_NOTE_STANDARD
  0
MTEXT
  5
732
100
AcDbEntity
  8
0
  6
CONTINUOUS
 62
               7
100
AcDbMText
 10
-244.52983159683151
 20
153.50004577636719
 30
0.0
 40
7.0
 41
0.0
 71
               1
 72
               1
  1
\W1.043;\A1;MODEL:CS-TL3-M3M
  7
MX_NOTE_STANDARD
  0
MTEXT
  5
733
100
AcDbEntity
  8
0
  6
CONTINUOUS
 62
               7
100
AcDbMText
 10
-69.698349663237764
 20
173.50004577636719
 30
0.0
 40
7.0
 41
0.0
 71
               1
 72
               1
  1
\W1.043;\A1;MODEL:CS-TL4-M3M
  7
MX_NOTE_STANDARD
  0
MTEXT
  5
734
100
AcDbEntity
  8
0
  6
CONTINUOUS
 62
               7
100
AcDbMText
 10
-254.98564970564772
 20
173.3876953125
 30
0.0
 40
7.0
 41
0.0
 71
               1
 72
               1
  1
\W0.711;\A1;CS-QUICK FITTING,TL-M
  7
MX_NOTE_STANDARD
  0
LINE
  5
735
100
AcDbEntity
  8
0
  6
CONTINUOUS
 62
               7
100
AcDbLine
 10
87.409999999999997
 20
60.0
 30
0.0
 11
262.24000000000001
 21
60.0
 31
0.0
  0
LINE
  5
736
100
AcDbEntity
  8
0
  6
CONTINUOUS
 62
               7
100
AcDbLine
 10
87.409999999999997
 20
-60.0
 30
0.0
 11
262.24000000000001
 21
-60.0
 31
0.0
  0
LINE
  5
737
100
AcDbEntity
  8
0
  6
CONTINUOUS
 62
               7
100
AcDbLine
 10
-262.24000000000001
 20
-60.0
 30
0.0
 11
-87.409999999999997
 21
-60.0
 31
0.0
  0
LINE
  5
738
100
AcDbEntity
  8
0
  6
CONTINUOUS
 62
               7
100
AcDbLine
 10
-262.24000000000001
 20
60.0
 30
0.0
 11
-87.409999999999997
 21
60.0
 31
0.0
  0
LINE
  5
739
100
AcDbEntity
  8
0
  6
CONTINUOUS
 62
               7
100
AcDbLine
 10
-87.409999999999997
 20
-90.0
 30
0.0
 11
87.409999999999997
 21
-90.0
 31
0.0
  0
LINE
  5
73A
100
AcDbEntity
  8
0
  6
CONTINUOUS
 62
               7
100
AcDbLine
 10
-87.409999999999997
 20
0.0
 30
0.0
 11
87.409999999999997
 21
0.0
 31
0.0
  0
LINE
  5
73B
100
AcDbEntity
  8
0
  6
CONTINUOUS
 62
               7
100
AcDbLine
 10
-87.409999999999997
 20
90.0
 30
0.0
 11
87.409999999999997
 21
90.0
 31
0.0
  0
LINE
  5
73C
100
AcDbEntity
  8
0
  6
CONTINUOUS
 62
               7
100
AcDbLine
 10
87.409999999999997
 20
180.0
 30
0.0
 11
87.409999999999997
 21
-180.0
 31
0.0
  0
LINE
  5
73D
100
AcDbEntity
  8
0
  6
CONTINUOUS
 62
               7
100
AcDbLine
 10
-87.409999999999997
 20
180.0
 30
0.0
 11
-87.409999999999997
 21
-180.0
 31
0.0
  0
LINE
  5
73E
100
AcDbEntity
  8
0
  6
CONTINUOUS
 62
               7
100
AcDbLine
 10
154.38
 20
-159.77000000000001
 30
0.0
 11
154.38
 21
-180.0
 31
0.0
  0
LINE
  5
73F
100
AcDbEntity
  8
0
  6
CONTINUOUS
 62
               7
100
AcDbLine
 10
154.38
 20
180.0
 30
0.0
 11
154.38
 21
159.77000000000001
 31
0.0
  0
LINE
  5
740
100
AcDbEntity
  8
0
  6
CONTINUOUS
 62
               7
100
AcDbLine
 10
154.38
 20
159.77000000000001
 30
0.0
 11
262.24000000000001
 21
159.77000000000001
 31
0.0
  0
LINE
  5
741
100
AcDbEntity
  8
0
  6
CONTINUOUS
 62
               7
100
AcDbLine
 10
154.38
 20
-159.77000000000001
 30
0.0
 11
262.24000000000001
 21
-159.77000000000001
 31
0.0
  0
LINE
  5
742
100
AcDbEntity
  8
0
  6
CONTINUOUS
 62
               7
100
AcDbLine
 10
-154.38
 20
159.77000000000001
 30
0.0
 11
-154.38
 21
180.0
 31
0.0
  0
LINE
  5
743
100
AcDbEntity
  8
0
  6
CONTINUOUS
 62
               7
100
AcDbLine
 10
-262.24000000000001
 20
159.77000000000001
 30
0.0
 11
-154.38
 21
159.77000000000001
 31
0.0
  0
LINE
  5
744
100
AcDbEntity
  8
0
  6
CONTINUOUS
 62
               7
100
AcDbLine
 10
-262.24000000000001
 20
180.0
 30
0.0
 11
262.24000000000001
 21
180.0
 31
0.0
  0
LINE
  5
745
100
AcDbEntity
  8
0
  6
CONTINUOUS
 62
               7
100
AcDbLine
 10
-262.24000000000001
 20
-180.0
 30
0.0
 11
262.24000000000001
 21
-180.0
 31
0.0
  0
LINE
  5
746
100
AcDbEntity
  8
0
  6
CONTINUOUS
 62
               7
100
AcDbLine
 10
262.24000000000001
 20
180.0
 30
0.0
 11
262.24000000000001
 21
-180.0
 31
0.0
  0
LINE
  5
747
100
AcDbEntity
  8
0
  6
CONTINUOUS
 62
               7
100
AcDbLine
 10
-262.24000000000001
 20
-180.0
 30
0.0
 11
-262.24000000000001
 21
180.0
 31
0.0
  0
ENDSEC
  0
SECTION
  2
OBJECTS
  0
DICTIONARY
  5
19
100
AcDbDictionary
  3
ACAD_GROUP
350
1A
  3
ACAD_MLINESTYLE
350
1B
  0
DICTIONARY
  5
1A
102
{ACAD_REACTORS
330
19
102
}
100
AcDbDictionary
  0
DICTIONARY
  5
1B
102
{ACAD_REACTORS
330
19
102
}
100
AcDbDictionary
  3
STANDARD
350
1C
  0
MLINESTYLE
  5
1C
102
{ACAD_REACTORS
330
1B
102
}
100
AcDbMlineStyle
  2
Standard
 70
               0
  3

 62
               0
 51
90.0
 52
90.0
 71
               2
 49
0.5
 62
             256
  6
ByLayer
 49
-0.5
 62
             256
  6
ByLayer
  0
ENDSEC
  0
EOF
