  0
SECTION
  2
HEADER
  0
ENDSEC
  0
SECTION
  2
TABLES
  0
TABLE
  2
LTYPE
 70
     4
  0
LTYPE
  2
CONTINUOUS
 70
    64
  3
Solid line
 72
    65
 73
     0
 40
0.000000
  0
LTYPE
  2
DASHED
 70
    64
  3
__ __ __ __ __ __ __ __ __ __ __ __ __ __ __
 72
    65
 73
     2
 40
3.500000
 49
2.000000
 49
-1.500000
  0
LTYPE
  2
CENTER
 70
    64
  3
____ _ ____ _ ____ _ ____ _ ____ _ ____ _ ____
 72
    65
 73
     4
 40
17.500000
 49
13.000000
 49
-1.500000
 49
1.500000
 49
-1.500000
  0
LTYPE
  2
PHANTOM
 70
    64
  3
_____ _ _ _____ _ _ _____ _ _ _____ _ _ ____  
 72
    65
 73
     6
 40
15.500000
 49
8.000000
 49
-1.500000
 49
1.500000
 49
-1.500000
 49
1.500000
 49
-1.500000
  0
LTYPE
  2
DASHED1
 70
    64
  3
__ __ __ __ __ __ __ __ __ __ __ __ __ __ __
 72
    65
 73
     2
 40
1.500000
 49
1.000000
 49
-0.500000
  0
LTYPE
  2
DASHED2
 70
    64
  3
__ __ __ __ __ __ __ __ __ __ __ __ __ __ __
 72
    65
 73
     2
 40
3.500000
 49
2.500000
 49
-1.000000
  0
LTYPE
  2
DASHED3
 70
    64
  3
__ __ __ __ __ __ __ __ __ __ __ __ __ __ __
 72
    65
 73
     2
 40
6.000000
 49
4.000000
 49
-2.000000
  0
LTYPE
  2
DASHED4
 70
    64
  3
__ __ __ __ __ __ __ __ __ __ __ __ __ __ __
 72
    65
 73
     2
 40
12.000000
 49
10.000000
 49
-2.000000
  0
LTYPE
  2
DASHED5
 70
    64
  3
__ __ __ __ __ __ __ __ __ __ __ __ __ __ __
 72
    65
 73
     2
 40
17.000000
 49
15.000000
 49
-2.000000
  0
LTYPE
  2
DASHED6
 70
    64
  3
__ __ __ __ __ __ __ __ __ __ __ __ __ __ __
 72
    65
 73
     2
 40
29.000000
 49
27.000000
 49
-2.000000
  0
LTYPE
  2
PHANTOM1
 70
    64
  3
_____ _ _ _____ _ _ _____ _ _ _____ _ _ ____  
 72
    65
 73
     6
 40
31.000000
 49
25.000000
 49
-1.500000
 49
1.000000
 49
-1.000000
 49
1.000000
 49
-1.500000
  0
LTYPE
  2
PHANTOM2
 70
    64
  3
_____ _ _ _____ _ _ _____ _ _ _____ _ _ ____  
 72
    65
 73
     6
 40
36.000000
 49
27.000000
 49
-1.500000
 49
2.500000
 49
-1.000000
 49
2.500000
 49
-1.500000
  0
LTYPE
  2
PHANTOM3
 70
    64
  3
_____ _ _ _____ _ _ _____ _ _ _____ _ _ ____  
 72
    65
 73
     6
 40
78.000000
 49
64.000000
 49
-2.000000
 49
4.000000
 49
-2.000000
 49
4.000000
 49
-2.000000
  0
LTYPE
  2
CENTER1
 70
    64
  3
____ _ ____ _ ____ _ ____ _ ____ _ ____ _ ____
 72
    65
 73
     4
 40
19.000000
 49
14.000000
 49
-1.000000
 49
3.000000
 49
-1.000000
  0
LTYPE
  2
CENTER2
 70
    64
  3
____ _ ____ _ ____ _ ____ _ ____ _ ____ _ ____
 72
    65
 73
     4
 40
28.500000
 49
25.000000
 49
-1.000000
 49
1.500000
 49
-1.000000
  0
LTYPE
  2
CENTER3
 70
    64
  3
____ _ ____ _ ____ _ ____ _ ____ _ ____ _ ____
 72
    65
 73
     4
 40
31.500000
 49
27.000000
 49
-1.000000
 49
2.500000
 49
-1.000000
  0
LTYPE
  2
CENTER4
 70
    64
  3
____ _ ____ _ ____ _ ____ _ ____ _ ____ _ ____
 72
    65
 73
     4
 40
50.000000
 49
45.000000
 49
-1.000000
 49
3.000000
 49
-1.000000
  0
LTYPE
  2
CENTER5
 70
    64
  3
____ _ ____ _ ____ _ ____ _ ____ _ ____ _ ____
 72
    65
 73
     4
 40
100.000000
 49
92.000000
 49
-2.000000
 49
4.000000
 49
-2.000000
  0
LTYPE
  2
SBK1
 70
    64
  3
______ _ _ _ ______ _ _ _ ______ _ _ _ _____  
 72
    65
 73
     8
 40
60.500000
 49
45.000000
 49
-2.000000
 49
2.500000
 49
-2.000000
 49
2.500000
 49
-2.000000
 49
2.500000
 49
-2.000000
  0
LTYPE
  2
SBK2
 70
    64
  3
______ _ _ _ ______ _ _ _ ______ _ _ _ _____  
 72
    65
 73
     8
 40
84.000000
 49
64.000000
 49
-2.000000
 49
4.000000
 49
-2.000000
 49
4.000000
 49
-2.000000
 49
4.000000
 49
-2.000000
  0
LTYPE
  2
STCH
 70
    64
  3
__ __ __ __ __ __ __ __ __ __ __ __ __ __ __
 72
    65
 73
     2
 40
3.000000
 49
1.000000
 49
-2.000000
  0
LTYPE
  2
MTCH
 70
    64
  3
_____ _ _ _____ _ _ _____ _ _ _____ _ _ ____  
 72
    65
 73
     6
 40
80.000000
 49
66.000000
 49
-2.000000
 49
4.000000
 49
-2.000000
 49
4.000000
 49
-2.000000
  0
ENDTAB
  0
TABLE
  2
LAYER
 70
     1
  0
LAYER
  2
0
 70
     0
 62
     7
  6
CONTINUOUS
  0
ENDTAB
  0
TABLE
  2
STYLE
 70
     1
  0
STYLE
  2
STANDARD
 70
     0
 40
0.000000
 41
1.000000
 50
0.000000
 71
     0
 42
0.200000
  3
txt
  4
BIGFONT
  0
ENDTAB
  0
TABLE
  2
VIEW
 70
     0
  0
ENDTAB
  0
ENDSEC
  0
SECTION
  2
BLOCKS
  0
ENDSEC
  0
SECTION
  2
ENTITIES
  0
LINE
  8
0
 10
-94.250000
 20
132.600006
 11
-94.250000
 21
117.600006
  0
LINE
  8
0
 10
-194.250000
 20
117.600006
 11
-94.250000
 21
117.600006
  0
LINE
  8
0
 10
94.800003
 20
132.600006
 11
94.800003
 21
117.600006
  0
LINE
  8
0
 10
94.800003
 20
117.600006
 11
194.800003
 21
117.600006
  0
LINE
  8
0
 10
94.800003
 20
-113.500000
 11
94.800003
 21
-133.500000
  0
LINE
  8
0
 10
65.116669
 20
-113.500000
 11
194.800003
 21
-113.500000
  0
LINE
  8
0
 10
-194.250000
 20
-123.500000
 11
65.116669
 21
-123.500000
  0
LINE
  8
0
 10
210.000000
 20
148.500000
 11
210.000000
 21
-148.500000
  0
LINE
  8
0
 10
-210.000000
 20
148.500000
 11
-210.000000
 21
-148.500000
  0
LINE
  8
0
 10
-210.000000
 20
148.500000
 11
210.000000
 21
148.500000
  0
LINE
  8
0
 10
-210.000000
 20
-148.500000
 11
210.000000
 21
-148.500000
  0
LINE
  8
0
 10
-194.250000
 20
132.600006
 11
194.800003
 21
132.600006
  0
LINE
  8
0
 10
194.800003
 20
132.600006
 11
194.800003
 21
-133.500000
  0
LINE
  8
0
 10
-194.250000
 20
132.600006
 11
-194.250000
 21
-133.500000
  0
LINE
  8
0
 10
-194.250000
 20
-133.500000
 11
194.800003
 21
-133.500000
  0
LINE
  8
0
 10
-64.566666
 20
132.600006
 11
-64.566666
 21
-133.500000
  0
LINE
  8
0
 10
65.116669
 20
132.600006
 11
65.116669
 21
-133.500000
  0
LINE
  8
0
 10
-194.250000
 20
-0.449997
 11
194.800003
 21
-0.449997
  0
LINE
  8
0
 10
-194.250000
 20
9.550003
 11
194.800003
 21
9.550003
  0
LINE
  8
0
 10
65.116669
 20
-103.500000
 11
194.800003
 21
-103.500000
  0
TEXT
  8
0
 10
-194.128311
 20
120.880005
 40
5.800000
  1
QUICK FITTING,BBD
 50
0.000000
 41
1.052632
 51
0.000000
  7
STANDARD
  0
TEXT
  8
0
 10
100.721687
 20
120.880005
 40
5.800000
  1
DATE: MAY ,1992
 50
0.000000
 41
1.052632
 51
0.000000
  7
STANDARD
  0
TEXT
  8
0
 10
90.700897
 20
-128.800003
 40
7.000000
  1
ＫＯＧＡＮＥＩ，ＣＯＲＰ．
 50
0.000000
 41
0.902367
 51
15.000000
  7
STANDARD
  0
TEXT
  8
0
 10
-189.000000
 20
2.070003
 40
5.800000
  1
MODEL:BBD01-M5
 50
0.000000
 41
1.052632
 51
0.000000
  7
STANDARD
  0
TEXT
  8
0
 10
-59.316666
 20
2.070003
 40
5.800000
  1
MODEL:BBD02-01
 50
0.000000
 41
1.052632
 51
0.000000
  7
STANDARD
  0
TEXT
  8
0
 10
70.366669
 20
2.070003
 40
5.800000
  1
MODEL:BBD03-01
 50
0.000000
 41
1.052632
 51
0.000000
  7
STANDARD
  0
TEXT
  8
0
 10
70.366669
 20
-110.980003
 40
5.800000
  1
MODEL:BBD04-03
 50
0.000000
 41
1.052632
 51
0.000000
  7
STANDARD
  0
TEXT
  8
0
 10
-59.316666
 20
-130.979996
 40
5.800000
  1
MODEL:BBD04-02
 50
0.000000
 41
1.052632
 51
0.000000
  7
STANDARD
  0
TEXT
  8
0
 10
-189.000000
 20
-130.979996
 40
5.800000
  1
MODEL:BBD03-02
 50
0.000000
 41
1.052632
 51
0.000000
  7
STANDARD
  0
POINT
  8
0
 10
-170.000000
 20
60.000000
  0
POINT
  8
0
 10
-152.999985
 20
60.000004
  0
LINE
  8
0
 10
-163.000000
 20
56.000000
 11
-169.699997
 21
56.000000
  0
LINE
  8
0
 10
-162.695969
 20
52.100037
 11
-162.999985
 21
53.234661
  0
LINE
  8
0
  6
CENTER
 10
-149.999985
 20
60.000004
 11
-173.000000
 21
60.000000
  0
LINE
  8
0
 10
-170.000000
 20
63.700001
 11
-170.000000
 21
56.299999
  0
LINE
  8
0
 10
-163.000000
 20
67.000000
 11
-163.000000
 21
53.234642
  0
LINE
  8
0
 10
-153.315659
 20
67.899994
 11
-162.695984
 21
67.899994
  0
LINE
  8
0
 10
-152.999985
 20
66.721916
 11
-152.999985
 21
53.278107
  0
LINE
  8
0
 10
-152.987595
 20
66.675697
 11
-153.315643
 21
67.900002
  0
LINE
  8
0
 10
-162.695984
 20
67.899994
 11
-163.000000
 21
66.765366
  0
LINE
  8
0
  6
DASHED
 10
-165.000000
 20
62.500000
 11
-170.000000
 21
62.500000
  0
LINE
  8
0
  6
DASHED
 10
-165.000000
 20
62.099998
 11
-170.000000
 21
62.099998
  0
LINE
  8
0
  6
DASHED
 10
-165.000000
 20
62.500000
 11
-165.000000
 21
57.500000
  0
LINE
  8
0
  6
DASHED
 10
-160.987595
 20
64.627304
 11
-160.987595
 21
55.372723
  0
LINE
  8
0
  6
DASHED
 10
-153.002930
 20
64.291641
 11
-160.987595
 21
64.026955
  0
LINE
  8
0
  6
DASHED
 10
-153.022812
 20
64.891296
 11
-161.007477
 21
64.626610
  0
LINE
  8
0
 10
-153.315659
 20
63.500004
 11
-162.684341
 21
63.500000
  0
LINE
  8
0
 10
-163.000000
 20
64.000000
 11
-169.699997
 21
64.000000
  0
LINE
  8
0
  6
DASHED
 10
-165.000000
 20
57.500000
 11
-170.000000
 21
57.500000
  0
LINE
  8
0
  6
DASHED
 10
-165.000000
 20
57.900002
 11
-170.000000
 21
57.900002
  0
LINE
  8
0
 10
-153.315659
 20
56.500004
 11
-162.684326
 21
56.500000
  0
LINE
  8
0
  6
DASHED
 10
-153.002930
 20
55.708366
 11
-160.987595
 21
55.973042
  0
LINE
  8
0
  6
DASHED
 10
-153.022812
 20
55.108692
 11
-161.007477
 21
55.373383
  0
LINE
  8
0
 10
-152.987595
 20
53.324314
 11
-153.315643
 21
52.100018
  0
LINE
  8
0
 10
-153.315643
 20
52.100010
 11
-162.695969
 21
52.100006
  0
LINE
  8
0
 10
-169.699997
 20
64.000000
 11
-170.000000
 21
63.700001
  0
LINE
  8
0
 10
-170.000000
 20
56.299999
 11
-169.699997
 21
56.000000
  0
LINE
  8
0
 10
-169.699997
 20
64.000000
 11
-169.699997
 21
56.000000
  0
ARC
  8
0
 10
-168.522659
 20
66.675690
 40
15.535051
 50
348.204437
 51
0.000000
  0
ARC
  8
0
 10
-172.561234
 20
60.000000
 40
19.561239
 50
349.692871
 51
10.307198
  0
ARC
  8
0
 10
-168.522659
 20
53.324310
 40
15.535065
 50
0.000000
 51
11.795576
  0
ARC
  8
0
 10
-147.477325
 20
66.675697
 40
15.535065
 50
179.999969
 51
191.795532
  0
ARC
  8
0
 10
-143.438751
 20
60.000008
 40
19.561247
 50
169.692764
 51
190.307114
  0
ARC
  8
0
 10
-147.477325
 20
53.324314
 40
15.535055
 50
168.204376
 51
179.999954
  0
POINT
  8
0
 10
-100.000000
 20
60.000000
  0
POINT
  8
0
 10
-93.000000
 20
60.000000
  0
LINE
  8
0
  6
CENTER
 10
-100.000000
 20
71.165039
 11
-100.000000
 21
48.834961
  0
LINE
  8
0
  6
CENTER
 10
-88.834961
 20
60.000004
 11
-111.165039
 21
59.999996
  0
LINE
  8
0
 10
-107.000000
 20
63.675644
 11
-107.000000
 21
56.324352
  0
LINE
  8
0
 10
-93.000000
 20
63.675648
 11
-93.000000
 21
56.324356
  0
LINE
  8
0
 10
-100.316803
 20
67.900002
 11
-106.683205
 21
64.224350
  0
LINE
  8
0
 10
-93.316795
 20
55.775646
 11
-99.683197
 21
52.099998
  0
LINE
  8
0
 10
-106.683197
 20
55.775642
 11
-100.316795
 21
52.099998
  0
LINE
  8
0
 10
-99.683205
 20
67.900002
 11
-93.316803
 21
64.224358
  0
LINE
  8
0
 10
-100.316803
 20
52.099998
 11
-99.683197
 21
52.099998
  0
LINE
  8
0
 10
-100.316803
 20
67.900002
 11
-99.683197
 21
67.900002
  0
LINE
  8
0
 10
-106.683205
 20
64.224350
 11
-107.000000
 21
63.675644
  0
LINE
  8
0
 10
-93.000000
 20
56.324356
 11
-93.316795
 21
55.775646
  0
LINE
  8
0
 10
-107.000000
 20
56.324352
 11
-106.683197
 21
55.775642
  0
LINE
  8
0
 10
-93.316803
 20
64.224358
 11
-93.000000
 21
63.675648
  0
CIRCLE
  8
0
 10
-99.999611
 20
59.977135
 40
7.000000
  0
CIRCLE
  8
0
 10
-99.999611
 20
59.977135
 40
4.283000
  0
CIRCLE
  8
0
 10
-99.999611
 20
59.977135
 40
4.883000
  0
POINT
  8
0
 10
-40.000000
 20
60.000000
  0
POINT
  8
0
 10
-19.000000
 20
60.000008
  0
LINE
  8
0
  6
CENTER
 10
-16.000000
 20
60.000008
 11
-43.000000
 21
60.000000
  0
LINE
  8
0
 10
-40.000000
 20
66.699997
 11
-40.000000
 21
53.299999
  0
LINE
  8
0
 10
-32.000000
 20
68.560822
 11
-32.000000
 21
68.557274
  0
LINE
  8
0
 10
-19.000002
 20
68.079483
 11
-18.999998
 21
51.920525
  0
LINE
  8
0
 10
-32.000000
 20
67.000000
 11
-39.700001
 21
67.000000
  0
LINE
  8
0
 10
-19.353838
 20
69.400002
 11
-31.774197
 21
69.400002
  0
LINE
  8
0
 10
-32.000000
 20
68.557281
 11
-31.999998
 21
51.442757
  0
LINE
  8
0
 10
-18.999994
 20
68.079483
 11
-19.353827
 21
69.400009
  0
LINE
  8
0
 10
-31.774197
 20
69.400002
 11
-32.000004
 21
68.557274
  0
LINE
  8
0
  6
DASHED
 10
-30.000002
 20
66.157997
 11
-29.999998
 21
53.842007
  0
LINE
  8
0
  6
DASHED
 10
-18.990267
 20
65.729706
 11
-30.000000
 21
65.357544
  0
LINE
  8
0
  6
DASHED
 10
-19.017294
 20
66.529251
 11
-30.027027
 21
66.157089
  0
LINE
  8
0
  6
DASHED
 10
-32.200005
 20
64.513008
 11
-40.022717
 21
64.734619
  0
LINE
  8
0
  6
DASHED
 10
-32.200005
 20
65.113251
 11
-40.005726
 21
65.334373
  0
LINE
  8
0
  6
DASHED
 10
-32.200001
 20
65.113251
 11
-32.200001
 21
54.886753
  0
LINE
  8
0
 10
-19.353832
 20
64.000008
 11
-31.646172
 21
64.000000
  0
LINE
  8
0
 10
-19.353828
 20
56.000004
 11
-31.646168
 21
56.000000
  0
LINE
  8
0
  6
DASHED
 10
-18.990267
 20
54.270309
 11
-29.999998
 21
54.642464
  0
LINE
  8
0
  6
DASHED
 10
-19.017286
 20
53.470764
 11
-30.027023
 21
53.842918
  0
LINE
  8
0
 10
-18.999996
 20
51.920528
 11
-19.353825
 21
50.600006
  0
LINE
  8
0
 10
-19.353834
 20
50.600006
 11
-31.774189
 21
50.600002
  0
LINE
  8
0
 10
-31.774183
 20
50.600006
 11
-31.999990
 21
51.442734
  0
LINE
  8
0
 10
-31.999996
 20
53.000000
 11
-39.699997
 21
53.000000
  0
LINE
  8
0
  6
DASHED
 10
-32.200005
 20
54.886753
 11
-40.005726
 21
54.665627
  0
LINE
  8
0
  6
DASHED
 10
-32.199997
 20
55.486992
 11
-40.022713
 21
55.265381
  0
LINE
  8
0
 10
-39.700001
 20
67.000000
 11
-40.000000
 21
66.699997
  0
LINE
  8
0
 10
-40.000000
 20
53.299999
 11
-39.699997
 21
52.999996
  0
LINE
  8
0
 10
-39.700001
 20
67.000000
 11
-39.699997
 21
53.000000
  0
ARC
  8
0
 10
-42.693733
 20
68.079475
 40
23.693733
 50
350.085693
 51
0.000000
  0
ARC
  8
0
 10
-42.693726
 20
51.920521
 40
23.693731
 50
0.000000
 51
9.914310
  0
ARC
  8
0
 10
-41.786621
 20
60.000000
 40
22.786619
 50
349.889832
 51
10.110217
  0
ARC
  8
0
 10
-8.306273
 20
68.079491
 40
23.693735
 50
179.999969
 51
189.914276
  0
ARC
  8
0
 10
-9.213379
 20
60.000011
 40
22.786621
 50
169.889740
 51
190.110138
  0
ARC
  8
0
 10
-8.306269
 20
51.920532
 40
23.693733
 50
170.085648
 51
179.999969
  0
POINT
  8
0
 10
30.000000
 20
60.000000
  0
POINT
  8
0
 10
38.550644
 20
60.000004
  0
LINE
  8
0
  6
CENTER
 10
29.999996
 20
72.400002
 11
30.000004
 21
47.599998
  0
LINE
  8
0
  6
CENTER
 10
42.400002
 20
60.000004
 11
17.600000
 21
59.999996
  0
LINE
  8
0
 10
21.449352
 20
63.989841
 11
21.449354
 21
56.010151
  0
LINE
  8
0
 10
22.269367
 20
54.589844
 11
29.179987
 21
50.599998
  0
LINE
  8
0
 10
30.820021
 20
50.599998
 11
37.730629
 21
54.589844
  0
LINE
  8
0
 10
38.550644
 20
56.010155
 11
38.550644
 21
63.989849
  0
LINE
  8
0
 10
37.730629
 20
65.410156
 11
30.820015
 21
69.400002
  0
LINE
  8
0
 10
29.179979
 20
69.400002
 11
22.269369
 21
65.410156
  0
LINE
  8
0
 10
29.179981
 20
69.400002
 11
30.820013
 21
69.400002
  0
LINE
  8
0
 10
29.179985
 20
50.599998
 11
30.820019
 21
50.599998
  0
LINE
  8
0
 10
22.269369
 20
65.410156
 11
21.449352
 21
63.989841
  0
LINE
  8
0
 10
38.550644
 20
56.010155
 11
37.730629
 21
54.589844
  0
LINE
  8
0
 10
21.449352
 20
56.010151
 11
22.269367
 21
54.589844
  0
LINE
  8
0
 10
37.730633
 20
65.410156
 11
38.550644
 21
63.989853
  0
CIRCLE
  8
0
 10
30.000000
 20
60.000000
 40
6.522500
  0
CIRCLE
  8
0
 10
30.000000
 20
60.000000
 40
8.500000
  0
CIRCLE
  8
0
 10
30.000000
 20
60.000000
 40
5.722500
  0
POINT
  8
0
 10
90.000000
 20
60.000000
  0
POINT
  8
0
 10
112.000000
 20
60.000008
  0
LINE
  8
0
 10
111.627518
 20
48.300007
 11
98.266693
 21
48.300003
  0
LINE
  8
0
 10
98.000000
 20
53.000000
 11
90.300003
 21
53.000000
  0
LINE
  8
0
  6
CENTER
 10
115.000000
 20
60.000008
 11
87.000000
 21
60.000000
  0
LINE
  8
0
 10
90.000000
 20
66.699997
 11
90.000000
 21
53.300003
  0
LINE
  8
0
 10
112.000000
 20
70.500000
 11
112.000000
 21
49.690125
  0
LINE
  8
0
 10
98.000000
 20
67.000000
 11
90.300003
 21
67.000000
  0
LINE
  8
0
 10
111.627518
 20
71.700005
 11
98.266693
 21
71.699997
  0
LINE
  8
0
 10
98.266670
 20
71.699997
 11
97.999977
 21
70.704697
  0
LINE
  8
0
  6
DASHED
 10
100.000000
 20
68.038788
 11
100.000000
 21
60.000000
  0
LINE
  8
0
  6
DASHED
 10
112.010712
 20
67.449211
 11
100.000000
 21
67.038193
  0
LINE
  8
0
  6
DASHED
 10
111.976509
 20
68.448624
 11
99.965797
 21
68.037613
  0
LINE
  8
0
  6
DASHED
 10
97.800003
 20
63.980305
 11
89.941879
 21
64.279091
  0
LINE
  8
0
  6
DASHED
 10
97.799995
 20
64.580742
 11
89.964676
 21
64.878654
  0
LINE
  8
0
 10
98.000000
 20
70.704750
 11
98.000000
 21
49.295288
  0
LINE
  8
0
  6
DASHED
 10
97.799995
 20
64.573151
 11
97.800003
 21
60.000000
  0
LINE
  8
0
 10
111.733322
 20
65.100006
 11
98.266678
 21
65.099998
  0
LINE
  8
0
 10
111.733330
 20
54.900013
 11
98.266670
 21
54.900009
  0
LINE
  8
0
  6
DASHED
 10
100.000000
 20
51.961212
 11
100.000000
 21
60.000000
  0
LINE
  8
0
  6
DASHED
 10
112.010719
 20
52.550808
 11
100.000000
 21
52.961815
  0
LINE
  8
0
  6
DASHED
 10
111.976517
 20
51.551414
 11
99.965805
 21
51.962421
  0
LINE
  8
0
 10
98.266693
 20
48.300007
 11
98.000000
 21
49.295307
  0
LINE
  8
0
  6
DASHED
 10
97.799995
 20
55.419270
 11
89.964684
 21
55.121342
  0
LINE
  8
0
  6
DASHED
 10
97.800003
 20
56.019669
 11
89.941887
 21
55.720867
  0
LINE
  8
0
  6
DASHED
 10
97.800003
 20
55.426849
 11
97.800003
 21
60.000000
  0
LINE
  8
0
 10
111.733330
 20
71.699997
 11
112.000023
 21
70.704704
  0
LINE
  8
0
 10
111.733307
 20
48.300003
 11
111.999992
 21
49.295307
  0
LINE
  8
0
 10
90.300003
 20
67.000000
 11
90.000000
 21
66.700005
  0
LINE
  8
0
 10
90.000000
 20
53.300003
 11
90.300003
 21
53.000000
  0
LINE
  8
0
 10
90.299995
 20
67.000000
 11
90.300003
 21
53.000000
  0
ARC
  8
0
 10
157.026978
 20
70.704697
 40
59.026985
 50
180.000015
 51
185.448563
  0
ARC
  8
0
 10
146.900452
 20
60.000000
 40
48.900452
 50
174.013519
 51
185.986465
  0
ARC
  8
0
 10
157.026947
 20
49.295300
 40
59.026970
 50
174.551437
 51
179.999985
  0
ARC
  8
0
 10
52.973038
 20
70.704697
 40
59.026978
 50
354.551422
 51
359.999969
  0
ARC
  8
0
 10
63.099541
 20
60.000004
 40
48.900459
 50
354.013519
 51
5.986449
  0
ARC
  8
0
 10
52.973038
 20
49.295303
 40
59.026978
 50
0.000000
 51
5.448538
  0
POINT
  8
0
 10
160.000000
 20
60.000000
  0
POINT
  8
0
 10
170.500000
 20
60.000004
  0
LINE
  8
0
 10
149.500000
 20
65.213463
 11
149.500000
 21
54.786533
  0
LINE
  8
0
 10
150.235001
 20
53.513466
 11
159.264999
 21
48.299999
  0
LINE
  8
0
 10
160.735016
 20
48.299999
 11
169.764984
 21
53.513458
  0
LINE
  8
0
 10
170.500000
 20
54.786526
 11
170.500000
 21
65.213478
  0
LINE
  8
0
 10
169.764999
 20
66.486534
 11
160.735001
 21
71.699997
  0
LINE
  8
0
 10
159.264984
 20
71.699997
 11
150.235001
 21
66.486534
  0
LINE
  8
0
  6
CENTER
 10
160.000000
 20
74.699997
 11
160.000000
 21
45.299999
  0
LINE
  8
0
  6
CENTER
 10
174.699997
 20
60.000004
 11
145.300003
 21
59.999996
  0
LINE
  8
0
 10
149.500000
 20
54.786533
 11
150.235001
 21
53.513466
  0
LINE
  8
0
 10
169.764999
 20
66.486534
 11
170.500000
 21
65.213478
  0
LINE
  8
0
 10
160.735001
 20
71.699997
 11
159.264984
 21
71.699997
  0
LINE
  8
0
 10
160.735016
 20
48.299999
 11
159.264999
 21
48.299999
  0
LINE
  8
0
 10
150.235001
 20
66.486534
 11
149.500000
 21
65.213463
  0
LINE
  8
0
 10
170.500000
 20
54.786526
 11
169.764984
 21
53.513458
  0
CIRCLE
  8
0
 10
160.000000
 20
60.000000
 40
7.475000
  0
CIRCLE
  8
0
 10
160.000000
 20
60.000000
 40
8.475000
  0
CIRCLE
  8
0
 10
160.000000
 20
60.000000
 40
10.500000
  0
POINT
  8
0
 10
-145.000000
 20
-70.000008
  0
POINT
  8
0
 10
-170.000000
 20
-70.000000
  0
LINE
  8
0
  6
DASHED
 10
-159.299988
 20
-75.869621
 11
-170.070908
 21
-76.247536
  0
LINE
  8
0
  6
DASHED
 10
-159.299988
 20
-76.670120
 11
-170.042862
 21
-77.047058
  0
LINE
  8
0
  6
CENTER
 10
-142.000000
 20
-70.000015
 11
-173.000000
 21
-70.000000
  0
LINE
  8
0
 10
-170.000000
 20
-62.000000
 11
-170.000000
 21
-78.000000
  0
LINE
  8
0
 10
-159.000000
 20
-59.500004
 11
-159.000000
 21
-80.659027
  0
LINE
  8
0
 10
-145.000000
 20
-59.500008
 11
-145.000000
 21
-80.130081
  0
LINE
  8
0
 10
-145.420654
 20
-58.300018
 11
-158.678467
 21
-58.300011
  0
LINE
  8
0
 10
-159.000000
 20
-61.500008
 11
-169.500000
 21
-61.500000
  0
LINE
  8
0
  6
DASHED
 10
-145.080750
 20
-62.508610
 11
-158.700012
 21
-62.991550
  0
LINE
  8
0
  6
DASHED
 10
-145.116180
 20
-61.509232
 11
-158.700012
 21
-61.990917
  0
LINE
  8
0
  6
DASHED
 10
-159.299988
 20
-64.130402
 11
-170.070908
 21
-63.752472
  0
LINE
  8
0
  6
DASHED
 10
-159.299988
 20
-63.329899
 11
-170.042847
 21
-62.952957
  0
LINE
  8
0
  6
DASHED
 10
-158.699997
 20
-61.990925
 11
-158.700012
 21
-78.009079
  0
LINE
  8
0
  6
DASHED
 10
-159.299988
 20
-63.329899
 11
-159.300003
 21
-76.670120
  0
LINE
  8
0
 10
-145.321533
 20
-65.000015
 11
-158.678467
 21
-65.000008
  0
LINE
  8
0
 10
-145.321533
 20
-75.000015
 11
-158.678467
 21
-75.000008
  0
LINE
  8
0
  6
DASHED
 10
-145.080750
 20
-77.491409
 11
-158.700012
 21
-77.008446
  0
LINE
  8
0
  6
DASHED
 10
-145.116180
 20
-78.490791
 11
-158.700012
 21
-78.009079
  0
LINE
  8
0
 10
-145.420654
 20
-81.700012
 11
-158.721085
 21
-81.700005
  0
LINE
  8
0
 10
-159.000000
 20
-78.500008
 11
-169.500000
 21
-78.500000
  0
LINE
  8
0
 10
-158.678452
 20
-58.300007
 11
-159.000000
 21
-59.500004
  0
LINE
  8
0
 10
-158.678467
 20
-81.699997
 11
-159.000000
 21
-80.500000
  0
LINE
  8
0
 10
-145.321533
 20
-58.300011
 11
-145.000000
 21
-59.500008
  0
LINE
  8
0
 10
-145.321533
 20
-81.700012
 11
-144.999985
 21
-80.500015
  0
LINE
  8
0
 10
-169.500000
 20
-61.500004
 11
-170.000000
 21
-62.000004
  0
LINE
  8
0
 10
-169.500000
 20
-78.500000
 11
-170.000000
 21
-78.000000
  0
LINE
  8
0
 10
-169.500000
 20
-61.500000
 11
-169.500000
 21
-78.500000
  0
ARC
  8
0
 10
-111.799622
 20
-59.500015
 40
47.200378
 50
179.999985
 51
186.691528
  0
ARC
  8
0
 10
-111.799629
 20
-80.500015
 40
47.200382
 50
173.308380
 51
179.999939
  0
ARC
  8
0
 10
-119.963577
 20
-70.000015
 40
39.036419
 50
172.640961
 51
187.358932
  0
ARC
  8
0
 10
-192.200378
 20
-59.499992
 40
47.200375
 50
353.308350
 51
359.999908
  0
ARC
  8
0
 10
-184.036423
 20
-70.000000
 40
39.036419
 50
352.640930
 51
7.358908
  0
ARC
  8
0
 10
-192.200378
 20
-80.499992
 40
47.200378
 50
359.999939
 51
6.691489
  0
POINT
  8
0
 10
-100.000000
 20
-70.000000
  0
POINT
  8
0
 10
-89.500008
 20
-70.000000
  0
LINE
  8
0
 10
-110.500000
 20
-64.786530
 11
-110.500000
 21
-75.213455
  0
LINE
  8
0
 10
-109.764999
 20
-76.486526
 11
-100.735008
 21
-81.699997
  0
LINE
  8
0
 10
-99.264999
 20
-81.699997
 11
-90.235016
 21
-76.486542
  0
LINE
  8
0
 10
-89.500008
 20
-75.213486
 11
-89.500000
 21
-64.786530
  0
LINE
  8
0
 10
-90.235001
 20
-63.513477
 11
-99.264992
 21
-58.299999
  0
LINE
  8
0
 10
-100.735001
 20
-58.299999
 11
-109.764992
 21
-63.513458
  0
LINE
  8
0
  6
CENTER
 10
-99.999992
 20
-55.299999
 11
-100.000008
 21
-84.699997
  0
LINE
  8
0
  6
CENTER
 10
-85.300003
 20
-70.000008
 11
-114.699997
 21
-69.999992
  0
LINE
  8
0
 10
-100.735008
 20
-81.699997
 11
-99.264999
 21
-81.699997
  0
LINE
  8
0
 10
-100.735001
 20
-58.299999
 11
-99.264984
 21
-58.299999
  0
LINE
  8
0
 10
-109.764992
 20
-63.513458
 11
-110.500000
 21
-64.786530
  0
LINE
  8
0
 10
-89.500008
 20
-75.213486
 11
-90.235016
 21
-76.486542
  0
LINE
  8
0
 10
-110.500008
 20
-75.213463
 11
-109.764999
 21
-76.486526
  0
LINE
  8
0
 10
-90.235001
 20
-63.513477
 11
-89.500000
 21
-64.786530
  0
CIRCLE
  8
0
 10
-100.000000
 20
-70.000000
 40
7.475000
  0
CIRCLE
  8
0
 10
-100.000000
 20
-70.000000
 40
8.475000
  0
CIRCLE
  8
0
 10
-100.000000
 20
-70.000000
 40
10.500000
  0
POINT
  8
0
 10
-40.000000
 20
-70.000000
  0
POINT
  8
0
 10
-10.000000
 20
-69.999992
  0
LINE
  8
0
 10
-28.618917
 20
-83.249992
 11
-28.999985
 21
-81.827850
  0
LINE
  8
0
  6
CENTER
 10
-7.000000
 20
-69.999992
 11
-43.000000
 21
-70.000000
  0
LINE
  8
0
 10
-40.000000
 20
-62.000000
 11
-40.000000
 21
-78.000000
  0
LINE
  8
0
 10
-29.000004
 20
-57.999996
 11
-28.999996
 21
-81.827850
  0
LINE
  8
0
 10
-10.000004
 20
-57.999992
 11
-9.999998
 21
-81.827789
  0
LINE
  8
0
  6
DASHED
 10
-25.000002
 20
-60.089695
 11
-25.000000
 21
-69.999992
  0
LINE
  8
0
 10
-10.408346
 20
-56.749992
 11
-28.665068
 21
-56.749996
  0
LINE
  8
0
  6
DASHED
 10
-9.991653
 20
-60.676739
 11
-25.000004
 21
-61.190338
  0
LINE
  8
0
  6
DASHED
 10
-10.029274
 20
-59.577385
 11
-25.000004
 21
-60.089695
  0
LINE
  8
0
 10
-29.000004
 20
-61.499996
 11
-39.500004
 21
-61.500000
  0
LINE
  8
0
  6
DASHED
 10
-29.250000
 20
-64.160149
 11
-39.994221
 21
-63.765465
  0
LINE
  8
0
  6
DASHED
 10
-29.250004
 20
-63.359612
 11
-39.964851
 21
-62.966007
  0
LINE
  8
0
  6
DASHED
 10
-29.250002
 20
-63.359612
 11
-29.250000
 21
-70.000000
  0
LINE
  8
0
 10
-10.334936
 20
-63.999992
 11
-28.665060
 21
-63.999996
  0
LINE
  8
0
  6
DASHED
 10
-29.249998
 20
-76.640381
 11
-29.250000
 21
-70.000000
  0
LINE
  8
0
  6
DASHED
 10
-29.250008
 20
-75.839844
 11
-39.994225
 21
-76.234528
  0
LINE
  8
0
  6
DASHED
 10
-29.250006
 20
-76.640381
 11
-39.964848
 21
-77.033997
  0
LINE
  8
0
 10
-28.999996
 20
-78.500000
 11
-39.499996
 21
-78.500000
  0
LINE
  8
0
 10
-10.334932
 20
-75.999992
 11
-28.665064
 21
-76.000000
  0
LINE
  8
0
  6
DASHED
 10
-24.999998
 20
-79.910294
 11
-25.000000
 21
-69.999992
  0
LINE
  8
0
  6
DASHED
 10
-9.991650
 20
-79.323242
 11
-25.000000
 21
-78.809654
  0
LINE
  8
0
  6
DASHED
 10
-10.029270
 20
-80.422600
 11
-24.999998
 21
-79.910294
  0
LINE
  8
0
 10
-10.408335
 20
-83.249992
 11
-28.618938
 21
-83.250000
  0
LINE
  8
0
 10
-28.665070
 20
-56.749996
 11
-29.000008
 21
-57.999996
  0
LINE
  8
0
 10
-10.334932
 20
-56.749992
 11
-9.999996
 21
-57.999989
  0
LINE
  8
0
 10
-10.381088
 20
-83.249985
 11
-10.000025
 21
-81.827843
  0
LINE
  8
0
 10
-39.500004
 20
-61.500000
 11
-40.000004
 21
-62.000000
  0
LINE
  8
0
 10
-39.499996
 20
-78.500000
 11
-39.999996
 21
-78.000000
  0
LINE
  8
0
 10
-39.500004
 20
-61.500000
 11
-39.499996
 21
-78.500000
  0
ARC
  8
0
 10
24.909058
 20
-69.999977
 40
53.909054
 50
173.609802
 51
186.390182
  0
ARC
  8
0
 10
24.909119
 20
-57.999981
 40
53.909122
 50
180.000031
 51
186.390198
  0
ARC
  8
0
 10
24.909119
 20
-81.999977
 40
53.909115
 50
173.609802
 51
179.999969
  0
ARC
  8
0
 10
-63.909119
 20
-58.000008
 40
53.909115
 50
353.609772
 51
359.999939
  0
ARC
  8
0
 10
-63.909058
 20
-70.000008
 40
53.909058
 50
353.609772
 51
6.390161
  0
ARC
  8
0
 10
-63.909115
 20
-82.000008
 40
53.909119
 50
0.000000
 51
6.390162
  0
POINT
  8
0
 10
30.000000
 20
-70.000000
  0
POINT
  8
0
 10
42.000000
 20
-70.000000
  0
LINE
  8
0
 10
17.999994
 20
-64.284622
 11
17.999996
 21
-75.715385
  0
LINE
  8
0
 10
19.050327
 20
-77.534615
 11
28.949677
 21
-83.250000
  0
LINE
  8
0
 10
31.050337
 20
-83.250000
 11
40.949669
 21
-77.534615
  0
LINE
  8
0
 10
42.000000
 20
-75.715393
 11
41.999996
 21
-64.284607
  0
LINE
  8
0
 10
40.949673
 20
-62.465389
 11
31.050323
 21
-56.750000
  0
LINE
  8
0
 10
28.949663
 20
-56.750000
 11
19.050329
 21
-62.465385
  0
LINE
  8
0
  6
CENTER
 10
29.999996
 20
-53.750000
 11
30.000004
 21
-86.250000
  0
LINE
  8
0
  6
CENTER
 10
46.250000
 20
-69.999992
 11
13.750000
 21
-70.000008
  0
LINE
  8
0
 10
17.999996
 20
-75.715385
 11
19.050327
 21
-77.534615
  0
LINE
  8
0
 10
40.949673
 20
-62.465389
 11
42.000000
 21
-64.284599
  0
LINE
  8
0
 10
31.050323
 20
-56.750000
 11
28.949663
 21
-56.750000
  0
LINE
  8
0
 10
31.050337
 20
-83.250000
 11
28.949677
 21
-83.250000
  0
LINE
  8
0
 10
19.050329
 20
-62.465385
 11
17.999994
 21
-64.284622
  0
LINE
  8
0
 10
42.000000
 20
-75.715393
 11
40.949669
 21
-77.534615
  0
CIRCLE
  8
0
 10
30.000000
 20
-70.000000
 40
10.415501
  0
CIRCLE
  8
0
 10
30.000000
 20
-70.000000
 40
9.315500
  0
CIRCLE
  8
0
 10
30.000000
 20
-70.000000
 40
12.000000
  0
POINT
  8
0
 10
90.000000
 20
-70.000000
  0
POINT
  8
0
 10
123.000000
 20
-69.999992
  0
LINE
  8
0
  6
DASHED
 10
90.000000
 20
-61.598629
 11
101.999992
 21
-61.911667
  0
LINE
  8
0
 10
104.000000
 20
-57.999996
 11
104.000000
 21
-82.000000
  0
LINE
  8
0
  6
DASHED
 10
102.000000
 20
-61.911678
 11
102.000000
 21
-78.088333
  0
LINE
  8
0
  6
DASHED
 10
90.000000
 20
-62.598984
 11
102.000000
 21
-62.912022
  0
LINE
  8
0
  6
DASHED
 10
122.902527
 20
-60.710911
 11
108.000000
 21
-61.231529
  0
LINE
  8
0
  6
DASHED
 10
108.000000
 20
-60.130852
 11
108.000000
 21
-69.999992
  0
LINE
  8
0
 10
104.000000
 20
-59.499996
 11
90.500000
 21
-59.500000
  0
LINE
  8
0
 10
122.584442
 20
-56.749992
 11
104.334930
 21
-56.749996
  0
LINE
  8
0
 10
123.000000
 20
-58.099987
 11
123.000000
 21
-81.699135
  0
LINE
  8
0
 10
90.000000
 20
-60.000000
 11
90.000000
 21
-80.000000
  0
LINE
  8
0
  6
CENTER
 10
126.000000
 20
-69.999992
 11
87.000000
 21
-70.000000
  0
LINE
  8
0
 10
122.665054
 20
-75.999992
 11
104.334938
 21
-76.000000
  0
LINE
  8
0
 10
122.665070
 20
-63.999992
 11
104.334930
 21
-63.999996
  0
LINE
  8
0
  6
DASHED
 10
108.000000
 20
-79.869133
 11
108.000000
 21
-69.999992
  0
LINE
  8
0
  6
DASHED
 10
122.902534
 20
-79.289032
 11
108.000000
 21
-78.768417
  0
LINE
  8
0
  6
DASHED
 10
122.864136
 20
-80.388397
 11
107.999992
 21
-79.869110
  0
LINE
  8
0
 10
122.584457
 20
-83.249992
 11
104.389771
 21
-83.250000
  0
LINE
  8
0
 10
104.000000
 20
-80.500000
 11
90.500000
 21
-80.500000
  0
LINE
  8
0
  6
DASHED
 10
90.000000
 20
-78.401352
 11
102.000000
 21
-78.088318
  0
LINE
  8
0
  6
DASHED
 10
90.000000
 20
-77.400986
 11
102.000008
 21
-77.087921
  0
LINE
  8
0
  6
DASHED
 10
102.000000
 20
-78.088318
 11
102.000000
 21
-70.000000
  0
LINE
  8
0
  6
DASHED
 10
122.864120
 20
-59.611584
 11
107.999992
 21
-60.130863
  0
LINE
  8
0
 10
104.334930
 20
-56.749996
 11
103.999992
 21
-57.999996
  0
LINE
  8
0
 10
104.334938
 20
-83.249992
 11
104.000000
 21
-81.999992
  0
LINE
  8
0
 10
122.665047
 20
-83.249985
 11
122.999985
 21
-81.999985
  0
LINE
  8
0
 10
122.665039
 20
-56.749996
 11
122.999969
 21
-57.999996
  0
LINE
  8
0
 10
90.500000
 20
-59.500000
 11
90.000000
 21
-60.000000
  0
LINE
  8
0
 10
90.000000
 20
-80.000000
 11
90.500000
 21
-80.500000
  0
LINE
  8
0
 10
90.500000
 20
-59.500000
 11
90.500000
 21
-80.500000
  0
ARC
  8
0
 10
157.909119
 20
-57.999977
 40
53.909119
 50
180.000046
 51
186.390198
  0
ARC
  8
0
 10
157.909058
 20
-69.999977
 40
53.909050
 50
173.609802
 51
186.390182
  0
ARC
  8
0
 10
157.909119
 20
-81.999977
 40
53.909111
 50
173.609802
 51
179.999969
  0
ARC
  8
0
 10
69.090881
 20
-58.000008
 40
53.909115
 50
353.609772
 51
359.999939
  0
ARC
  8
0
 10
69.090942
 20
-70.000008
 40
53.909054
 50
353.609772
 51
6.390161
  0
ARC
  8
0
 10
69.090881
 20
-82.000008
 40
53.909119
 50
0.000000
 51
6.390161
  0
POINT
  8
0
 10
160.000000
 20
-70.000000
  0
POINT
  8
0
 10
172.000000
 20
-69.999985
  0
LINE
  8
0
  6
CENTER
 10
160.000000
 20
-53.750000
 11
160.000000
 21
-86.250000
  0
LINE
  8
0
  6
CENTER
 10
176.250000
 20
-69.999992
 11
143.750000
 21
-70.000008
  0
LINE
  8
0
 10
148.000000
 20
-64.284622
 11
148.000000
 21
-75.715385
  0
LINE
  8
0
 10
149.050385
 20
-77.534714
 11
158.949585
 21
-83.250008
  0
LINE
  8
0
 10
161.050293
 20
-83.249992
 11
170.949707
 21
-77.534554
  0
LINE
  8
0
 10
172.000000
 20
-75.715385
 11
172.000000
 21
-64.284607
  0
LINE
  8
0
 10
170.949615
 20
-62.465275
 11
161.050430
 21
-56.749992
  0
LINE
  8
0
 10
158.949707
 20
-56.750008
 11
149.050293
 21
-62.465446
  0
LINE
  8
0
 10
170.949615
 20
-62.465279
 11
172.000000
 21
-64.284607
  0
LINE
  8
0
 10
148.000000
 20
-75.715385
 11
149.050385
 21
-77.534714
  0
LINE
  8
0
 10
161.050430
 20
-56.750000
 11
158.949707
 21
-56.750000
  0
LINE
  8
0
 10
161.050293
 20
-83.250000
 11
158.949585
 21
-83.250000
  0
LINE
  8
0
 10
149.050293
 20
-62.465446
 11
148.000000
 21
-64.284622
  0
LINE
  8
0
 10
172.000000
 20
-75.715385
 11
170.949707
 21
-77.534554
  0
CIRCLE
  8
0
 10
160.047684
 20
-70.000000
 40
10.415501
  0
CIRCLE
  8
0
 10
160.047684
 20
-70.000000
 40
9.315500
  0
CIRCLE
  8
0
 10
160.000000
 20
-70.000000
 40
12.000000
  0
ENDSEC
  0
EOF
