  0
SECTION
  2
HEADER
  9
$ACADVER
  1
AC1009
  9
$INSBASE
 10
0.0
 20
0.0
 30
0.0
  9
$EXTMIN
 10
-138.399994
 20
-94.800003
 30
0.0
  9
$EXTMAX
 10
138.350006
 20
94.5
 30
0.0
  9
$LIMMIN
 10
-138.399994
 20
-94.800003
  9
$LIMMAX
 10
138.350006
 20
94.5
  9
$ORTHOMODE
 70
     0
  9
$REGENMODE
 70
     1
  9
$FILLMODE
 70
     1
  9
$QTEXTMODE
 70
     0
  9
$MIRRTEXT
 70
     1
  9
$DRAGMODE
 70
     2
  9
$LTSCALE
 40
1.0
  9
$OSMODE
 70
     0
  9
$ATTMODE
 70
     1
  9
$TEXTSIZE
 40
3.2
  9
$TRACEWID
 40
0.05
  9
$TEXTSTYLE
  7
MX_NOTE_STANDARD
  9
$CLAYER
  8
0
  9
$CELTYPE
  6
CONTINUOUS
  9
$CECOLOR
 62
   256
  9
$DIMSCALE
 40
1.0
  9
$DIMASZ
 40
2.5
  9
$DIMEXO
 40
1.5
  9
$DIMDLI
 40
3.75
  9
$DIMRND
 40
0.0
  9
$DIMDLE
 40
0.0
  9
$DIMEXE
 40
1.5
  9
$DIMTP
 40
0.0
  9
$DIMTM
 40
0.0
  9
$DIMTXT
 40
3.2
  9
$DIMCEN
 40
2.5
  9
$DIMTSZ
 40
0.0
  9
$DIMTOL
 70
     0
  9
$DIMLIM
 70
     0
  9
$DIMTIH
 70
     0
  9
$DIMTOH
 70
     0
  9
$DIMSE1
 70
     0
  9
$DIMSE2
 70
     0
  9
$DIMTAD
 70
     1
  9
$DIMZIN
 70
     8
  9
$DIMBLK
  1

  9
$DIMASO
 70
     1
  9
$DIMSHO
 70
     1
  9
$DIMPOST
  1

  9
$DIMAPOST
  1

  9
$DIMALT
 70
     0
  9
$DIMALTD
 70
     4
  9
$DIMALTF
 40
0.0394
  9
$DIMLFAC
 40
1.0
  9
$DIMTOFL
 70
     1
  9
$DIMTVP
 40
0.0
  9
$DIMTIX
 70
     0
  9
$DIMSOXD
 70
     0
  9
$DIMSAH
 70
     0
  9
$DIMBLK1
  1

  9
$DIMBLK2
  1

  9
$DIMSTYLE
  2
MXDIMSTYLE
  9
$DIMCLRD
 70
     0
  9
$DIMCLRE
 70
     0
  9
$DIMCLRT
 70
     0
  9
$DIMTFAC
 40
1.0
  9
$DIMGAP
 40
1.0
  9
$LUNITS
 70
     2
  9
$LUPREC
 70
     4
  9
$AXISMODE
 70
     0
  9
$AXISUNIT
 10
0.0
 20
0.0
  9
$SKETCHINC
 40
0.1
  9
$FILLETRAD
 40
0.0
  9
$AUNITS
 70
     0
  9
$AUPREC
 70
     0
  9
$MENU
  1
acad
  9
$ELEVATION
 40
0.0
  9
$PELEVATION
 40
0.0
  9
$THICKNESS
 40
0.0
  9
$LIMCHECK
 70
     0
  9
$BLIPMODE
 70
     1
  9
$CHAMFERA
 40
0.0
  9
$CHAMFERB
 40
0.0
  9
$SKPOLY
 70
     0
  9
$TDCREATE
 40
2452026.814201389
  9
$TDUPDATE
 40
2452026.814201389
  9
$TDINDWG
 40
0.0000000000
  9
$TDUSRTIMER
 40
0.0000000000
  9
$USRTIMER
 70
     1
  9
$ANGBASE
 50
0.0
  9
$ANGDIR
 70
     0
  9
$PDMODE
 70
     0
  9
$PDSIZE
 40
0.0
  9
$PLINEWID
 40
0.0
  9
$COORDS
 70
     1
  9
$SPLFRAME
 70
     0
  9
$SPLINETYPE
 70
     6
  9
$SPLINESEGS
 70
     8
  9
$ATTDIA
 70
     0
  9
$ATTREQ
 70
     1
  9
$HANDLING
 70
     1
  9
$HANDSEED
  5
129
  9
$SURFTAB1
 70
     6
  9
$SURFTAB2
 70
     6
  9
$SURFTYPE
 70
     6
  9
$SURFU
 70
     6
  9
$SURFV
 70
     6
  9
$UCSNAME
  2

  9
$UCSORG
 10
0.0
 20
0.0
 30
0.0
  9
$UCSXDIR
 10
1.0
 20
0.0
 30
0.0
  9
$UCSYDIR
 10
0.0
 20
1.0
 30
0.0
  9
$PUCSNAME
  2

  9
$PUCSORG
 10
0.0
 20
0.0
 30
0.0
  9
$PUCSXDIR
 10
1.0
 20
0.0
 30
0.0
  9
$PUCSYDIR
 10
0.0
 20
1.0
 30
0.0
  9
$USERI1
 70
     0
  9
$USERI2
 70
     0
  9
$USERI3
 70
     0
  9
$USERI4
 70
     0
  9
$USERI5
 70
     0
  9
$USERR1
 40
0.0
  9
$USERR2
 40
0.0
  9
$USERR3
 40
0.0
  9
$USERR4
 40
0.0
  9
$USERR5
 40
0.0
  9
$WORLDVIEW
 70
     1
  9
$SHADEDGE
 70
     3
  9
$SHADEDIF
 70
    70
  9
$TILEMODE
 70
     1
  9
$MAXACTVP
 70
    16
  9
$PINSBASE
 10
0.0
 20
0.0
 30
0.0
  9
$PLIMCHECK
 70
     0
  9
$PEXTMIN
 10
1.000000E+20
 20
1.000000E+20
 30
1.000000E+20
  9
$PEXTMAX
 10
-1.000000E+20
 20
-1.000000E+20
 30
-1.000000E+20
  9
$PLIMMIN
 10
0.0
 20
0.0
  9
$PLIMMAX
 10
12.0
 20
9.0
  9
$UNITMODE
 70
     0
  9
$VISRETAIN
 70
     0
  9
$PLINEGEN
 70
     1
  9
$PSLTSCALE
 70
     0
  9
$TREEDEPTH
 70
  3020
  9
$DWGCODEPAGE
  3
dos932
  0
ENDSEC
  0
SECTION
  2
TABLES
  0
TABLE
  2
VPORT
 70
     1
  0
VPORT
  2
*ACTIVE
 70
     0
 10
0.0
 20
0.0
 11
1.0
 21
1.0
 12
-0.024994
 22
-0.150002
 13
0.0
 23
0.0
 14
1.0
 24
1.0
 15
0.0
 25
0.0
 16
0.0
 26
0.0
 36
1.0
 17
0.0
 27
0.0
 37
0.0
 40
191.193003
 41
1.732051
 42
50.0
 43
0.0
 44
0.0
 50
0.0
 51
0.0
 71
     0
 72
   100
 73
     1
 74
     1
 75
     0
 76
     0
 77
     0
 78
     0
  0
ENDTAB
  0
TABLE
  2
LTYPE
 70
     3
  0
LTYPE
  2
CONTINUOUS
 70
    64
  3
Solid line
 72
    65
 73
     0
 40
0.0
  0
LTYPE
  2
DASHED
 70
    64
  3
Dashed __ __ __ __ __ __ __ __ __ __ __ __ __ _
 72
    65
 73
     2
 40
19.05
 49
12.7
 49
-6.35
  0
LTYPE
  2
CENTER
 70
    64
  3
Center ____ _ ____ _ ____ _ ____ _ ____ _ ____
 72
    65
 73
     4
 40
50.8
 49
31.75
 49
-6.35
 49
6.35
 49
-6.35
  0
ENDTAB
  0
TABLE
  2
LAYER
 70
     2
  0
LAYER
  2
0
 70
     0
 62
     7
  6
CONTINUOUS
  0
LAYER
  2
DEFPOINTS
 70
     0
 62
     7
  6
CONTINUOUS
  0
ENDTAB
  0
TABLE
  2
STYLE
 70
     1
  0
STYLE
  2
MX_NOTE_STANDARD
 70
     0
 40
3.2
 41
1.0
 50
0.0
 71
     0
 42
3.2
  3
txt.shx
  4
extfont.shx
  0
ENDTAB
  0
TABLE
  2
VIEW
 70
     0
  0
ENDTAB
  0
TABLE
  2
UCS
 70
     0
  0
ENDTAB
  0
TABLE
  2
APPID
 70
     1
  0
APPID
  2
ACAD
 70
     0
  0
ENDTAB
  0
TABLE
  2
DIMSTYLE
 70
     1
  0
DIMSTYLE
  2
MXDIMSTYLE
 70
     0
  3

  4

  5

  6

  7

 40
1.0
 41
2.5
 42
1.5
 43
3.75
 44
1.5
 45
0.0
 46
0.0
 47
0.0
 48
0.0
 71
     0
 72
     0
 73
     0
 74
     0
 75
     0
 76
     0
 77
     1
 78
     8
140
3.2
141
2.5
142
0.0
143
0.0394
144
1.0
145
0.0
146
1.0
147
1.0
170
     0
171
     4
172
     1
173
     0
174
     0
175
     0
176
     0
177
     0
178
     0
  0
ENDTAB
  0
ENDSEC
  0
SECTION
  2
BLOCKS
  0
ENDSEC
  0
SECTION
  2
ENTITIES
  0
LINE
  8
0
  6
DASHED
 62
     2
  5
1F
 10
-78.097808
 20
-24.907728
 30
0.0
 11
-71.897808
 21
-25.107728
 31
0.0
  0
LINE
  8
0
  6
DASHED
 62
     2
  5
20
 10
-71.897808
 20
-25.687728
 30
0.0
 11
-78.097808
 21
-25.487728
 31
0.0
  0
LINE
  8
0
  6
DASHED
 62
     2
  5
21
 10
-78.097808
 20
-34.057728
 30
0.0
 11
-71.897808
 21
-33.857728
 31
0.0
  0
LINE
  8
0
  6
DASHED
 62
     2
  5
22
 10
-71.897808
 20
-34.447728
 30
0.0
 11
-78.097808
 21
-34.637728
 31
0.0
  0
LINE
  8
0
  6
CONTINUOUS
 62
     7
  5
23
 10
-57.097808
 20
-19.277728
 30
0.0
 11
-57.097808
 21
-40.277728
 31
0.0
  0
LINE
  8
0
  6
DASHED
 62
     2
  5
24
 10
-18.107808
 20
-24.907728
 30
0.0
 11
-24.307808
 21
-25.107728
 31
0.0
  0
LINE
  8
0
  6
DASHED
 62
     2
  5
25
 10
-24.307808
 20
-25.687728
 30
0.0
 11
-18.107808
 21
-25.487728
 31
0.0
  0
LINE
  8
0
  6
DASHED
 62
     2
  5
26
 10
-18.107808
 20
-34.057728
 30
0.0
 11
-24.307808
 21
-33.857728
 31
0.0
  0
LINE
  8
0
  6
DASHED
 62
     2
  5
27
 10
-24.307808
 20
-34.447728
 30
0.0
 11
-18.107808
 21
-34.637728
 31
0.0
  0
LINE
  8
0
  6
DASHED
 62
     2
  5
28
 10
-78.097808
 20
40.082272
 30
0.0
 11
-71.897808
 21
39.892272
 31
0.0
  0
LINE
  8
0
  6
DASHED
 62
     2
  5
29
 10
-71.897808
 20
39.312272
 30
0.0
 11
-78.097808
 21
39.502272
 31
0.0
  0
LINE
  8
0
  6
DASHED
 62
     2
  5
2A
 10
-78.097808
 20
30.932272
 30
0.0
 11
-71.897808
 21
31.132272
 31
0.0
  0
LINE
  8
0
  6
DASHED
 62
     2
  5
2B
 10
-71.897808
 20
30.552272
 30
0.0
 11
-78.097808
 21
30.352272
 31
0.0
  0
LINE
  8
0
  6
CONTINUOUS
 62
     7
  5
2C
 10
-78.097808
 20
45.422272
 30
0.0
 11
-78.097808
 21
25.022272
 31
0.0
  0
LINE
  8
0
  6
CONTINUOUS
 62
     7
  5
2D
 10
-77.797808
 20
24.722272
 30
0.0
 11
-57.097808
 21
24.722272
 31
0.0
  0
LINE
  8
0
  6
CONTINUOUS
 62
     7
  5
2E
 10
-77.797808
 20
45.722272
 30
0.0
 11
-57.097808
 21
45.722272
 31
0.0
  0
LINE
  8
0
  6
CONTINUOUS
 62
     7
  5
2F
 10
-57.097808
 20
45.722272
 30
0.0
 11
-57.097808
 21
24.722272
 31
0.0
  0
LINE
  8
0
  6
DASHED
 62
     2
  5
30
 10
-18.107808
 20
40.082272
 30
0.0
 11
-24.307808
 21
39.892272
 31
0.0
  0
LINE
  8
0
  6
DASHED
 62
     2
  5
31
 10
-24.307808
 20
39.312272
 30
0.0
 11
-18.107808
 21
39.502272
 31
0.0
  0
LINE
  8
0
  6
DASHED
 62
     2
  5
32
 10
-18.107808
 20
30.932272
 30
0.0
 11
-24.307808
 21
31.132272
 31
0.0
  0
LINE
  8
0
  6
DASHED
 62
     2
  5
33
 10
-24.307808
 20
30.552272
 30
0.0
 11
-18.107808
 21
30.352272
 31
0.0
  0
LINE
  8
0
  6
CONTINUOUS
 62
     7
  5
34
 10
-18.107808
 20
45.422272
 30
0.0
 11
-18.107808
 21
25.022272
 31
0.0
  0
LINE
  8
0
  6
CONTINUOUS
 62
     7
  5
35
 10
-39.107808
 20
45.722272
 30
0.0
 11
-39.107808
 21
24.722272
 31
0.0
  0
LINE
  8
0
  6
CONTINUOUS
 62
     7
  5
36
 10
-71.397808
 20
27.222272
 30
0.0
 11
-71.397808
 21
24.722272
 31
0.0
  0
LINE
  8
0
  6
CONTINUOUS
 62
     7
  5
37
 10
-76.797808
 20
27.222272
 30
0.0
 11
-76.797808
 21
24.722272
 31
0.0
  0
LINE
  8
0
  6
CONTINUOUS
 62
     7
  5
38
 10
-24.807808
 20
27.222272
 30
0.0
 11
-24.807808
 21
24.722272
 31
0.0
  0
LINE
  8
0
  6
CONTINUOUS
 62
     7
  5
39
 10
-19.407808
 20
27.222272
 30
0.0
 11
-19.407808
 21
24.722272
 31
0.0
  0
LINE
  8
0
  6
CONTINUOUS
 62
     7
  5
3A
 10
-71.397808
 20
43.222272
 30
0.0
 11
-71.397808
 21
45.722272
 31
0.0
  0
LINE
  8
0
  6
CONTINUOUS
 62
     7
  5
3B
 10
-76.797808
 20
43.222272
 30
0.0
 11
-76.797808
 21
45.722272
 31
0.0
  0
LINE
  8
0
  6
CONTINUOUS
 62
     7
  5
3C
 10
-24.807808
 20
43.222272
 30
0.0
 11
-24.807808
 21
45.722272
 31
0.0
  0
LINE
  8
0
  6
CONTINUOUS
 62
     7
  5
3D
 10
-19.407808
 20
43.222272
 30
0.0
 11
-19.407808
 21
45.722272
 31
0.0
  0
LINE
  8
0
  6
CONTINUOUS
 62
     7
  5
3E
 10
-18.107808
 20
-19.577728
 30
0.0
 11
-18.107808
 21
-39.977728
 31
0.0
  0
LINE
  8
0
  6
CONTINUOUS
 62
     7
  5
3F
 10
-39.107808
 20
-19.277728
 30
0.0
 11
-39.107808
 21
-40.277728
 31
0.0
  0
LINE
  8
0
  6
CONTINUOUS
 62
     7
  5
40
 10
-37.107808
 20
-39.507728
 30
0.0
 11
-37.107808
 21
-40.277728
 31
0.0
  0
LINE
  8
0
  6
CONTINUOUS
 62
     7
  5
41
 10
-35.107808
 20
-39.507728
 30
0.0
 11
-35.107808
 21
-40.277728
 31
0.0
  0
LINE
  8
0
  6
CONTINUOUS
 62
     7
  5
42
 10
-31.107808
 20
-29.777728
 30
0.0
 11
-31.107808
 21
-39.977728
 31
0.0
  0
LINE
  8
0
  6
CENTER
 62
     2
  5
44
 10
-22.107808
 20
-17.437728
 30
0.0
 11
-22.107808
 21
-41.777728
 31
0.0
  0
LINE
  8
0
  6
CONTINUOUS
 62
     7
  5
45
 10
-19.407808
 20
-25.277728
 30
0.0
 11
-24.807808
 21
-25.277728
 31
0.0
  0
LINE
  8
0
  6
CONTINUOUS
 62
     7
  5
46
 10
-19.407808
 20
-23.607728
 30
0.0
 11
-19.407808
 21
-29.777728
 31
0.0
  0
LINE
  8
0
  6
CONTINUOUS
 62
     7
  5
47
 10
-24.807808
 20
-23.607728
 30
0.0
 11
-24.807808
 21
-29.777728
 31
0.0
  0
LINE
  8
0
  6
CENTER
 62
     2
  5
48
 10
-36.107808
 20
-38.027728
 30
0.0
 11
-36.107808
 21
-41.867728
 31
0.0
  0
LINE
  8
0
  6
CONTINUOUS
 62
     7
  5
49
 10
-77.797808
 20
-19.277728
 30
0.0
 11
-57.097808
 21
-19.277728
 31
0.0
  0
LINE
  8
0
  6
CONTINUOUS
 62
     7
  5
4A
 10
-78.097808
 20
-19.577728
 30
0.0
 11
-78.097808
 21
-39.977728
 31
0.0
  0
LINE
  8
0
  6
CONTINUOUS
 62
     7
  5
4B
 10
-77.797808
 20
-40.277728
 30
0.0
 11
-57.097808
 21
-40.277728
 31
0.0
  0
LINE
  8
0
  6
CONTINUOUS
 62
     7
  5
4C
 10
-59.097808
 20
-39.507728
 30
0.0
 11
-59.097808
 21
-40.277728
 31
0.0
  0
LINE
  8
0
  6
CONTINUOUS
 62
     7
  5
4D
 10
-61.097808
 20
-39.507728
 30
0.0
 11
-61.097808
 21
-40.277728
 31
0.0
  0
LINE
  8
0
  6
CONTINUOUS
 62
     7
  5
4E
 10
-65.097808
 20
-29.777728
 30
0.0
 11
-65.097808
 21
-39.977728
 31
0.0
  0
LINE
  8
0
  6
CENTER
 62
     2
  5
4F
 10
-74.097808
 20
-17.437728
 30
0.0
 11
-74.097808
 21
-41.777728
 31
0.0
  0
LINE
  8
0
  6
CONTINUOUS
 62
     7
  5
50
 10
-76.797808
 20
-25.277728
 30
0.0
 11
-71.397808
 21
-25.277728
 31
0.0
  0
LINE
  8
0
  6
CONTINUOUS
 62
     7
  5
51
 10
-76.797808
 20
-23.607728
 30
0.0
 11
-76.797808
 21
-29.777728
 31
0.0
  0
LINE
  8
0
  6
CONTINUOUS
 62
     7
  5
52
 10
-71.397808
 20
-23.607728
 30
0.0
 11
-71.397808
 21
-29.777728
 31
0.0
  0
LINE
  8
0
  6
CENTER
 62
     2
  5
53
 10
-60.097808
 20
-38.027728
 30
0.0
 11
-60.097808
 21
-41.867728
 31
0.0
  0
LINE
  8
0
  6
CENTER
 62
     2
  5
54
 10
47.892192
 20
-41.807728
 30
0.0
 11
47.892192
 21
-17.897728
 31
0.0
  0
LINE
  8
0
  6
CENTER
 62
     2
  5
55
 10
36.402192
 20
-29.777728
 30
0.0
 11
60.822192
 21
-29.777728
 31
0.0
  0
LINE
  8
0
  6
CONTINUOUS
 62
     7
  5
56
 10
37.692192
 20
-40.277728
 30
0.0
 11
58.092192
 21
-40.277728
 31
0.0
  0
LINE
  8
0
  6
CONTINUOUS
 62
     7
  5
57
 10
58.392192
 20
-39.977728
 30
0.0
 11
58.392192
 21
-25.577728
 31
0.0
  0
LINE
  8
0
  6
CONTINUOUS
 62
     7
  5
58
 10
37.392192
 20
-39.977728
 30
0.0
 11
37.392192
 21
-25.577728
 31
0.0
  0
LINE
  8
0
  6
CONTINUOUS
 62
     7
  5
59
 10
37.692192
 20
-25.277728
 30
0.0
 11
38.402192
 21
-25.277728
 31
0.0
  0
LINE
  8
0
  6
CONTINUOUS
 62
     7
  5
5A
 10
57.372192
 20
-25.277728
 30
0.0
 11
58.092192
 21
-25.277728
 31
0.0
  0
LINE
  8
0
  6
CENTER
 62
     2
  5
5B
 10
-74.097808
 20
30.222272
 30
0.0
 11
-74.097808
 21
23.222272
 31
0.0
  0
LINE
  8
0
  6
CENTER
 62
     2
  5
5C
 10
-77.597808
 20
27.222272
 30
0.0
 11
-70.597808
 21
27.222272
 31
0.0
  0
LINE
  8
0
  6
CENTER
 62
     2
  5
5D
 10
-18.607808
 20
27.222272
 30
0.0
 11
-25.607808
 21
27.222272
 31
0.0
  0
LINE
  8
0
  6
CENTER
 62
     2
  5
5E
 10
-22.107808
 20
30.222272
 30
0.0
 11
-22.107808
 21
23.222272
 31
0.0
  0
LINE
  8
0
  6
CENTER
 62
     2
  5
5F
 10
-77.597808
 20
43.222272
 30
0.0
 11
-70.597808
 21
43.222272
 31
0.0
  0
LINE
  8
0
  6
CENTER
 62
     2
  5
60
 10
-74.097808
 20
40.222272
 30
0.0
 11
-74.097808
 21
47.222272
 31
0.0
  0
LINE
  8
0
  6
CENTER
 62
     2
  5
61
 10
-18.607808
 20
43.222272
 30
0.0
 11
-25.607808
 21
43.222272
 31
0.0
  0
LINE
  8
0
  6
CENTER
 62
     2
  5
62
 10
-22.107808
 20
40.222272
 30
0.0
 11
-22.107808
 21
47.222272
 31
0.0
  0
LINE
  8
0
  6
CONTINUOUS
 62
     7
  5
63
 10
-57.097808
 20
24.822272
 30
0.0
 11
-39.107808
 21
24.822272
 31
0.0
  0
LINE
  8
0
  6
CONTINUOUS
 62
     7
  5
64
 10
-57.097808
 20
45.622272
 30
0.0
 11
-39.107808
 21
45.622272
 31
0.0
  0
LINE
  8
0
  6
CONTINUOUS
 62
     7
  5
65
 10
-39.107808
 20
45.722272
 30
0.0
 11
-18.407808
 21
45.722272
 31
0.0
  0
LINE
  8
0
  6
CONTINUOUS
 62
     7
  5
66
 10
-39.107808
 20
24.722272
 30
0.0
 11
-18.407808
 21
24.722272
 31
0.0
  0
LINE
  8
0
  6
CONTINUOUS
 62
     7
  5
67
 10
-57.097808
 20
-19.377728
 30
0.0
 11
-39.107808
 21
-19.377728
 31
0.0
  0
LINE
  8
0
  6
CONTINUOUS
 62
     7
  5
68
 10
-57.097808
 20
-40.177728
 30
0.0
 11
-39.107808
 21
-40.177728
 31
0.0
  0
LINE
  8
0
  6
CONTINUOUS
 62
     7
  5
69
 10
-39.107808
 20
-40.277728
 30
0.0
 11
-18.407808
 21
-40.277728
 31
0.0
  0
LINE
  8
0
  6
CONTINUOUS
 62
     7
  5
6A
 10
-39.107808
 20
-19.277728
 30
0.0
 11
-18.407808
 21
-19.277728
 31
0.0
  0
CIRCLE
  8
0
  6
CONTINUOUS
 62
     7
  5
6B
 10
-74.107137
 20
27.222592
 30
0.0
 40
1.4
  0
ARC
  8
0
  6
CONTINUOUS
 62
     7
  5
6C
 10
-74.097808
 20
27.222272
 30
0.0
 40
2.7
 50
0.0
 51
180.0
  0
ARC
  8
0
  6
CONTINUOUS
 62
     7
  5
6D
 10
-71.102272
 20
25.017808
 30
0.0
 40
0.29557
 50
179.134674
 51
270.865326
  0
ARC
  8
0
  6
CONTINUOUS
 62
     7
  5
6E
 10
-77.102668
 20
25.027132
 30
0.0
 40
0.304899
 50
270.913285
 51
359.086715
  0
ARC
  8
0
  6
CONTINUOUS
 62
     7
  5
6F
 10
-76.502276
 20
25.017804
 30
0.0
 40
0.295566
 50
179.133788
 51
270.866212
  0
ARC
  8
0
  6
CONTINUOUS
 62
     7
  5
70
 10
-71.702671
 20
25.027135
 30
0.0
 40
0.304902
 50
270.913858
 51
359.086142
  0
ARC
  8
0
  6
CONTINUOUS
 62
     7
  5
71
 10
-22.107808
 20
27.222272
 30
0.0
 40
2.7
 50
0.0
 51
180.0
  0
CIRCLE
  8
0
  6
CONTINUOUS
 62
     7
  5
72
 10
-22.107137
 20
27.222592
 30
0.0
 40
1.4
  0
ARC
  8
0
  6
CONTINUOUS
 62
     7
  5
73
 10
-25.107634
 20
25.022098
 30
0.0
 40
0.299827
 50
269.966838
 51
0.033162
  0
ARC
  8
0
  6
CONTINUOUS
 62
     7
  5
74
 10
-24.507315
 20
25.022765
 30
0.0
 40
0.300493
 50
180.093984
 51
269.906016
  0
ARC
  8
0
  6
CONTINUOUS
 62
     7
  5
75
 10
-19.707638
 20
25.022102
 30
0.0
 40
0.29983
 50
269.96742
 51
0.03258
  0
ARC
  8
0
  6
CONTINUOUS
 62
     7
  5
76
 10
-19.107318
 20
25.022762
 30
0.0
 40
0.30049
 50
180.093402
 51
269.906598
  0
ARC
  8
0
  6
CONTINUOUS
 62
     7
  5
77
 10
-74.097808
 20
43.222272
 30
0.0
 40
2.7
 50
180.0
 51
0.0
  0
CIRCLE
  8
0
  6
CONTINUOUS
 62
     7
  5
78
 10
-74.107137
 20
43.222608
 30
0.0
 40
1.4
  0
ARC
  8
0
  6
CONTINUOUS
 62
     7
  5
79
 10
-71.102605
 20
45.427069
 30
0.0
 40
0.295242
 50
89.06905
 51
180.93095
  0
ARC
  8
0
  6
CONTINUOUS
 62
     7
  5
7A
 10
-71.702348
 20
45.417732
 30
0.0
 40
0.304574
 50
0.85408
 51
89.14592
  0
ARC
  8
0
  6
CONTINUOUS
 62
     7
  5
7B
 10
-76.502609
 20
45.427073
 30
0.0
 40
0.295238
 50
89.068161
 51
180.931839
  0
ARC
  8
0
  6
CONTINUOUS
 62
     7
  5
7C
 10
-77.102345
 20
45.417735
 30
0.0
 40
0.304571
 50
0.853506
 51
89.146494
  0
ARC
  8
0
  6
CONTINUOUS
 62
     7
  5
7D
 10
-22.107808
 20
43.222272
 30
0.0
 40
2.7
 50
180.0
 51
0.0
  0
CIRCLE
  8
0
  6
CONTINUOUS
 62
     7
  5
7E
 10
-22.107137
 20
43.222608
 30
0.0
 40
1.4
  0
ARC
  8
0
  6
CONTINUOUS
 62
     7
  5
7F
 10
-25.107306
 20
45.422774
 30
0.0
 40
0.299498
 50
359.903971
 51
90.096029
  0
ARC
  8
0
  6
CONTINUOUS
 62
     7
  5
80
 10
-24.507643
 20
45.422107
 30
0.0
 40
0.300165
 50
90.031535
 51
179.968465
  0
ARC
  8
0
  6
CONTINUOUS
 62
     7
  5
81
 10
-19.707309
 20
45.422771
 30
0.0
 40
0.299501
 50
359.904555
 51
90.095445
  0
ARC
  8
0
  6
CONTINUOUS
 62
     7
  5
82
 10
-19.107646
 20
45.42211
 30
0.0
 40
0.300162
 50
90.030952
 51
179.969048
  0
CIRCLE
  8
0
  6
CONTINUOUS
 62
     2
  5
83
 10
47.892772
 20
-29.777726
 30
0.0
 40
4.863999
  0
CIRCLE
  8
0
  6
CONTINUOUS
 62
     7
  5
84
 10
47.892772
 20
-29.777726
 30
0.0
 40
4.283
  0
ARC
  8
0
  6
CONTINUOUS
 62
     7
  5
85
 10
47.892192
 20
-29.777728
 30
0.0
 40
10.5
 50
0.0
 51
180.0
  0
ARC
  8
0
  6
CONTINUOUS
 62
     7
  5
86
 10
37.692483
 20
-25.578019
 30
0.0
 40
0.300291
 50
90.055562
 51
179.944438
  0
ARC
  8
0
  6
CONTINUOUS
 62
     7
  5
87
 10
58.092488
 20
-25.577432
 30
0.0
 40
0.299704
 50
359.943363
 51
90.056637
  0
ARC
  8
0
  6
CONTINUOUS
 62
     7
  5
88
 10
-77.802603
 20
45.427067
 30
0.0
 40
0.295244
 50
89.069347
 51
180.930653
  0
ARC
  8
0
  6
CONTINUOUS
 62
     7
  5
89
 10
-77.80227
 20
25.01781
 30
0.0
 40
0.295571
 50
179.13497
 51
270.86503
  0
ARC
  8
0
  6
CONTINUOUS
 62
     7
  5
8A
 10
-18.407315
 20
45.422765
 30
0.0
 40
0.299508
 50
359.905724
 51
90.094276
  0
ARC
  8
0
  6
CONTINUOUS
 62
     7
  5
8B
 10
-18.407644
 20
25.022108
 30
0.0
 40
0.299836
 50
269.968585
 51
0.031415
  0
ARC
  8
0
  6
CONTINUOUS
 62
     7
  5
8C
 10
-77.802433
 20
-39.982353
 30
0.0
 40
0.295411
 50
179.102931
 51
270.897069
  0
ARC
  8
0
  6
CONTINUOUS
 62
     7
  5
8D
 10
-77.802435
 20
-19.573101
 30
0.0
 40
0.295409
 50
89.102549
 51
180.897451
  0
ARC
  8
0
  6
CONTINUOUS
 62
     7
  5
8E
 10
-65.402512
 20
-39.973024
 30
0.0
 40
0.30474
 50
270.884385
 51
359.115615
  0
ARC
  8
0
  6
CONTINUOUS
 62
     7
  5
8F
 10
-18.407483
 20
-39.978053
 30
0.0
 40
0.299675
 50
269.937894
 51
0.062106
  0
ARC
  8
0
  6
CONTINUOUS
 62
     7
  5
90
 10
-18.407481
 20
-19.577401
 30
0.0
 40
0.299673
 50
359.937529
 51
90.062471
  0
ARC
  8
0
  6
CONTINUOUS
 62
     7
  5
91
 10
-30.807477
 20
-39.977397
 30
0.0
 40
0.300331
 50
180.063203
 51
269.936797
  0
ARC
  8
0
  6
CONTINUOUS
 62
     7
  5
92
 10
37.692485
 20
-39.977435
 30
0.0
 40
0.300293
 50
180.055925
 51
269.944075
  0
ARC
  8
0
  6
CONTINUOUS
 62
     7
  5
93
 10
58.092479
 20
-39.978015
 30
0.0
 40
0.299713
 50
269.945187
 51
0.054813
  0
POLYLINE
  8
0
  6
CONTINUOUS
 62
     7
  5
94
 66
     1
 10
0.0
 20
0.0
 30
0.0
  0
VERTEX
  8
0
  6
CONTINUOUS
 62
     7
  5
A0
 10
-19.407808
 20
-23.607728
 30
0.0
  0
VERTEX
  8
0
  6
CONTINUOUS
 62
     7
  5
A1
 10
-19.52148
 20
-23.396474
 30
0.0
  0
VERTEX
  8
0
  6
CONTINUOUS
 62
     7
  5
A2
 10
-19.645812
 20
-23.179064
 30
0.0
  0
VERTEX
  8
0
  6
CONTINUOUS
 62
     7
  5
A3
 10
-19.780094
 20
-22.958227
 30
0.0
  0
VERTEX
  8
0
  6
CONTINUOUS
 62
     7
  5
A4
 10
-19.923615
 20
-22.736694
 30
0.0
  0
VERTEX
  8
0
  6
CONTINUOUS
 62
     7
  5
A5
 10
-20.075664
 20
-22.517194
 30
0.0
  0
VERTEX
  8
0
  6
CONTINUOUS
 62
     7
  5
A6
 10
-20.235531
 20
-22.302458
 30
0.0
  0
VERTEX
  8
0
  6
CONTINUOUS
 62
     7
  5
A7
 10
-20.402504
 20
-22.095216
 30
0.0
  0
VERTEX
  8
0
  6
CONTINUOUS
 62
     7
  5
A8
 10
-20.575873
 20
-21.898198
 30
0.0
  0
VERTEX
  8
0
  6
CONTINUOUS
 62
     7
  5
A9
 10
-20.754928
 20
-21.714133
 30
0.0
  0
VERTEX
  8
0
  6
CONTINUOUS
 62
     7
  5
AA
 10
-20.938958
 20
-21.545753
 30
0.0
  0
VERTEX
  8
0
  6
CONTINUOUS
 62
     7
  5
AB
 10
-21.127252
 20
-21.395788
 30
0.0
  0
VERTEX
  8
0
  6
CONTINUOUS
 62
     7
  5
AC
 10
-21.319099
 20
-21.266967
 30
0.0
  0
VERTEX
  8
0
  6
CONTINUOUS
 62
     7
  5
AD
 10
-21.513789
 20
-21.16202
 30
0.0
  0
VERTEX
  8
0
  6
CONTINUOUS
 62
     7
  5
AE
 10
-21.710611
 20
-21.083678
 30
0.0
  0
VERTEX
  8
0
  6
CONTINUOUS
 62
     7
  5
AF
 10
-21.908854
 20
-21.03467
 30
0.0
  0
VERTEX
  8
0
  6
CONTINUOUS
 62
     7
  5
B0
 10
-22.107808
 20
-21.017728
 30
0.0
  0
VERTEX
  8
0
  6
CONTINUOUS
 62
     7
  5
B1
 10
-22.306762
 20
-21.03467
 30
0.0
  0
VERTEX
  8
0
  6
CONTINUOUS
 62
     7
  5
B2
 10
-22.505005
 20
-21.083678
 30
0.0
  0
VERTEX
  8
0
  6
CONTINUOUS
 62
     7
  5
B3
 10
-22.701827
 20
-21.16202
 30
0.0
  0
VERTEX
  8
0
  6
CONTINUOUS
 62
     7
  5
B4
 10
-22.896517
 20
-21.266967
 30
0.0
  0
VERTEX
  8
0
  6
CONTINUOUS
 62
     7
  5
B5
 10
-23.088364
 20
-21.395788
 30
0.0
  0
VERTEX
  8
0
  6
CONTINUOUS
 62
     7
  5
B6
 10
-23.276658
 20
-21.545753
 30
0.0
  0
VERTEX
  8
0
  6
CONTINUOUS
 62
     7
  5
B7
 10
-23.460688
 20
-21.714133
 30
0.0
  0
VERTEX
  8
0
  6
CONTINUOUS
 62
     7
  5
B8
 10
-23.639743
 20
-21.898198
 30
0.0
  0
VERTEX
  8
0
  6
CONTINUOUS
 62
     7
  5
B9
 10
-23.813112
 20
-22.095216
 30
0.0
  0
VERTEX
  8
0
  6
CONTINUOUS
 62
     7
  5
BA
 10
-23.980085
 20
-22.302458
 30
0.0
  0
VERTEX
  8
0
  6
CONTINUOUS
 62
     7
  5
BB
 10
-24.139952
 20
-22.517194
 30
0.0
  0
VERTEX
  8
0
  6
CONTINUOUS
 62
     7
  5
BC
 10
-24.292001
 20
-22.736694
 30
0.0
  0
VERTEX
  8
0
  6
CONTINUOUS
 62
     7
  5
BD
 10
-24.435522
 20
-22.958227
 30
0.0
  0
VERTEX
  8
0
  6
CONTINUOUS
 62
     7
  5
BE
 10
-24.569804
 20
-23.179064
 30
0.0
  0
VERTEX
  8
0
  6
CONTINUOUS
 62
     7
  5
BF
 10
-24.694136
 20
-23.396474
 30
0.0
  0
VERTEX
  8
0
  6
CONTINUOUS
 62
     7
  5
C0
 10
-24.807808
 20
-23.607728
 30
0.0
  0
SEQEND
  8
0
  6
CONTINUOUS
 62
     7
  5
C1
  0
POLYLINE
  8
0
  6
CONTINUOUS
 62
     7
  5
95
 66
     1
 10
0.0
 20
0.0
 30
0.0
  0
VERTEX
  8
0
  6
CONTINUOUS
 62
     7
  5
C2
 10
-37.107808
 20
-39.507728
 30
0.0
  0
VERTEX
  8
0
  6
CONTINUOUS
 62
     7
  5
C3
 10
-37.057196
 20
-39.458686
 30
0.0
  0
VERTEX
  8
0
  6
CONTINUOUS
 62
     7
  5
C4
 10
-37.004283
 20
-39.410584
 30
0.0
  0
VERTEX
  8
0
  6
CONTINUOUS
 62
     7
  5
C5
 10
-36.949222
 20
-39.363729
 30
0.0
  0
VERTEX
  8
0
  6
CONTINUOUS
 62
     7
  5
C6
 10
-36.892168
 20
-39.318429
 30
0.0
  0
VERTEX
  8
0
  6
CONTINUOUS
 62
     7
  5
C7
 10
-36.833272
 20
-39.27499
 30
0.0
  0
VERTEX
  8
0
  6
CONTINUOUS
 62
     7
  5
C8
 10
-36.77269
 20
-39.233719
 30
0.0
  0
VERTEX
  8
0
  6
CONTINUOUS
 62
     7
  5
C9
 10
-36.710573
 20
-39.194922
 30
0.0
  0
VERTEX
  8
0
  6
CONTINUOUS
 62
     7
  5
CA
 10
-36.647076
 20
-39.158907
 30
0.0
  0
VERTEX
  8
0
  6
CONTINUOUS
 62
     7
  5
CB
 10
-36.582352
 20
-39.12598
 30
0.0
  0
VERTEX
  8
0
  6
CONTINUOUS
 62
     7
  5
CC
 10
-36.516554
 20
-39.096448
 30
0.0
  0
VERTEX
  8
0
  6
CONTINUOUS
 62
     7
  5
CD
 10
-36.449836
 20
-39.070617
 30
0.0
  0
VERTEX
  8
0
  6
CONTINUOUS
 62
     7
  5
CE
 10
-36.382351
 20
-39.048795
 30
0.0
  0
VERTEX
  8
0
  6
CONTINUOUS
 62
     7
  5
CF
 10
-36.314252
 20
-39.031288
 30
0.0
  0
VERTEX
  8
0
  6
CONTINUOUS
 62
     7
  5
D0
 10
-36.245693
 20
-39.018404
 30
0.0
  0
VERTEX
  8
0
  6
CONTINUOUS
 62
     7
  5
D1
 10
-36.176827
 20
-39.010448
 30
0.0
  0
VERTEX
  8
0
  6
CONTINUOUS
 62
     7
  5
D2
 10
-36.107808
 20
-39.007728
 30
0.0
  0
VERTEX
  8
0
  6
CONTINUOUS
 62
     7
  5
D3
 10
-36.038789
 20
-39.010448
 30
0.0
  0
VERTEX
  8
0
  6
CONTINUOUS
 62
     7
  5
D4
 10
-35.969923
 20
-39.018404
 30
0.0
  0
VERTEX
  8
0
  6
CONTINUOUS
 62
     7
  5
D5
 10
-35.901364
 20
-39.031288
 30
0.0
  0
VERTEX
  8
0
  6
CONTINUOUS
 62
     7
  5
D6
 10
-35.833265
 20
-39.048795
 30
0.0
  0
VERTEX
  8
0
  6
CONTINUOUS
 62
     7
  5
D7
 10
-35.76578
 20
-39.070617
 30
0.0
  0
VERTEX
  8
0
  6
CONTINUOUS
 62
     7
  5
D8
 10
-35.699062
 20
-39.096448
 30
0.0
  0
VERTEX
  8
0
  6
CONTINUOUS
 62
     7
  5
D9
 10
-35.633264
 20
-39.12598
 30
0.0
  0
VERTEX
  8
0
  6
CONTINUOUS
 62
     7
  5
DA
 10
-35.56854
 20
-39.158907
 30
0.0
  0
VERTEX
  8
0
  6
CONTINUOUS
 62
     7
  5
DB
 10
-35.505043
 20
-39.194922
 30
0.0
  0
VERTEX
  8
0
  6
CONTINUOUS
 62
     7
  5
DC
 10
-35.442926
 20
-39.233719
 30
0.0
  0
VERTEX
  8
0
  6
CONTINUOUS
 62
     7
  5
DD
 10
-35.382344
 20
-39.27499
 30
0.0
  0
VERTEX
  8
0
  6
CONTINUOUS
 62
     7
  5
DE
 10
-35.323448
 20
-39.318429
 30
0.0
  0
VERTEX
  8
0
  6
CONTINUOUS
 62
     7
  5
DF
 10
-35.266394
 20
-39.363729
 30
0.0
  0
VERTEX
  8
0
  6
CONTINUOUS
 62
     7
  5
E0
 10
-35.211333
 20
-39.410584
 30
0.0
  0
VERTEX
  8
0
  6
CONTINUOUS
 62
     7
  5
E1
 10
-35.15842
 20
-39.458686
 30
0.0
  0
VERTEX
  8
0
  6
CONTINUOUS
 62
     7
  5
E2
 10
-35.107808
 20
-39.507728
 30
0.0
  0
SEQEND
  8
0
  6
CONTINUOUS
 62
     7
  5
E3
  0
POLYLINE
  8
0
  6
CONTINUOUS
 62
     7
  5
96
 66
     1
 10
0.0
 20
0.0
 30
0.0
  0
VERTEX
  8
0
  6
CONTINUOUS
 62
     7
  5
E4
 10
-76.797808
 20
-23.607728
 30
0.0
  0
VERTEX
  8
0
  6
CONTINUOUS
 62
     7
  5
E5
 10
-76.684136
 20
-23.396474
 30
0.0
  0
VERTEX
  8
0
  6
CONTINUOUS
 62
     7
  5
E6
 10
-76.559804
 20
-23.179064
 30
0.0
  0
VERTEX
  8
0
  6
CONTINUOUS
 62
     7
  5
E7
 10
-76.425522
 20
-22.958227
 30
0.0
  0
VERTEX
  8
0
  6
CONTINUOUS
 62
     7
  5
E8
 10
-76.282001
 20
-22.736694
 30
0.0
  0
VERTEX
  8
0
  6
CONTINUOUS
 62
     7
  5
E9
 10
-76.129952
 20
-22.517194
 30
0.0
  0
VERTEX
  8
0
  6
CONTINUOUS
 62
     7
  5
EA
 10
-75.970085
 20
-22.302458
 30
0.0
  0
VERTEX
  8
0
  6
CONTINUOUS
 62
     7
  5
EB
 10
-75.803112
 20
-22.095216
 30
0.0
  0
VERTEX
  8
0
  6
CONTINUOUS
 62
     7
  5
EC
 10
-75.629743
 20
-21.898198
 30
0.0
  0
VERTEX
  8
0
  6
CONTINUOUS
 62
     7
  5
ED
 10
-75.450688
 20
-21.714133
 30
0.0
  0
VERTEX
  8
0
  6
CONTINUOUS
 62
     7
  5
EE
 10
-75.266658
 20
-21.545753
 30
0.0
  0
VERTEX
  8
0
  6
CONTINUOUS
 62
     7
  5
EF
 10
-75.078364
 20
-21.395788
 30
0.0
  0
VERTEX
  8
0
  6
CONTINUOUS
 62
     7
  5
F0
 10
-74.886517
 20
-21.266967
 30
0.0
  0
VERTEX
  8
0
  6
CONTINUOUS
 62
     7
  5
F1
 10
-74.691827
 20
-21.16202
 30
0.0
  0
VERTEX
  8
0
  6
CONTINUOUS
 62
     7
  5
F2
 10
-74.495005
 20
-21.083678
 30
0.0
  0
VERTEX
  8
0
  6
CONTINUOUS
 62
     7
  5
F3
 10
-74.296762
 20
-21.03467
 30
0.0
  0
VERTEX
  8
0
  6
CONTINUOUS
 62
     7
  5
F4
 10
-74.097808
 20
-21.017728
 30
0.0
  0
VERTEX
  8
0
  6
CONTINUOUS
 62
     7
  5
F5
 10
-73.898854
 20
-21.03467
 30
0.0
  0
VERTEX
  8
0
  6
CONTINUOUS
 62
     7
  5
F6
 10
-73.700611
 20
-21.083678
 30
0.0
  0
VERTEX
  8
0
  6
CONTINUOUS
 62
     7
  5
F7
 10
-73.503789
 20
-21.16202
 30
0.0
  0
VERTEX
  8
0
  6
CONTINUOUS
 62
     7
  5
F8
 10
-73.309099
 20
-21.266967
 30
0.0
  0
VERTEX
  8
0
  6
CONTINUOUS
 62
     7
  5
F9
 10
-73.117252
 20
-21.395788
 30
0.0
  0
VERTEX
  8
0
  6
CONTINUOUS
 62
     7
  5
FA
 10
-72.928958
 20
-21.545753
 30
0.0
  0
VERTEX
  8
0
  6
CONTINUOUS
 62
     7
  5
FB
 10
-72.744928
 20
-21.714133
 30
0.0
  0
VERTEX
  8
0
  6
CONTINUOUS
 62
     7
  5
FC
 10
-72.565873
 20
-21.898198
 30
0.0
  0
VERTEX
  8
0
  6
CONTINUOUS
 62
     7
  5
FD
 10
-72.392504
 20
-22.095216
 30
0.0
  0
VERTEX
  8
0
  6
CONTINUOUS
 62
     7
  5
FE
 10
-72.225531
 20
-22.302458
 30
0.0
  0
VERTEX
  8
0
  6
CONTINUOUS
 62
     7
  5
FF
 10
-72.065664
 20
-22.517194
 30
0.0
  0
VERTEX
  8
0
  6
CONTINUOUS
 62
     7
  5
100
 10
-71.913615
 20
-22.736694
 30
0.0
  0
VERTEX
  8
0
  6
CONTINUOUS
 62
     7
  5
101
 10
-71.770094
 20
-22.958227
 30
0.0
  0
VERTEX
  8
0
  6
CONTINUOUS
 62
     7
  5
102
 10
-71.635812
 20
-23.179064
 30
0.0
  0
VERTEX
  8
0
  6
CONTINUOUS
 62
     7
  5
103
 10
-71.51148
 20
-23.396474
 30
0.0
  0
VERTEX
  8
0
  6
CONTINUOUS
 62
     7
  5
104
 10
-71.397808
 20
-23.607728
 30
0.0
  0
SEQEND
  8
0
  6
CONTINUOUS
 62
     7
  5
105
  0
POLYLINE
  8
0
  6
CONTINUOUS
 62
     7
  5
97
 66
     1
 10
0.0
 20
0.0
 30
0.0
  0
VERTEX
  8
0
  6
CONTINUOUS
 62
     7
  5
106
 10
-59.097808
 20
-39.507728
 30
0.0
  0
VERTEX
  8
0
  6
CONTINUOUS
 62
     7
  5
107
 10
-59.14842
 20
-39.458686
 30
0.0
  0
VERTEX
  8
0
  6
CONTINUOUS
 62
     7
  5
108
 10
-59.201333
 20
-39.410584
 30
0.0
  0
VERTEX
  8
0
  6
CONTINUOUS
 62
     7
  5
109
 10
-59.256394
 20
-39.363729
 30
0.0
  0
VERTEX
  8
0
  6
CONTINUOUS
 62
     7
  5
10A
 10
-59.313448
 20
-39.318429
 30
0.0
  0
VERTEX
  8
0
  6
CONTINUOUS
 62
     7
  5
10B
 10
-59.372344
 20
-39.27499
 30
0.0
  0
VERTEX
  8
0
  6
CONTINUOUS
 62
     7
  5
10C
 10
-59.432926
 20
-39.233719
 30
0.0
  0
VERTEX
  8
0
  6
CONTINUOUS
 62
     7
  5
10D
 10
-59.495043
 20
-39.194922
 30
0.0
  0
VERTEX
  8
0
  6
CONTINUOUS
 62
     7
  5
10E
 10
-59.55854
 20
-39.158907
 30
0.0
  0
VERTEX
  8
0
  6
CONTINUOUS
 62
     7
  5
10F
 10
-59.623264
 20
-39.12598
 30
0.0
  0
VERTEX
  8
0
  6
CONTINUOUS
 62
     7
  5
110
 10
-59.689062
 20
-39.096448
 30
0.0
  0
VERTEX
  8
0
  6
CONTINUOUS
 62
     7
  5
111
 10
-59.75578
 20
-39.070617
 30
0.0
  0
VERTEX
  8
0
  6
CONTINUOUS
 62
     7
  5
112
 10
-59.823265
 20
-39.048795
 30
0.0
  0
VERTEX
  8
0
  6
CONTINUOUS
 62
     7
  5
113
 10
-59.891364
 20
-39.031288
 30
0.0
  0
VERTEX
  8
0
  6
CONTINUOUS
 62
     7
  5
114
 10
-59.959923
 20
-39.018404
 30
0.0
  0
VERTEX
  8
0
  6
CONTINUOUS
 62
     7
  5
115
 10
-60.028789
 20
-39.010448
 30
0.0
  0
VERTEX
  8
0
  6
CONTINUOUS
 62
     7
  5
116
 10
-60.097808
 20
-39.007728
 30
0.0
  0
VERTEX
  8
0
  6
CONTINUOUS
 62
     7
  5
117
 10
-60.166827
 20
-39.010448
 30
0.0
  0
VERTEX
  8
0
  6
CONTINUOUS
 62
     7
  5
118
 10
-60.235693
 20
-39.018404
 30
0.0
  0
VERTEX
  8
0
  6
CONTINUOUS
 62
     7
  5
119
 10
-60.304252
 20
-39.031288
 30
0.0
  0
VERTEX
  8
0
  6
CONTINUOUS
 62
     7
  5
11A
 10
-60.372351
 20
-39.048795
 30
0.0
  0
VERTEX
  8
0
  6
CONTINUOUS
 62
     7
  5
11B
 10
-60.439836
 20
-39.070617
 30
0.0
  0
VERTEX
  8
0
  6
CONTINUOUS
 62
     7
  5
11C
 10
-60.506554
 20
-39.096448
 30
0.0
  0
VERTEX
  8
0
  6
CONTINUOUS
 62
     7
  5
11D
 10
-60.572352
 20
-39.12598
 30
0.0
  0
VERTEX
  8
0
  6
CONTINUOUS
 62
     7
  5
11E
 10
-60.637076
 20
-39.158907
 30
0.0
  0
VERTEX
  8
0
  6
CONTINUOUS
 62
     7
  5
11F
 10
-60.700573
 20
-39.194922
 30
0.0
  0
VERTEX
  8
0
  6
CONTINUOUS
 62
     7
  5
120
 10
-60.76269
 20
-39.233719
 30
0.0
  0
VERTEX
  8
0
  6
CONTINUOUS
 62
     7
  5
121
 10
-60.823272
 20
-39.27499
 30
0.0
  0
VERTEX
  8
0
  6
CONTINUOUS
 62
     7
  5
122
 10
-60.882168
 20
-39.318429
 30
0.0
  0
VERTEX
  8
0
  6
CONTINUOUS
 62
     7
  5
123
 10
-60.939222
 20
-39.363729
 30
0.0
  0
VERTEX
  8
0
  6
CONTINUOUS
 62
     7
  5
124
 10
-60.994283
 20
-39.410584
 30
0.0
  0
VERTEX
  8
0
  6
CONTINUOUS
 62
     7
  5
125
 10
-61.047196
 20
-39.458686
 30
0.0
  0
VERTEX
  8
0
  6
CONTINUOUS
 62
     7
  5
126
 10
-61.097808
 20
-39.507728
 30
0.0
  0
SEQEND
  8
0
  6
CONTINUOUS
 62
     7
  5
127
  0
LINE
  8
0
  6
CENTER
 62
     2
  5
98
 10
-81.187808
 20
35.222272
 30
0.0
 11
-16.047808
 21
35.222272
 31
0.0
  0
LINE
  8
0
  6
CENTER
 62
     2
  5
99
 10
-81.187808
 20
-29.777728
 30
0.0
 11
-15.577808
 21
-29.777728
 31
0.0
  0
LINE
  8
0
  6
CONTINUOUS
 62
     7
  5
9A
 10
-138.399994
 20
94.5
 30
0.0
 11
138.350006
 21
94.5
 31
0.0
  0
LINE
  8
0
  6
CONTINUOUS
 62
     7
  5
9B
 10
138.350006
 20
94.5
 30
0.0
 11
138.350006
 21
-94.800003
 31
0.0
  0
LINE
  8
0
  6
CONTINUOUS
 62
     7
  5
9C
 10
-138.399994
 20
-94.800003
 30
0.0
 11
138.350006
 21
-94.800003
 31
0.0
  0
LINE
  8
0
  6
CONTINUOUS
 62
     7
  5
9D
 10
-138.399994
 20
94.5
 30
0.0
 11
-138.399994
 21
-94.800003
 31
0.0
  0
TEXT
  8
0
  6
CONTINUOUS
 62
     7
  5
9E
 10
-129.399994
 20
72.9
 30
0.0
 40
3.2
  1
MODEL:PLF100
 41
1.125
  7
MX_NOTE_STANDARD
 11
-129.399994
 21
74.5
 31
0.0
 73
     2
  0
ENDSEC
  0
EOF
