  0
SECTION
  2
HEADER
  9
$ACADVER
  1
AC1012
  9
$DWGCODEPAGE
  3
dos932
  9
$INSBASE
 10
0.0
 20
0.0
 30
0.0
  9
$EXTMIN
 10
-350.0
 20
-369.0
 30
0.0
  9
$EXTMAX
 10
350.0
 20
369.0
 30
0.0
  9
$LIMMIN
 10
0.0
 20
0.0
  9
$LIMMAX
 10
12.0
 20
9.0
  9
$ORTHOMODE
 70
     0
  9
$REGENMODE
 70
     1
  9
$FILLMODE
 70
     1
  9
$QTEXTMODE
 70
     0
  9
$MIRRTEXT
 70
     1
  9
$DRAGMODE
 70
     2
  9
$LTSCALE
 40
1.0
  9
$OSMODE
 70
     0
  9
$ATTMODE
 70
     1
  9
$TEXTSIZE
 40
0.2
  9
$TRACEWID
 40
0.05
  9
$TEXTSTYLE
  7
STANDARD
  9
$CLAYER
  8
0
  9
$CELTYPE
  6
CONTINUOUS
  9
$CECOLOR
 62
   256
  9
$CELTSCALE
 40
1.0
  9
$DELOBJ
 70
     1
  9
$DISPSILH
 70
     0
  9
$DIMSCALE
 40
1.0
  9
$DIMASZ
 40
0.18
  9
$DIMEXO
 40
0.0625
  9
$DIMDLI
 40
0.38
  9
$DIMRND
 40
0.0
  9
$DIMDLE
 40
0.0
  9
$DIMEXE
 40
0.18
  9
$DIMTP
 40
0.0
  9
$DIMTM
 40
0.0
  9
$DIMTXT
 40
0.18
  9
$DIMCEN
 40
0.09
  9
$DIMTSZ
 40
0.0
  9
$DIMTOL
 70
     0
  9
$DIMLIM
 70
     0
  9
$DIMTIH
 70
     1
  9
$DIMTOH
 70
     1
  9
$DIMSE1
 70
     0
  9
$DIMSE2
 70
     0
  9
$DIMTAD
 70
     0
  9
$DIMZIN
 70
     0
  9
$DIMBLK
  1

  9
$DIMASO
 70
     1
  9
$DIMSHO
 70
     1
  9
$DIMPOST
  1

  9
$DIMAPOST
  1

  9
$DIMALT
 70
     0
  9
$DIMALTD
 70
     2
  9
$DIMALTF
 40
25.4
  9
$DIMLFAC
 40
1.0
  9
$DIMTOFL
 70
     0
  9
$DIMTVP
 40
0.0
  9
$DIMTIX
 70
     0
  9
$DIMSOXD
 70
     0
  9
$DIMSAH
 70
     0
  9
$DIMBLK1
  1

  9
$DIMBLK2
  1

  9
$DIMSTYLE
  2
STANDARD
  9
$DIMCLRD
 70
     0
  9
$DIMCLRE
 70
     0
  9
$DIMCLRT
 70
     0
  9
$DIMTFAC
 40
1.0
  9
$DIMGAP
 40
0.09
  9
$DIMJUST
 70
     0
  9
$DIMSD1
 70
     0
  9
$DIMSD2
 70
     0
  9
$DIMTOLJ
 70
     1
  9
$DIMTZIN
 70
     0
  9
$DIMALTZ
 70
     0
  9
$DIMALTTZ
 70
     0
  9
$DIMFIT
 70
     3
  9
$DIMUPT
 70
     0
  9
$DIMUNIT
 70
     2
  9
$DIMDEC
 70
     4
  9
$DIMTDEC
 70
     4
  9
$DIMALTU
 70
     2
  9
$DIMALTTD
 70
     2
  9
$DIMTXSTY
  7
STANDARD
  9
$DIMAUNIT
 70
     0
  9
$LUNITS
 70
     2
  9
$LUPREC
 70
     4
  9
$SKETCHINC
 40
0.1
  9
$FILLETRAD
 40
0.0
  9
$AUNITS
 70
     0
  9
$AUPREC
 70
     0
  9
$MENU
  1
.
  9
$ELEVATION
 40
0.0
  9
$PELEVATION
 40
0.0
  9
$THICKNESS
 40
0.0
  9
$LIMCHECK
 70
     0
  9
$BLIPMODE
 70
     1
  9
$CHAMFERA
 40
0.0
  9
$CHAMFERB
 40
0.0
  9
$CHAMFERC
 40
0.0
  9
$CHAMFERD
 40
0.0
  9
$SKPOLY
 70
     0
  9
$TDCREATE
 40
2452163.482225462
  9
$TDUPDATE
 40
2452163.489678472
  9
$TDINDWG
 40
0.0323773148
  9
$TDUSRTIMER
 40
0.0323773148
  9
$USRTIMER
 70
     1
  9
$ANGBASE
 50
0.0
  9
$ANGDIR
 70
     0
  9
$PDMODE
 70
     0
  9
$PDSIZE
 40
0.0
  9
$PLINEWID
 40
0.0
  9
$COORDS
 70
     1
  9
$SPLFRAME
 70
     0
  9
$SPLINETYPE
 70
     6
  9
$SPLINESEGS
 70
     8
  9
$ATTDIA
 70
     0
  9
$ATTREQ
 70
     1
  9
$HANDLING
 70
     1
  9
$HANDSEED
  5
957
  9
$SURFTAB1
 70
     6
  9
$SURFTAB2
 70
     6
  9
$SURFTYPE
 70
     6
  9
$SURFU
 70
     6
  9
$SURFV
 70
     6
  9
$UCSNAME
  2

  9
$UCSORG
 10
0.0
 20
0.0
 30
0.0
  9
$UCSXDIR
 10
1.0
 20
0.0
 30
0.0
  9
$UCSYDIR
 10
0.0
 20
1.0
 30
0.0
  9
$PUCSNAME
  2

  9
$PUCSORG
 10
0.0
 20
0.0
 30
0.0
  9
$PUCSXDIR
 10
1.0
 20
0.0
 30
0.0
  9
$PUCSYDIR
 10
0.0
 20
1.0
 30
0.0
  9
$USERI1
 70
     0
  9
$USERI2
 70
     0
  9
$USERI3
 70
     0
  9
$USERI4
 70
     0
  9
$USERI5
 70
     0
  9
$USERR1
 40
0.0
  9
$USERR2
 40
0.0
  9
$USERR3
 40
0.0
  9
$USERR4
 40
0.0
  9
$USERR5
 40
0.0
  9
$WORLDVIEW
 70
     1
  9
$SHADEDGE
 70
     3
  9
$SHADEDIF
 70
    70
  9
$TILEMODE
 70
     1
  9
$MAXACTVP
 70
    16
  9
$PINSBASE
 10
0.0
 20
0.0
 30
0.0
  9
$PLIMCHECK
 70
     0
  9
$PEXTMIN
 10
1.000000E+20
 20
1.000000E+20
 30
1.000000E+20
  9
$PEXTMAX
 10
-1.000000E+20
 20
-1.000000E+20
 30
-1.000000E+20
  9
$PLIMMIN
 10
0.0
 20
0.0
  9
$PLIMMAX
 10
12.0
 20
9.0
  9
$UNITMODE
 70
     0
  9
$VISRETAIN
 70
     0
  9
$PLINEGEN
 70
     0
  9
$PSLTSCALE
 70
     1
  9
$TREEDEPTH
 70
  3020
  9
$PICKSTYLE
 70
     1
  9
$CMLSTYLE
  2
STANDARD
  9
$CMLJUST
 70
     0
  9
$CMLSCALE
 40
1.0
  9
$SAVEIMAGES
 70
     0
  0
ENDSEC
  0
SECTION
  2
CLASSES
  0
ENDSEC
  0
SECTION
  2
TABLES
  0
TABLE
  2
VPORT
  5
8
100
AcDbSymbolTable
 70
     3
  0
VPORT
  5
956
100
AcDbSymbolTableRecord
100
AcDbViewportTableRecord
  2
*ACTIVE
 70
     0
 10
0.0
 20
0.0
 11
1.0
 21
1.0
 12
-144.508374
 22
256.448792
 13
0.0
 23
0.0
 14
1.0
 24
1.0
 15
0.0
 25
0.0
 16
0.0
 26
0.0
 36
1.0
 17
0.0
 27
0.0
 37
0.0
 40
225.918005
 41
1.820976
 42
50.0
 43
0.0
 44
0.0
 50
0.0
 51
0.0
 71
     0
 72
   100
 73
     1
 74
     1
 75
     0
 76
     0
 77
     0
 78
     0
  0
ENDTAB
  0
TABLE
  2
LTYPE
  5
5
100
AcDbSymbolTable
 70
     5
  0
LTYPE
  5
13
100
AcDbSymbolTableRecord
100
AcDbLinetypeTableRecord
  2
BYBLOCK
 70
     0
  3

 72
    65
 73
     0
 40
0.0
  0
LTYPE
  5
14
100
AcDbSymbolTableRecord
100
AcDbLinetypeTableRecord
  2
BYLAYER
 70
     0
  3

 72
    65
 73
     0
 40
0.0
  0
LTYPE
  5
15
100
AcDbSymbolTableRecord
100
AcDbLinetypeTableRecord
  2
CONTINUOUS
 70
    64
  3
Solid line
 72
    65
 73
     0
 40
0.0
  0
LTYPE
  5
1E
100
AcDbSymbolTableRecord
100
AcDbLinetypeTableRecord
  2
DASHED
 70
    64
  3
__ __ __ __ __ __ __ __ __ __ __ __ __ __ __
 72
    65
 73
     2
 40
3.5
 49
2.0
 74
     0
 49
-1.5
 74
     0
  0
LTYPE
  5
1F
100
AcDbSymbolTableRecord
100
AcDbLinetypeTableRecord
  2
CENTER
 70
    64
  3
____ _ ____ _ ____ _ ____ _ ____ _ ____ _ ____
 72
    65
 73
     4
 40
17.5
 49
13.0
 74
     0
 49
-1.5
 74
     0
 49
1.5
 74
     0
 49
-1.5
 74
     0
  0
LTYPE
  5
20
100
AcDbSymbolTableRecord
100
AcDbLinetypeTableRecord
  2
PHANTOM
 70
    64
  3
_____ _ _ _____ _ _ _____ _ _ _____ _ _ ____  
 72
    65
 73
     6
 40
15.5
 49
8.0
 74
     0
 49
-1.5
 74
     0
 49
1.5
 74
     0
 49
-1.5
 74
     0
 49
1.5
 74
     0
 49
-1.5
 74
     0
  0
LTYPE
  5
21
100
AcDbSymbolTableRecord
100
AcDbLinetypeTableRecord
  2
DOT
 70
    64
  3
. . . . . . . . . . . . . . . . . . . . . . . .
 72
    65
 73
     2
 40
0.25
 49
0.0
 74
     0
 49
-0.25
 74
     0
  0
ENDTAB
  0
TABLE
  2
LAYER
  5
2
100
AcDbSymbolTable
 70
     1
  0
LAYER
  5
F
100
AcDbSymbolTableRecord
100
AcDbLayerTableRecord
  2
0
 70
     0
 62
     7
  6
CONTINUOUS
  0
ENDTAB
  0
TABLE
  2
STYLE
  5
3
100
AcDbSymbolTable
 70
     1
  0
STYLE
  5
10
100
AcDbSymbolTableRecord
100
AcDbTextStyleTableRecord
  2
STANDARD
 70
     0
 40
0.0
 41
1.0
 50
0.0
 71
     0
 42
0.2
  3
txt
  4

  0
ENDTAB
  0
TABLE
  2
VIEW
  5
6
100
AcDbSymbolTable
 70
     0
  0
ENDTAB
  0
TABLE
  2
UCS
  5
7
100
AcDbSymbolTable
 70
     0
  0
ENDTAB
  0
TABLE
  2
APPID
  5
9
100
AcDbSymbolTable
 70
     1
  0
APPID
  5
11
100
AcDbSymbolTableRecord
100
AcDbRegAppTableRecord
  2
ACAD
 70
     0
  0
ENDTAB
  0
TABLE
  2
DIMSTYLE
  5
A
100
AcDbSymbolTable
 70
     1
  0
DIMSTYLE
105
94C
100
AcDbSymbolTableRecord
100
AcDbDimStyleTableRecord
  2
STANDARD
 70
     0
  3

  4

  5

  6

  7

 40
1.0
 41
0.18
 42
0.0625
 43
0.38
 44
0.18
 45
0.0
 46
0.0
 47
0.0
 48
0.0
140
0.18
141
0.09
142
0.0
143
25.4
144
1.0
145
0.0
146
1.0
147
0.09
 71
     0
 72
     0
 73
     1
 74
     1
 75
     0
 76
     0
 77
     0
 78
     0
170
     0
171
     2
172
     0
173
     0
174
     0
175
     0
176
     0
177
     0
178
     0
270
     2
271
     4
272
     4
273
     2
274
     2
340
10
275
     0
280
     0
281
     0
282
     0
283
     1
284
     0
285
     0
286
     0
287
     3
288
     0
  0
ENDTAB
  0
TABLE
  2
BLOCK_RECORD
  5
1
100
AcDbSymbolTable
 70
     0
  0
BLOCK_RECORD
  5
19
100
AcDbSymbolTableRecord
100
AcDbBlockTableRecord
  2
*MODEL_SPACE
  0
BLOCK_RECORD
  5
16
100
AcDbSymbolTableRecord
100
AcDbBlockTableRecord
  2
*PAPER_SPACE
  0
ENDTAB
  0
ENDSEC
  0
SECTION
  2
BLOCKS
  0
BLOCK
  5
1A
100
AcDbEntity
  8
0
100
AcDbBlockBegin
  2
*MODEL_SPACE
 70
     0
 10
0.0
 20
0.0
 30
0.0
  3
*MODEL_SPACE
  1

  0
ENDBLK
  5
1B
100
AcDbEntity
  8
0
100
AcDbBlockEnd
  0
BLOCK
  5
17
100
AcDbEntity
 67
     1
  8
0
100
AcDbBlockBegin
  2
*PAPER_SPACE
 70
     0
 10
0.0
 20
0.0
 30
0.0
  3
*PAPER_SPACE
  1

  0
ENDBLK
  5
18
100
AcDbEntity
 67
     1
  8
0
100
AcDbBlockEnd
  0
ENDSEC
  0
SECTION
  2
ENTITIES
  0
LINE
  5
22
100
AcDbEntity
  8
0
  6
CONTINUOUS
 62
     7
100
AcDbLine
 10
290.0
 20
369.0
 30
0.0
 11
290.0
 21
353.0
 31
0.0
  0
LINE
  5
23
100
AcDbEntity
  8
0
  6
CONTINUOUS
 62
     7
100
AcDbLine
 10
350.0
 20
369.0
 30
0.0
 11
350.0
 21
-369.0
 31
0.0
  0
LINE
  5
24
100
AcDbEntity
  8
0
  6
CONTINUOUS
 62
     7
100
AcDbLine
 10
200.0
 20
369.0
 30
0.0
 11
200.0
 21
353.0
 31
0.0
  0
LINE
  5
25
100
AcDbEntity
  8
0
  6
CONTINUOUS
 62
     7
100
AcDbLine
 10
-350.0
 20
131.0
 30
0.0
 11
350.0
 21
131.0
 31
0.0
  0
LINE
  5
26
100
AcDbEntity
  8
0
  6
CONTINUOUS
 62
     7
100
AcDbLine
 10
-350.0
 20
369.0
 30
0.0
 11
350.0
 21
369.0
 31
0.0
  0
LINE
  5
27
100
AcDbEntity
  8
0
  6
CONTINUOUS
 62
     7
100
AcDbLine
 10
-350.0
 20
107.0
 30
0.0
 11
350.0
 21
107.0
 31
0.0
  0
LINE
  5
28
100
AcDbEntity
  8
0
  6
CONTINUOUS
 62
     7
100
AcDbLine
 10
-350.0
 20
123.0
 30
0.0
 11
350.0
 21
123.0
 31
0.0
  0
LINE
  5
29
100
AcDbEntity
  8
0
  6
CONTINUOUS
 62
     7
100
AcDbLine
 10
-350.0
 20
99.0
 30
0.0
 11
350.0
 21
99.0
 31
0.0
  0
LINE
  5
2A
100
AcDbEntity
  8
0
  6
CONTINUOUS
 62
     7
100
AcDbLine
 10
-120.0
 20
329.0
 30
0.0
 11
-120.0
 21
131.0
 31
0.0
  0
LINE
  5
2B
100
AcDbEntity
  8
0
  6
CONTINUOUS
 62
     7
100
AcDbLine
 10
190.0
 20
329.0
 30
0.0
 11
190.0
 21
131.0
 31
0.0
  0
LINE
  5
2C
100
AcDbEntity
  8
0
  6
CONTINUOUS
 62
     7
100
AcDbLine
 10
30.0
 20
337.0
 30
0.0
 11
30.0
 21
131.0
 31
0.0
  0
LINE
  5
2D
100
AcDbEntity
  8
0
  6
CONTINUOUS
 62
     7
100
AcDbLine
 10
260.0
 20
369.0
 30
0.0
 11
260.0
 21
353.0
 31
0.0
  0
LINE
  5
2E
100
AcDbEntity
  8
0
  6
CONTINUOUS
 62
     7
100
AcDbLine
 10
200.0
 20
361.0
 30
0.0
 11
350.0
 21
361.0
 31
0.0
  0
LINE
  5
2F
100
AcDbEntity
  8
0
  6
CONTINUOUS
 62
     7
100
AcDbLine
 10
-350.0
 20
369.0
 30
0.0
 11
-350.0
 21
-369.0
 31
0.0
  0
LINE
  5
30
100
AcDbEntity
  8
0
  6
CONTINUOUS
 62
     7
100
AcDbLine
 10
-270.0
 20
353.0
 30
0.0
 11
-270.0
 21
-89.0
 31
0.0
  0
LINE
  5
31
100
AcDbEntity
  8
0
  6
CONTINUOUS
 62
     7
100
AcDbLine
 10
30.0
 20
115.0
 30
0.0
 11
30.0
 21
-89.0
 31
0.0
  0
LINE
  5
32
100
AcDbEntity
  8
0
  6
CONTINUOUS
 62
     7
100
AcDbLine
 10
-350.0
 20
353.0
 30
0.0
 11
350.0
 21
353.0
 31
0.0
  0
LINE
  5
33
100
AcDbEntity
  8
0
  6
CONTINUOUS
 62
     7
100
AcDbLine
 10
-350.0
 20
-89.0
 30
0.0
 11
350.0
 21
-89.0
 31
0.0
  0
LINE
  5
34
100
AcDbEntity
  8
0
  6
CONTINUOUS
 62
     7
100
AcDbLine
 10
-350.0
 20
345.0
 30
0.0
 11
350.0
 21
345.0
 31
0.0
  0
LINE
  5
35
100
AcDbEntity
  8
0
  6
CONTINUOUS
 62
     7
100
AcDbLine
 10
-120.0
 20
107.0
 30
0.0
 11
-120.0
 21
-89.0
 31
0.0
  0
LINE
  5
36
100
AcDbEntity
  8
0
  6
CONTINUOUS
 62
     7
100
AcDbLine
 10
-250.0
 20
369.0
 30
0.0
 11
-250.0
 21
353.0
 31
0.0
  0
LINE
  5
37
100
AcDbEntity
  8
0
  6
CONTINUOUS
 62
     7
100
AcDbLine
 10
-350.0
 20
329.0
 30
0.0
 11
350.0
 21
329.0
 31
0.0
  0
LINE
  5
38
100
AcDbEntity
  8
0
  6
CONTINUOUS
 62
     7
100
AcDbLine
 10
-350.0
 20
337.0
 30
0.0
 11
350.0
 21
337.0
 31
0.0
  0
LINE
  5
39
100
AcDbEntity
  8
0
  6
CONTINUOUS
 62
     7
100
AcDbLine
 10
-350.0
 20
115.0
 30
0.0
 11
350.0
 21
115.0
 31
0.0
  0
LINE
  5
3A
100
AcDbEntity
  8
0
  6
CONTINUOUS
 62
     7
100
AcDbLine
 10
190.0
 20
107.0
 30
0.0
 11
190.0
 21
-89.0
 31
0.0
  0
LINE
  5
3B
100
AcDbEntity
  8
0
  6
CONTINUOUS
 62
     7
100
AcDbLine
 10
-350.0
 20
321.0
 30
0.0
 11
350.0
 21
321.0
 31
0.0
  0
LINE
  5
3C
100
AcDbEntity
  8
0
  6
CONTINUOUS
 62
     7
100
AcDbLine
 10
-110.0
 20
-89.0
 30
0.0
 11
-110.0
 21
-369.0
 31
0.0
  0
LINE
  5
3D
100
AcDbEntity
  8
0
  6
CONTINUOUS
 62
     7
100
AcDbLine
 10
-350.0
 20
-97.0
 30
0.0
 11
350.0
 21
-97.0
 31
0.0
  0
LINE
  5
3E
100
AcDbEntity
  8
0
  6
CONTINUOUS
 62
     7
100
AcDbLine
 10
-350.0
 20
-369.0
 30
0.0
 11
350.0
 21
-369.0
 31
0.0
  0
LINE
  5
3F
100
AcDbEntity
  8
0
  6
CONTINUOUS
 62
     7
100
AcDbLine
 10
170.0
 20
-89.0
 30
0.0
 11
170.0
 21
-369.0
 31
0.0
  0
TEXT
  5
40
100
AcDbEntity
  8
0
  6
CONTINUOUS
 62
     7
100
AcDbText
 10
304.457
 20
355.4
 30
0.0
 40
3.2
  1
PU203-30,-45
 41
1.004935
100
AcDbText
  0
TEXT
  5
41
100
AcDbEntity
  8
0
  6
CONTINUOUS
 62
     7
100
AcDbText
 10
244.857
 20
323.4
 30
0.0
 40
3.2
  1
Inside (PUM-202-PB)
 41
1.003045
100
AcDbText
  0
TEXT
  5
42
100
AcDbEntity
  8
0
  6
CONTINUOUS
 62
     7
100
AcDbText
 10
83.257
 20
323.4
 30
0.0
 40
3.2
  1
Outside (PUM-202-PA)
 41
1.002863
100
AcDbText
  0
TEXT
  5
43
100
AcDbEntity
  8
0
  6
CONTINUOUS
 62
     7
100
AcDbText
 10
212.857
 20
363.4
 30
0.0
 40
3.2
  1
KOGANEI CORP.
 41
1.004473
100
AcDbText
  0
TEXT
  5
44
100
AcDbEntity
  8
0
  6
CONTINUOUS
 62
     7
100
AcDbText
 10
172.857
 20
331.4
 30
0.0
 40
3.2
  1
Outside (B)
 41
1.004473
100
AcDbText
  0
TEXT
  5
45
100
AcDbEntity
  8
0
  6
CONTINUOUS
 62
     7
100
AcDbText
 10
244.857
 20
101.4
 30
0.0
 40
3.2
  1
Inside (PUM-202-HAE)
 41
1.003045
100
AcDbText
  0
TEXT
  5
46
100
AcDbEntity
  8
0
  6
CONTINUOUS
 62
     7
100
AcDbText
 10
83.257
 20
101.4
 30
0.0
 40
3.2
  1
Outside (PUM-202-HAE)
 41
1.002863
100
AcDbText
  0
TEXT
  5
47
100
AcDbEntity
  8
0
  6
CONTINUOUS
 62
     7
100
AcDbText
 10
225.657
 20
355.4
 30
0.0
 40
3.2
  1
1:1
 41
1.017891
100
AcDbText
  0
TEXT
  5
48
100
AcDbEntity
  8
0
  6
CONTINUOUS
 62
     7
100
AcDbText
 10
267.457
 20
355.4
 30
0.0
 40
3.2
  1
MODEL
 41
1.010223
100
AcDbText
  0
TEXT
  5
49
100
AcDbEntity
  8
0
  6
CONTINUOUS
 62
     7
100
AcDbText
 10
172.857
 20
109.4
 30
0.0
 40
3.2
  1
Outside (B)
 41
1.004473
100
AcDbText
  0
TEXT
  5
4A
100
AcDbEntity
  8
0
  6
CONTINUOUS
 62
     7
100
AcDbText
 10
-221.743
 20
323.4
 30
0.0
 40
3.2
  1
Outside (PUM-202-PA)
 41
1.002863
100
AcDbText
  0
TEXT
  5
4B
100
AcDbEntity
  8
0
  6
CONTINUOUS
 62
     7
100
AcDbText
 10
-70.143
 20
323.4
 30
0.0
 40
3.2
  1
Inside (PUM-202-PB)
 41
1.003045
100
AcDbText
  0
TEXT
  5
4C
100
AcDbEntity
  8
0
  6
CONTINUOUS
 62
     7
100
AcDbText
 10
-135.543
 20
331.4
 30
0.0
 40
3.2
  1
Inside (A)
 41
1.004935
100
AcDbText
  0
TEXT
  5
4D
100
AcDbEntity
  8
0
  6
CONTINUOUS
 62
     7
100
AcDbText
 10
-221.743
 20
101.4
 30
0.0
 40
3.2
  1
Outside (PUM-202-HA)
 41
1.002863
100
AcDbText
  0
TEXT
  5
4E
100
AcDbEntity
  8
0
  6
CONTINUOUS
 62
     7
100
AcDbText
 10
-70.143
 20
101.4
 30
0.0
 40
3.2
  1
Inside (PUM-202-HA)
 41
1.003045
100
AcDbText
  0
TEXT
  5
4F
100
AcDbEntity
  8
0
  6
CONTINUOUS
 62
     7
100
AcDbText
 10
-135.543
 20
109.4
 30
0.0
 40
3.2
  1
Inside (A)
 41
1.004935
100
AcDbText
  0
TEXT
  5
50
100
AcDbEntity
  8
0
  6
CONTINUOUS
 62
     7
100
AcDbText
 10
-7.543
 20
117.4
 30
0.0
 40
3.2
  1
Pivot type (for fixed end) (F)
 41
1.001608
100
AcDbText
  0
TEXT
  5
51
100
AcDbEntity
  8
0
  6
CONTINUOUS
 62
     7
100
AcDbText
 10
19.657
 20
125.4
 30
0.0
 40
3.2
  1
for fixed end
 41
1.003766
100
AcDbText
  0
TEXT
  5
52
100
AcDbEntity
  8
0
  6
CONTINUOUS
 62
     7
100
AcDbText
 10
-7.543
 20
339.4
 30
0.0
 40
3.2
  1
Hole type (for moving end) (M)
 41
1.001608
100
AcDbText
  0
TEXT
  5
53
100
AcDbEntity
  8
0
  6
CONTINUOUS
 62
     7
100
AcDbText
 10
18.057
 20
347.4
 30
0.0
 40
3.2
  1
for moving end
 41
1.003491
100
AcDbText
  0
TEXT
  5
54
100
AcDbEntity
  8
0
  6
CONTINUOUS
 62
     7
100
AcDbText
 10
-314.343
 20
347.4
 30
0.0
 40
3.2
  1
use
 41
1.017891
100
AcDbText
  0
TEXT
  5
55
100
AcDbEntity
  8
0
  6
CONTINUOUS
 62
     7
100
AcDbText
 10
-328.743
 20
339.4
 30
0.0
 40
3.2
  1
Bracket type
 41
1.004089
100
AcDbText
  0
TEXT
  5
56
100
AcDbEntity
  8
0
  6
CONTINUOUS
 62
     7
100
AcDbText
 10
-336.743
 20
331.4
 30
0.0
 40
3.2
  1
Screwing position
 41
1.002863
100
AcDbText
  0
TEXT
  5
57
100
AcDbEntity
  8
0
  6
CONTINUOUS
 62
     7
100
AcDbText
 10
-327.143
 20
323.4
 30
0.0
 40
3.2
  1
Orientation
 41
1.004473
100
AcDbText
  0
TEXT
  5
58
100
AcDbEntity
  8
0
  6
CONTINUOUS
 62
     7
100
AcDbText
 10
298.057
 20
363.4
 30
0.0
 40
3.2
  1
Plachain Ducts
 41
1.003491
100
AcDbText
  0
TEXT
  5
59
100
AcDbEntity
  8
0
  6
CONTINUOUS
 62
     7
100
AcDbText
 10
-319.28594
 20
358.5
 30
0.0
 40
5.0
  1
PU203
 41
1.006223
100
AcDbText
  0
TEXT
  5
5A
100
AcDbEntity
  8
0
  6
CONTINUOUS
 62
     7
100
AcDbText
 10
-314.343
 20
125.4
 30
0.0
 40
3.2
  1
use
 41
1.017891
100
AcDbText
  0
TEXT
  5
5B
100
AcDbEntity
  8
0
  6
CONTINUOUS
 62
     7
100
AcDbText
 10
-328.743
 20
117.4
 30
0.0
 40
3.2
  1
Bracket type
 41
1.004089
100
AcDbText
  0
TEXT
  5
5C
100
AcDbEntity
  8
0
  6
CONTINUOUS
 62
     7
100
AcDbText
 10
-336.743
 20
109.4
 30
0.0
 40
3.2
  1
Screwing position
 41
1.002863
100
AcDbText
  0
TEXT
  5
5D
100
AcDbEntity
  8
0
  6
CONTINUOUS
 62
     7
100
AcDbText
 10
-327.143
 20
101.4
 30
0.0
 40
3.2
  1
Orientation
 41
1.004473
100
AcDbText
  0
TEXT
  5
5E
100
AcDbEntity
  8
0
  6
CONTINUOUS
 62
     7
100
AcDbText
 10
267.457
 20
363.4
 30
0.0
 40
3.2
  1
TITLE
 41
1.010223
100
AcDbText
  0
TEXT
  5
5F
100
AcDbEntity
  8
0
  6
CONTINUOUS
 62
     7
100
AcDbText
 10
250.857
 20
-94.6
 30
0.0
 40
3.2
  1
1BLOCK
 41
1.008419
100
AcDbText
  0
TEXT
  5
60
100
AcDbEntity
  8
0
  6
CONTINUOUS
 62
     7
100
AcDbText
 10
-234.343
 20
-94.6
 30
0.0
 40
3.2
  1
PU203-30
 41
1.017891
100
AcDbText
  0
TEXT
  5
61
100
AcDbEntity
  8
0
  6
CONTINUOUS
 62
     7
100
AcDbText
 10
25.657
 20
-94.6
 30
0.0
 40
3.2
  1
PU203-45
 41
1.017891
100
AcDbText
  0
POINT
  5
62
100
AcDbEntity
  8
0
  6
CONTINUOUS
 62
     7
100
AcDbPoint
 10
-300.0
 20
281.0
 30
0.0
  0
POINT
  5
63
100
AcDbEntity
  8
0
  6
CONTINUOUS
 62
     7
100
AcDbPoint
 10
-285.0
 20
281.0
 30
0.0
  0
LINE
  5
64
100
AcDbEntity
  8
0
  6
CONTINUOUS
 62
     7
100
AcDbLine
 10
-304.44868
 20
297.0
 30
0.0
 11
-304.44868
 21
294.0
 31
0.0
  0
LINE
  5
65
100
AcDbEntity
  8
0
  6
CONTINUOUS
 62
     7
100
AcDbLine
 10
-318.5
 20
291.0
 30
0.0
 11
-318.5
 21
271.0
 31
0.0
  0
LINE
  5
66
100
AcDbEntity
  8
0
  6
CONTINUOUS
 62
     7
100
AcDbLine
 10
-306.5
 20
291.0
 30
0.0
 11
-306.5
 21
271.0
 31
0.0
  0
LINE
  5
67
100
AcDbEntity
  8
0
  6
CENTER
 62
     7
100
AcDbLine
 10
-325.0
 20
302.0
 30
0.0
 11
-325.0
 21
260.0
 31
0.0
  0
LINE
  5
68
100
AcDbEntity
  8
0
  6
CENTER
 62
     7
100
AcDbLine
 10
-300.0
 20
302.0
 30
0.0
 11
-300.0
 21
260.0
 31
0.0
  0
LINE
  5
69
100
AcDbEntity
  8
0
  6
CONTINUOUS
 62
     7
100
AcDbLine
 10
-320.55132
 20
291.0
 30
0.0
 11
-315.5
 21
291.0
 31
0.0
  0
LINE
  5
6A
100
AcDbEntity
  8
0
  6
CONTINUOUS
 62
     7
100
AcDbLine
 10
-329.44868
 20
294.0
 30
0.0
 11
-320.55132
 21
294.0
 31
0.0
  0
LINE
  5
6B
100
AcDbEntity
  8
0
  6
CENTER
 62
     7
100
AcDbLine
 10
-340.0
 20
281.0
 30
0.0
 11
-285.0
 21
281.0
 31
0.0
  0
LINE
  5
6C
100
AcDbEntity
  8
0
  6
CONTINUOUS
 62
     7
100
AcDbLine
 10
-329.44868
 20
297.0
 30
0.0
 11
-304.44868
 21
297.0
 31
0.0
  0
LINE
  5
6D
100
AcDbEntity
  8
0
  6
CONTINUOUS
 62
     7
100
AcDbLine
 10
-320.55132
 20
294.0
 30
0.0
 11
-320.55132
 21
291.0
 31
0.0
  0
LINE
  5
6E
100
AcDbEntity
  8
0
  6
CONTINUOUS
 62
     7
100
AcDbLine
 10
-309.5
 20
291.0
 30
0.0
 11
-295.55132
 21
291.0
 31
0.0
  0
LINE
  5
6F
100
AcDbEntity
  8
0
  6
CONTINUOUS
 62
     7
100
AcDbLine
 10
-329.44868
 20
265.0
 30
0.0
 11
-304.44868
 21
265.0
 31
0.0
  0
LINE
  5
70
100
AcDbEntity
  8
0
  6
CONTINUOUS
 62
     7
100
AcDbLine
 10
-315.5
 20
296.1
 30
0.0
 11
-309.5
 21
296.1
 31
0.0
  0
LINE
  5
71
100
AcDbEntity
  8
0
  6
CONTINUOUS
 62
     7
100
AcDbLine
 10
-315.5
 20
296.1
 30
0.0
 11
-315.5
 21
291.0
 31
0.0
  0
LINE
  5
72
100
AcDbEntity
  8
0
  6
CONTINUOUS
 62
     7
100
AcDbLine
 10
-309.5
 20
296.1
 30
0.0
 11
-309.5
 21
291.0
 31
0.0
  0
LINE
  5
73
100
AcDbEntity
  8
0
  6
CONTINUOUS
 62
     7
100
AcDbLine
 10
-317.5
 20
291.0
 30
0.0
 11
-317.5
 21
271.0
 31
0.0
  0
LINE
  5
74
100
AcDbEntity
  8
0
  6
CONTINUOUS
 62
     7
100
AcDbLine
 10
-307.5
 20
291.0
 30
0.0
 11
-307.5
 21
271.0
 31
0.0
  0
LINE
  5
75
100
AcDbEntity
  8
0
  6
CONTINUOUS
 62
     7
100
AcDbLine
 10
-315.5
 20
295.5
 30
0.0
 11
-309.5
 21
295.5
 31
0.0
  0
LINE
  5
76
100
AcDbEntity
  8
0
  6
CONTINUOUS
 62
     7
100
AcDbLine
 10
-329.44868
 20
268.0
 30
0.0
 11
-320.55132
 21
268.0
 31
0.0
  0
LINE
  5
77
100
AcDbEntity
  8
0
  6
CONTINUOUS
 62
     7
100
AcDbLine
 10
-320.55132
 20
271.0
 30
0.0
 11
-315.5
 21
271.0
 31
0.0
  0
LINE
  5
78
100
AcDbEntity
  8
0
  6
CONTINUOUS
 62
     7
100
AcDbLine
 10
-304.44868
 20
265.0
 30
0.0
 11
-304.44868
 21
268.0
 31
0.0
  0
LINE
  5
79
100
AcDbEntity
  8
0
  6
CONTINUOUS
 62
     7
100
AcDbLine
 10
-320.55132
 20
268.0
 30
0.0
 11
-320.55132
 21
271.0
 31
0.0
  0
LINE
  5
7A
100
AcDbEntity
  8
0
  6
CONTINUOUS
 62
     7
100
AcDbLine
 10
-315.5
 20
265.9
 30
0.0
 11
-309.5
 21
265.9
 31
0.0
  0
LINE
  5
7B
100
AcDbEntity
  8
0
  6
CONTINUOUS
 62
     7
100
AcDbLine
 10
-315.5
 20
265.9
 30
0.0
 11
-315.5
 21
271.0
 31
0.0
  0
LINE
  5
7C
100
AcDbEntity
  8
0
  6
CONTINUOUS
 62
     7
100
AcDbLine
 10
-309.5
 20
265.9
 30
0.0
 11
-309.5
 21
271.0
 31
0.0
  0
LINE
  5
7D
100
AcDbEntity
  8
0
  6
CONTINUOUS
 62
     7
100
AcDbLine
 10
-315.5
 20
266.5
 30
0.0
 11
-309.5
 21
266.5
 31
0.0
  0
LINE
  5
7E
100
AcDbEntity
  8
0
  6
CENTER
 62
     7
100
AcDbLine
 10
-317.5
 20
268.2
 30
0.0
 11
-307.5
 21
268.2
 31
0.0
  0
LINE
  5
7F
100
AcDbEntity
  8
0
  6
CENTER
 62
     7
100
AcDbLine
 10
-317.5
 20
293.8
 30
0.0
 11
-307.5
 21
293.8
 31
0.0
  0
LINE
  5
80
100
AcDbEntity
  8
0
  6
CONTINUOUS
 62
     7
100
AcDbLine
 10
-309.5
 20
271.0
 30
0.0
 11
-295.55132
 21
271.0
 31
0.0
  0
LINE
  5
81
100
AcDbEntity
  8
0
  6
CONTINUOUS
 62
     7
100
AcDbLine
 10
-304.44868
 20
294.0
 30
0.0
 11
-295.55132
 21
294.0
 31
0.0
  0
LINE
  5
82
100
AcDbEntity
  8
0
  6
CONTINUOUS
 62
     7
100
AcDbLine
 10
-304.44868
 20
268.0
 30
0.0
 11
-295.55132
 21
268.0
 31
0.0
  0
POINT
  5
83
100
AcDbEntity
  8
0
  6
CONTINUOUS
 62
     7
100
AcDbPoint
 10
-300.0
 20
226.0
 30
0.0
  0
POINT
  5
84
100
AcDbEntity
  8
0
  6
CONTINUOUS
 62
     7
100
AcDbPoint
 10
-286.96
 20
226.0
 30
0.0
  0
LINE
  5
85
100
AcDbEntity
  8
0
  6
CONTINUOUS
 62
     7
100
AcDbLine
 10
-325.0
 20
236.0
 30
0.0
 11
-300.0
 21
236.0
 31
0.0
  0
LINE
  5
86
100
AcDbEntity
  8
0
  6
CONTINUOUS
 62
     7
100
AcDbLine
 10
-325.0
 20
216.0
 30
0.0
 11
-300.0
 21
216.0
 31
0.0
  0
LINE
  5
87
100
AcDbEntity
  8
0
  6
CONTINUOUS
 62
     7
100
AcDbLine
 10
-305.69024
 20
216.49483
 30
0.0
 11
-307.98426
 21
219.1808
 31
0.0
  0
LINE
  5
88
100
AcDbEntity
  8
0
  6
CONTINUOUS
 62
     7
100
AcDbLine
 10
-302.0
 20
228.87228
 30
0.0
 11
-302.0
 21
223.12772
 31
0.0
  0
LINE
  5
89
100
AcDbEntity
  8
0
  6
CENTER
 62
     7
100
AcDbLine
 10
-325.0
 20
238.54
 30
0.0
 11
-325.0
 21
213.46
 31
0.0
  0
LINE
  5
8A
100
AcDbEntity
  8
0
  6
CENTER
 62
     7
100
AcDbLine
 10
-337.54
 20
226.0
 30
0.0
 11
-312.46
 21
226.0
 31
0.0
  0
LINE
  5
8B
100
AcDbEntity
  8
0
  6
CENTER
 62
     7
100
AcDbLine
 10
-300.0
 20
239.04
 30
0.0
 11
-300.0
 21
212.96
 31
0.0
  0
LINE
  5
8C
100
AcDbEntity
  8
0
  6
CENTER
 62
     7
100
AcDbLine
 10
-313.04
 20
226.0
 30
0.0
 11
-286.96
 21
226.0
 31
0.0
  0
ARC
  5
8D
100
AcDbEntity
  8
0
  6
CONTINUOUS
 62
     7
100
AcDbCircle
 10
-325.0
 20
226.0
 30
0.0
 40
10.0
100
AcDbArc
 50
90.000003
 51
270.0
  0
ARC
  5
8E
100
AcDbEntity
  8
0
  6
CONTINUOUS
 62
     7
100
AcDbCircle
 10
-300.0
 20
226.0
 30
0.0
 40
10.5
100
AcDbArc
 50
116.0843
 51
220.49999
  0
ARC
  5
8F
100
AcDbEntity
  8
0
  6
CONTINUOUS
 62
     7
100
AcDbCircle
 10
-304.74868
 20
235.7
 30
0.0
 40
0.3
100
AcDbArc
 50
296.08429
 51
90.000003
  0
ARC
  5
90
100
AcDbEntity
  8
0
  6
CONTINUOUS
 62
     7
100
AcDbCircle
 10
-305.91836
 20
216.3
 30
0.0
 40
0.3
100
AcDbArc
 50
270.0
 51
40.499999
  0
CIRCLE
  5
91
100
AcDbEntity
  8
0
  6
CONTINUOUS
 62
     7
100
AcDbCircle
 10
-300.0
 20
226.0
 30
0.0
 40
3.5
  0
POINT
  5
92
100
AcDbEntity
  8
0
  6
CONTINUOUS
 62
     7
100
AcDbPoint
 10
-300.0
 20
171.0
 30
0.0
  0
POINT
  5
93
100
AcDbEntity
  8
0
  6
CONTINUOUS
 62
     7
100
AcDbPoint
 10
-285.0
 20
171.0
 30
0.0
  0
LINE
  5
94
100
AcDbEntity
  8
0
  6
CONTINUOUS
 62
     7
100
AcDbLine
 10
-305.61836
 20
158.0
 30
0.0
 11
-294.38164
 21
158.0
 31
0.0
  0
LINE
  5
95
100
AcDbEntity
  8
0
  6
CONTINUOUS
 62
     7
100
AcDbLine
 10
-319.38164
 20
184.0
 30
0.0
 11
-319.38164
 21
181.0
 31
0.0
  0
LINE
  5
96
100
AcDbEntity
  8
0
  6
CONTINUOUS
 62
     7
100
AcDbLine
 10
-330.61836
 20
184.0
 30
0.0
 11
-319.38164
 21
184.0
 31
0.0
  0
LINE
  5
97
100
AcDbEntity
  8
0
  6
CONTINUOUS
 62
     7
100
AcDbLine
 10
-330.61836
 20
187.0
 30
0.0
 11
-305.61836
 21
187.0
 31
0.0
  0
LINE
  5
98
100
AcDbEntity
  8
0
  6
CENTER
 62
     7
100
AcDbLine
 10
-340.0
 20
171.0
 30
0.0
 11
-285.0
 21
171.0
 31
0.0
  0
LINE
  5
99
100
AcDbEntity
  8
0
  6
CONTINUOUS
 62
     7
100
AcDbLine
 10
-319.38164
 20
181.0
 30
0.0
 11
-318.5
 21
181.0
 31
0.0
  0
LINE
  5
9A
100
AcDbEntity
  8
0
  6
CENTER
 62
     7
100
AcDbLine
 10
-300.0
 20
192.0
 30
0.0
 11
-300.0
 21
150.0
 31
0.0
  0
LINE
  5
9B
100
AcDbEntity
  8
0
  6
CENTER
 62
     7
100
AcDbLine
 10
-325.0
 20
192.0
 30
0.0
 11
-325.0
 21
150.0
 31
0.0
  0
LINE
  5
9C
100
AcDbEntity
  8
0
  6
CONTINUOUS
 62
     7
100
AcDbLine
 10
-306.5
 20
181.0
 30
0.0
 11
-306.5
 21
161.0
 31
0.0
  0
LINE
  5
9D
100
AcDbEntity
  8
0
  6
CONTINUOUS
 62
     7
100
AcDbLine
 10
-318.5
 20
181.0
 30
0.0
 11
-318.5
 21
161.0
 31
0.0
  0
LINE
  5
9E
100
AcDbEntity
  8
0
  6
CONTINUOUS
 62
     7
100
AcDbLine
 10
-319.38164
 20
161.0
 30
0.0
 11
-319.38164
 21
158.0
 31
0.0
  0
LINE
  5
9F
100
AcDbEntity
  8
0
  6
CONTINUOUS
 62
     7
100
AcDbLine
 10
-305.61836
 20
158.0
 30
0.0
 11
-305.61836
 21
155.0
 31
0.0
  0
LINE
  5
A0
100
AcDbEntity
  8
0
  6
CONTINUOUS
 62
     7
100
AcDbLine
 10
-306.5
 20
181.0
 30
0.0
 11
-294.38164
 21
181.0
 31
0.0
  0
LINE
  5
A1
100
AcDbEntity
  8
0
  6
CONTINUOUS
 62
     7
100
AcDbLine
 10
-330.61836
 20
155.0
 30
0.0
 11
-305.61836
 21
155.0
 31
0.0
  0
LINE
  5
A2
100
AcDbEntity
  8
0
  6
CONTINUOUS
 62
     7
100
AcDbLine
 10
-330.61836
 20
158.0
 30
0.0
 11
-319.38164
 21
158.0
 31
0.0
  0
LINE
  5
A3
100
AcDbEntity
  8
0
  6
CONTINUOUS
 62
     7
100
AcDbLine
 10
-319.38164
 20
161.0
 30
0.0
 11
-318.5
 21
161.0
 31
0.0
  0
LINE
  5
A4
100
AcDbEntity
  8
0
  6
CONTINUOUS
 62
     7
100
AcDbLine
 10
-306.5
 20
161.0
 30
0.0
 11
-294.38164
 21
161.0
 31
0.0
  0
LINE
  5
A5
100
AcDbEntity
  8
0
  6
CONTINUOUS
 62
     7
100
AcDbLine
 10
-305.61836
 20
187.0
 30
0.0
 11
-305.61836
 21
184.0
 31
0.0
  0
LINE
  5
A6
100
AcDbEntity
  8
0
  6
CONTINUOUS
 62
     7
100
AcDbLine
 10
-305.61836
 20
184.0
 30
0.0
 11
-294.38164
 21
184.0
 31
0.0
  0
POINT
  5
A7
100
AcDbEntity
  8
0
  6
CONTINUOUS
 62
     7
100
AcDbPoint
 10
-210.0
 20
273.10001
 30
0.0
  0
POINT
  5
A8
100
AcDbEntity
  8
0
  6
CONTINUOUS
 62
     7
100
AcDbPoint
 10
-200.0
 20
273.10001
 30
0.0
  0
LINE
  5
A9
100
AcDbEntity
  8
0
  6
CENTER
 62
     7
100
AcDbLine
 10
-206.75
 20
273.10001
 30
0.0
 11
-213.25
 21
273.10001
 31
0.0
  0
LINE
  5
AA
100
AcDbEntity
  8
0
  6
CONTINUOUS
 62
     7
100
AcDbLine
 10
-195.0
 20
267.10001
 30
0.0
 11
-195.0
 21
275.10001
 31
0.0
  0
LINE
  5
AB
100
AcDbEntity
  8
0
  6
CONTINUOUS
 62
     7
100
AcDbLine
 10
-195.0
 20
294.90001
 30
0.0
 11
-195.0
 21
286.90001
 31
0.0
  0
LINE
  5
AC
100
AcDbEntity
  8
0
  6
CONTINUOUS
 62
     7
100
AcDbLine
 10
-213.0
 20
284.90001
 30
0.0
 11
-197.0
 21
284.90001
 31
0.0
  0
LINE
  5
AD
100
AcDbEntity
  8
0
  6
CENTER
 62
     7
100
AcDbLine
 10
-210.0
 20
269.85001
 30
0.0
 11
-210.0
 21
276.35001
 31
0.0
  0
LINE
  5
AE
100
AcDbEntity
  8
0
  6
CENTER
 62
     7
100
AcDbLine
 10
-210.0
 20
292.15001
 30
0.0
 11
-210.0
 21
285.65001
 31
0.0
  0
LINE
  5
AF
100
AcDbEntity
  8
0
  6
CENTER
 62
     7
100
AcDbLine
 10
-196.75
 20
288.90001
 30
0.0
 11
-203.25
 21
288.90001
 31
0.0
  0
LINE
  5
B0
100
AcDbEntity
  8
0
  6
CENTER
 62
     7
100
AcDbLine
 10
-200.0
 20
292.15001
 30
0.0
 11
-200.0
 21
285.65001
 31
0.0
  0
LINE
  5
B1
100
AcDbEntity
  8
0
  6
CONTINUOUS
 62
     7
100
AcDbLine
 10
-213.0
 20
277.10001
 30
0.0
 11
-197.0
 21
277.10001
 31
0.0
  0
LINE
  5
B2
100
AcDbEntity
  8
0
  6
CENTER
 62
     7
100
AcDbLine
 10
-206.75
 20
288.90001
 30
0.0
 11
-213.25
 21
288.90001
 31
0.0
  0
LINE
  5
B3
100
AcDbEntity
  8
0
  6
CONTINUOUS
 62
     7
100
AcDbLine
 10
-215.0
 20
294.90001
 30
0.0
 11
-215.0
 21
286.90001
 31
0.0
  0
LINE
  5
B4
100
AcDbEntity
  8
0
  6
CENTER
 62
     7
100
AcDbLine
 10
-200.0
 20
269.85001
 30
0.0
 11
-200.0
 21
276.35001
 31
0.0
  0
LINE
  5
B5
100
AcDbEntity
  8
0
  6
CENTER
 62
     7
100
AcDbLine
 10
-196.75
 20
273.10001
 30
0.0
 11
-203.25
 21
273.10001
 31
0.0
  0
LINE
  5
B6
100
AcDbEntity
  8
0
  6
CONTINUOUS
 62
     7
100
AcDbLine
 10
-215.0
 20
267.10001
 30
0.0
 11
-215.0
 21
275.10001
 31
0.0
  0
LINE
  5
B7
100
AcDbEntity
  8
0
  6
CONTINUOUS
 62
     7
100
AcDbLine
 10
-229.44868
 20
297.00001
 30
0.0
 11
-229.44868
 21
293.70001
 31
0.0
  0
LINE
  5
B8
100
AcDbEntity
  8
0
  6
CONTINUOUS
 62
     7
100
AcDbLine
 10
-243.5
 20
291.00001
 30
0.0
 11
-243.5
 21
271.00001
 31
0.0
  0
LINE
  5
B9
100
AcDbEntity
  8
0
  6
CONTINUOUS
 62
     7
100
AcDbLine
 10
-231.5
 20
291.00001
 30
0.0
 11
-231.5
 21
271.00001
 31
0.0
  0
LINE
  5
BA
100
AcDbEntity
  8
0
  6
CENTER
 62
     7
100
AcDbLine
 10
-250.0
 20
302.00001
 30
0.0
 11
-250.0
 21
260.00001
 31
0.0
  0
LINE
  5
BB
100
AcDbEntity
  8
0
  6
CENTER
 62
     7
100
AcDbLine
 10
-225.0
 20
302.00001
 30
0.0
 11
-225.0
 21
260.00001
 31
0.0
  0
LINE
  5
BC
100
AcDbEntity
  8
0
  6
CONTINUOUS
 62
     7
100
AcDbLine
 10
-229.44868
 20
293.70001
 30
0.0
 11
-215.0
 21
293.70001
 31
0.0
  0
LINE
  5
BD
100
AcDbEntity
  8
0
  6
CONTINUOUS
 62
     7
100
AcDbLine
 10
-245.55132
 20
291.00001
 30
0.0
 11
-240.5
 21
291.00001
 31
0.0
  0
LINE
  5
BE
100
AcDbEntity
  8
0
  6
CONTINUOUS
 62
     7
100
AcDbLine
 10
-254.44868
 20
294.00001
 30
0.0
 11
-245.55132
 21
294.00001
 31
0.0
  0
LINE
  5
BF
100
AcDbEntity
  8
0
  6
CENTER
 62
     7
100
AcDbLine
 10
-265.0
 20
281.00001
 30
0.0
 11
-200.0
 21
281.00001
 31
0.0
  0
LINE
  5
C0
100
AcDbEntity
  8
0
  6
CONTINUOUS
 62
     7
100
AcDbLine
 10
-254.44868
 20
297.00001
 30
0.0
 11
-229.44868
 21
297.00001
 31
0.0
  0
LINE
  5
C1
100
AcDbEntity
  8
0
  6
CONTINUOUS
 62
     7
100
AcDbLine
 10
-245.55132
 20
294.00001
 30
0.0
 11
-245.55132
 21
291.00001
 31
0.0
  0
LINE
  5
C2
100
AcDbEntity
  8
0
  6
CONTINUOUS
 62
     7
100
AcDbLine
 10
-234.5
 20
291.00001
 30
0.0
 11
-215.0
 21
291.00001
 31
0.0
  0
LINE
  5
C3
100
AcDbEntity
  8
0
  6
CONTINUOUS
 62
     7
100
AcDbLine
 10
-254.44868
 20
265.00001
 30
0.0
 11
-229.44868
 21
265.00001
 31
0.0
  0
LINE
  5
C4
100
AcDbEntity
  8
0
  6
CONTINUOUS
 62
     7
100
AcDbLine
 10
-240.5
 20
296.10001
 30
0.0
 11
-234.5
 21
296.10001
 31
0.0
  0
LINE
  5
C5
100
AcDbEntity
  8
0
  6
CONTINUOUS
 62
     7
100
AcDbLine
 10
-240.5
 20
296.10001
 30
0.0
 11
-240.5
 21
291.00001
 31
0.0
  0
LINE
  5
C6
100
AcDbEntity
  8
0
  6
CONTINUOUS
 62
     7
100
AcDbLine
 10
-234.5
 20
296.10001
 30
0.0
 11
-234.5
 21
291.00001
 31
0.0
  0
LINE
  5
C7
100
AcDbEntity
  8
0
  6
CONTINUOUS
 62
     7
100
AcDbLine
 10
-242.5
 20
291.00001
 30
0.0
 11
-242.5
 21
271.00001
 31
0.0
  0
LINE
  5
C8
100
AcDbEntity
  8
0
  6
CONTINUOUS
 62
     7
100
AcDbLine
 10
-232.5
 20
291.00001
 30
0.0
 11
-232.5
 21
271.00001
 31
0.0
  0
LINE
  5
C9
100
AcDbEntity
  8
0
  6
CONTINUOUS
 62
     7
100
AcDbLine
 10
-240.5
 20
295.50001
 30
0.0
 11
-234.5
 21
295.50001
 31
0.0
  0
LINE
  5
CA
100
AcDbEntity
  8
0
  6
CONTINUOUS
 62
     7
100
AcDbLine
 10
-254.44868
 20
268.00001
 30
0.0
 11
-245.55132
 21
268.00001
 31
0.0
  0
LINE
  5
CB
100
AcDbEntity
  8
0
  6
CONTINUOUS
 62
     7
100
AcDbLine
 10
-245.55132
 20
271.00001
 30
0.0
 11
-240.5
 21
271.00001
 31
0.0
  0
LINE
  5
CC
100
AcDbEntity
  8
0
  6
CONTINUOUS
 62
     7
100
AcDbLine
 10
-229.44868
 20
265.00001
 30
0.0
 11
-229.44868
 21
268.30001
 31
0.0
  0
LINE
  5
CD
100
AcDbEntity
  8
0
  6
CONTINUOUS
 62
     7
100
AcDbLine
 10
-245.55132
 20
268.00001
 30
0.0
 11
-245.55132
 21
271.00001
 31
0.0
  0
LINE
  5
CE
100
AcDbEntity
  8
0
  6
CONTINUOUS
 62
     7
100
AcDbLine
 10
-240.5
 20
265.90001
 30
0.0
 11
-234.5
 21
265.90001
 31
0.0
  0
LINE
  5
CF
100
AcDbEntity
  8
0
  6
CONTINUOUS
 62
     7
100
AcDbLine
 10
-240.5
 20
265.90001
 30
0.0
 11
-240.5
 21
271.00001
 31
0.0
  0
LINE
  5
D0
100
AcDbEntity
  8
0
  6
CONTINUOUS
 62
     7
100
AcDbLine
 10
-234.5
 20
265.90001
 30
0.0
 11
-234.5
 21
271.00001
 31
0.0
  0
LINE
  5
D1
100
AcDbEntity
  8
0
  6
CONTINUOUS
 62
     7
100
AcDbLine
 10
-240.5
 20
266.50001
 30
0.0
 11
-234.5
 21
266.50001
 31
0.0
  0
LINE
  5
D2
100
AcDbEntity
  8
0
  6
CENTER
 62
     7
100
AcDbLine
 10
-242.5
 20
268.20001
 30
0.0
 11
-232.5
 21
268.20001
 31
0.0
  0
LINE
  5
D3
100
AcDbEntity
  8
0
  6
CENTER
 62
     7
100
AcDbLine
 10
-242.5
 20
293.80001
 30
0.0
 11
-232.5
 21
293.80001
 31
0.0
  0
LINE
  5
D4
100
AcDbEntity
  8
0
  6
CONTINUOUS
 62
     7
100
AcDbLine
 10
-229.44868
 20
294.90001
 30
0.0
 11
-195.0
 21
294.90001
 31
0.0
  0
LINE
  5
D5
100
AcDbEntity
  8
0
  6
CONTINUOUS
 62
     7
100
AcDbLine
 10
-229.44868
 20
268.30001
 30
0.0
 11
-215.0
 21
268.30001
 31
0.0
  0
LINE
  5
D6
100
AcDbEntity
  8
0
  6
CONTINUOUS
 62
     7
100
AcDbLine
 10
-234.5
 20
271.00001
 30
0.0
 11
-215.0
 21
271.00001
 31
0.0
  0
LINE
  5
D7
100
AcDbEntity
  8
0
  6
CONTINUOUS
 62
     7
100
AcDbLine
 10
-229.44868
 20
267.10001
 30
0.0
 11
-195.0
 21
267.10001
 31
0.0
  0
ARC
  5
D8
100
AcDbEntity
  8
0
  6
CONTINUOUS
 62
     7
100
AcDbCircle
 10
-213.0
 20
286.90001
 30
0.0
 40
2.0
100
AcDbArc
 50
179.99999
 51
270.0
  0
ARC
  5
D9
100
AcDbEntity
  8
0
  6
CONTINUOUS
 62
     7
100
AcDbCircle
 10
-213.0
 20
275.10001
 30
0.0
 40
2.0
100
AcDbArc
 50
90.000003
 51
180.00001
  0
CIRCLE
  5
DA
100
AcDbEntity
  8
0
  6
CONTINUOUS
 62
     7
100
AcDbCircle
 10
-210.0
 20
288.90001
 30
0.0
 40
2.25
  0
ARC
  5
DB
100
AcDbEntity
  8
0
  6
CONTINUOUS
 62
     7
100
AcDbCircle
 10
-197.0
 20
286.90001
 30
0.0
 40
2.0
100
AcDbArc
 50
270.0
 51
0.0
  0
CIRCLE
  5
DC
100
AcDbEntity
  8
0
  6
CONTINUOUS
 62
     7
100
AcDbCircle
 10
-200.0
 20
288.90001
 30
0.0
 40
2.25
  0
CIRCLE
  5
DD
100
AcDbEntity
  8
0
  6
CONTINUOUS
 62
     7
100
AcDbCircle
 10
-210.0
 20
273.10001
 30
0.0
 40
2.25
  0
ARC
  5
DE
100
AcDbEntity
  8
0
  6
CONTINUOUS
 62
     7
100
AcDbCircle
 10
-197.0
 20
275.10001
 30
0.0
 40
2.0
100
AcDbArc
 50
0.0
 51
90.000003
  0
CIRCLE
  5
DF
100
AcDbEntity
  8
0
  6
CONTINUOUS
 62
     7
100
AcDbCircle
 10
-200.0
 20
273.10001
 30
0.0
 40
2.25
  0
POINT
  5
E0
100
AcDbEntity
  8
0
  6
CONTINUOUS
 62
     7
100
AcDbPoint
 10
-210.0
 20
236.0
 30
0.0
  0
POINT
  5
E1
100
AcDbEntity
  8
0
  6
CONTINUOUS
 62
     7
100
AcDbPoint
 10
-200.0
 20
236.0
 30
0.0
  0
LINE
  5
E2
100
AcDbEntity
  8
0
  6
CONTINUOUS
 62
     7
100
AcDbLine
 10
-250.0
 20
236.0
 30
0.0
 11
-218.0
 21
236.0
 31
0.0
  0
LINE
  5
E3
100
AcDbEntity
  8
0
  6
CONTINUOUS
 62
     7
100
AcDbLine
 10
-215.0
 20
236.0
 30
0.0
 11
-195.0
 21
236.0
 31
0.0
  0
LINE
  5
E4
100
AcDbEntity
  8
0
  6
CONTINUOUS
 62
     7
100
AcDbLine
 10
-195.0
 20
236.0
 30
0.0
 11
-195.0
 21
233.071
 31
0.0
  0
LINE
  5
E5
100
AcDbEntity
  8
0
  6
DASHED
 62
     7
100
AcDbLine
 10
-215.0
 20
234.8
 30
0.0
 11
-215.0
 21
236.0
 31
0.0
  0
LINE
  5
E6
100
AcDbEntity
  8
0
  6
DASHED
 62
     7
100
AcDbLine
 10
-215.0
 20
234.8
 30
0.0
 11
-195.0
 21
234.8
 31
0.0
  0
LINE
  5
E7
100
AcDbEntity
  8
0
  6
CENTER
 62
     7
100
AcDbLine
 10
-210.0
 20
238.0
 30
0.0
 11
-210.0
 21
232.8
 31
0.0
  0
LINE
  5
E8
100
AcDbEntity
  8
0
  6
CENTER
 62
     7
100
AcDbLine
 10
-200.0
 20
238.0
 30
0.0
 11
-200.0
 21
232.8
 31
0.0
  0
LINE
  5
E9
100
AcDbEntity
  8
0
  6
CENTER
 62
     7
100
AcDbLine
 10
-243.96
 20
226.0
 30
0.0
 11
-256.04
 21
226.0
 31
0.0
  0
LINE
  5
EA
100
AcDbEntity
  8
0
  6
CENTER
 62
     7
100
AcDbLine
 10
-218.96
 20
226.0
 30
0.0
 11
-231.04
 21
226.0
 31
0.0
  0
LINE
  5
EB
100
AcDbEntity
  8
0
  6
CENTER
 62
     7
100
AcDbLine
 10
-250.0
 20
232.04
 30
0.0
 11
-250.0
 21
219.96
 31
0.0
  0
LINE
  5
EC
100
AcDbEntity
  8
0
  6
CONTINUOUS
 62
     7
100
AcDbLine
 10
-250.0
 20
216.0
 30
0.0
 11
-225.0
 21
216.0
 31
0.0
  0
LINE
  5
ED
100
AcDbEntity
  8
0
  6
CONTINUOUS
 62
     7
100
AcDbLine
 10
-230.69024
 20
216.49483
 30
0.0
 11
-232.98426
 21
219.1808
 31
0.0
  0
LINE
  5
EE
100
AcDbEntity
  8
0
  6
CONTINUOUS
 62
     7
100
AcDbLine
 10
-227.0
 20
228.87228
 30
0.0
 11
-227.0
 21
223.12772
 31
0.0
  0
LINE
  5
EF
100
AcDbEntity
  8
0
  6
CENTER
 62
     7
100
AcDbLine
 10
-225.0
 20
232.04
 30
0.0
 11
-225.0
 21
219.96
 31
0.0
  0
LINE
  5
F0
100
AcDbEntity
  8
0
  6
CONTINUOUS
 62
     7
100
AcDbLine
 10
-197.73897
 20
228.612
 30
0.0
 11
-220.47799
 21
217.08099
 31
0.0
  0
LINE
  5
F1
100
AcDbEntity
  8
0
  6
CONTINUOUS
 62
     7
100
AcDbLine
 10
-231.19677
 20
225.8
 30
0.0
 11
-234.47498
 21
225.8
 31
0.0
  0
LINE
  5
F2
100
AcDbEntity
  8
0
  6
CONTINUOUS
 62
     7
100
AcDbLine
 10
-229.97494
 20
229.7
 30
0.0
 11
-233.521
 21
229.7
 31
0.0
  0
ARC
  5
F3
100
AcDbEntity
  8
0
  6
CONTINUOUS
 62
     7
100
AcDbCircle
 10
-200.0
 20
233.071
 30
0.0
 40
5.0
100
AcDbArc
 50
296.8883
 51
0.0
  0
ARC
  5
F4
100
AcDbEntity
  8
0
  6
CONTINUOUS
 62
     7
100
AcDbCircle
 10
-216.5
 20
236.0
 30
0.0
 40
1.5
100
AcDbArc
 50
179.99999
 51
0.00001
  0
ARC
  5
F5
100
AcDbEntity
  8
0
  6
CONTINUOUS
 62
     7
100
AcDbCircle
 10
-250.0
 20
226.0
 30
0.0
 40
10.0
100
AcDbArc
 50
90.000003
 51
270.0
  0
ARC
  5
F6
100
AcDbEntity
  8
0
  6
CONTINUOUS
 62
     7
100
AcDbCircle
 10
-225.0
 20
226.0
 30
0.0
 40
10.5
100
AcDbArc
 50
116.0843
 51
220.49999
  0
ARC
  5
F7
100
AcDbEntity
  8
0
  6
CONTINUOUS
 62
     7
100
AcDbCircle
 10
-229.74868
 20
235.7
 30
0.0
 40
0.3
100
AcDbArc
 50
296.08429
 51
90.000003
  0
ARC
  5
F8
100
AcDbEntity
  8
0
  6
CONTINUOUS
 62
     7
100
AcDbCircle
 10
-230.91836
 20
216.3
 30
0.0
 40
0.3
100
AcDbArc
 50
270.0
 51
40.499999
  0
CIRCLE
  5
F9
100
AcDbEntity
  8
0
  6
CONTINUOUS
 62
     7
100
AcDbCircle
 10
-225.0
 20
226.0
 30
0.0
 40
3.5
  0
ARC
  5
FA
100
AcDbEntity
  8
0
  6
CONTINUOUS
 62
     7
100
AcDbCircle
 10
-233.521
 20
230.2
 30
0.0
 40
0.5
100
AcDbArc
 50
153.761
 51
270.0
  0
ARC
  5
FB
100
AcDbEntity
  8
0
  6
CONTINUOUS
 62
     7
100
AcDbCircle
 10
-225.0
 20
226.0
 30
0.0
 40
6.2
100
AcDbArc
 50
143.36082
 51
181.84854
  0
ARC
  5
FC
100
AcDbEntity
  8
0
  6
CONTINUOUS
 62
     7
100
AcDbCircle
 10
-225.0
 20
226.0
 30
0.0
 40
10.0
100
AcDbArc
 50
184.225
 51
296.5938
  0
ARC
  5
FD
100
AcDbEntity
  8
0
  6
CONTINUOUS
 62
     7
100
AcDbCircle
 10
-225.0
 20
226.0
 30
0.0
 40
10.0
100
AcDbArc
 50
90.000003
 51
153.761
  0
ARC
  5
FE
100
AcDbEntity
  8
0
  6
CONTINUOUS
 62
     7
100
AcDbCircle
 10
-234.47498
 20
225.3
 30
0.0
 40
0.5
100
AcDbArc
 50
89.998097
 51
184.224
  0
POINT
  5
FF
100
AcDbEntity
  8
0
  6
CONTINUOUS
 62
     7
100
AcDbPoint
 10
-210.0
 20
178.89999
 30
0.0
  0
POINT
  5
100
100
AcDbEntity
  8
0
  6
CONTINUOUS
 62
     7
100
AcDbPoint
 10
-200.0
 20
178.89999
 30
0.0
  0
LINE
  5
101
100
AcDbEntity
  8
0
  6
CENTER
 62
     7
100
AcDbLine
 10
-206.75
 20
163.09999
 30
0.0
 11
-213.25
 21
163.09999
 31
0.0
  0
LINE
  5
102
100
AcDbEntity
  8
0
  6
CONTINUOUS
 62
     7
100
AcDbLine
 10
-195.0
 20
184.89999
 30
0.0
 11
-195.0
 21
176.89999
 31
0.0
  0
LINE
  5
103
100
AcDbEntity
  8
0
  6
CONTINUOUS
 62
     7
100
AcDbLine
 10
-195.0
 20
157.09999
 30
0.0
 11
-195.0
 21
165.09999
 31
0.0
  0
LINE
  5
104
100
AcDbEntity
  8
0
  6
CONTINUOUS
 62
     7
100
AcDbLine
 10
-213.0
 20
174.89999
 30
0.0
 11
-197.0
 21
174.89999
 31
0.0
  0
LINE
  5
105
100
AcDbEntity
  8
0
  6
CENTER
 62
     7
100
AcDbLine
 10
-210.0
 20
159.84999
 30
0.0
 11
-210.0
 21
166.34999
 31
0.0
  0
LINE
  5
106
100
AcDbEntity
  8
0
  6
CENTER
 62
     7
100
AcDbLine
 10
-210.0
 20
182.14999
 30
0.0
 11
-210.0
 21
175.64999
 31
0.0
  0
LINE
  5
107
100
AcDbEntity
  8
0
  6
CENTER
 62
     7
100
AcDbLine
 10
-196.75
 20
178.89999
 30
0.0
 11
-203.25
 21
178.89999
 31
0.0
  0
LINE
  5
108
100
AcDbEntity
  8
0
  6
CENTER
 62
     7
100
AcDbLine
 10
-200.0
 20
182.14999
 30
0.0
 11
-200.0
 21
175.64999
 31
0.0
  0
LINE
  5
109
100
AcDbEntity
  8
0
  6
CONTINUOUS
 62
     7
100
AcDbLine
 10
-213.0
 20
167.09999
 30
0.0
 11
-197.0
 21
167.09999
 31
0.0
  0
LINE
  5
10A
100
AcDbEntity
  8
0
  6
CENTER
 62
     7
100
AcDbLine
 10
-206.75
 20
178.89999
 30
0.0
 11
-213.25
 21
178.89999
 31
0.0
  0
LINE
  5
10B
100
AcDbEntity
  8
0
  6
CONTINUOUS
 62
     7
100
AcDbLine
 10
-215.0
 20
183.69999
 30
0.0
 11
-215.0
 21
176.89999
 31
0.0
  0
LINE
  5
10C
100
AcDbEntity
  8
0
  6
CENTER
 62
     7
100
AcDbLine
 10
-200.0
 20
159.84999
 30
0.0
 11
-200.0
 21
166.34999
 31
0.0
  0
LINE
  5
10D
100
AcDbEntity
  8
0
  6
CENTER
 62
     7
100
AcDbLine
 10
-196.75
 20
163.09999
 30
0.0
 11
-203.25
 21
163.09999
 31
0.0
  0
LINE
  5
10E
100
AcDbEntity
  8
0
  6
CONTINUOUS
 62
     7
100
AcDbLine
 10
-215.0
 20
158.29999
 30
0.0
 11
-215.0
 21
165.09999
 31
0.0
  0
LINE
  5
10F
100
AcDbEntity
  8
0
  6
CONTINUOUS
 62
     7
100
AcDbLine
 10
-244.38164
 20
183.99999
 30
0.0
 11
-244.38164
 21
180.99999
 31
0.0
  0
LINE
  5
110
100
AcDbEntity
  8
0
  6
CONTINUOUS
 62
     7
100
AcDbLine
 10
-255.61836
 20
183.99999
 30
0.0
 11
-244.38164
 21
183.99999
 31
0.0
  0
LINE
  5
111
100
AcDbEntity
  8
0
  6
CONTINUOUS
 62
     7
100
AcDbLine
 10
-255.61836
 20
186.99999
 30
0.0
 11
-230.61836
 21
186.99999
 31
0.0
  0
LINE
  5
112
100
AcDbEntity
  8
0
  6
CENTER
 62
     7
100
AcDbLine
 10
-265.0
 20
170.99999
 30
0.0
 11
-200.0
 21
170.99999
 31
0.0
  0
LINE
  5
113
100
AcDbEntity
  8
0
  6
CONTINUOUS
 62
     7
100
AcDbLine
 10
-244.38164
 20
180.99999
 30
0.0
 11
-243.5
 21
180.99999
 31
0.0
  0
LINE
  5
114
100
AcDbEntity
  8
0
  6
CONTINUOUS
 62
     7
100
AcDbLine
 10
-230.61836
 20
183.69999
 30
0.0
 11
-195.0
 21
183.69999
 31
0.0
  0
LINE
  5
115
100
AcDbEntity
  8
0
  6
CENTER
 62
     7
100
AcDbLine
 10
-225.0
 20
191.99999
 30
0.0
 11
-225.0
 21
149.99999
 31
0.0
  0
LINE
  5
116
100
AcDbEntity
  8
0
  6
CENTER
 62
     7
100
AcDbLine
 10
-250.0
 20
191.99999
 30
0.0
 11
-250.0
 21
149.99999
 31
0.0
  0
LINE
  5
117
100
AcDbEntity
  8
0
  6
CONTINUOUS
 62
     7
100
AcDbLine
 10
-231.5
 20
180.99999
 30
0.0
 11
-231.5
 21
160.99999
 31
0.0
  0
LINE
  5
118
100
AcDbEntity
  8
0
  6
CONTINUOUS
 62
     7
100
AcDbLine
 10
-243.5
 20
180.99999
 30
0.0
 11
-243.5
 21
160.99999
 31
0.0
  0
LINE
  5
119
100
AcDbEntity
  8
0
  6
CONTINUOUS
 62
     7
100
AcDbLine
 10
-244.38164
 20
160.99999
 30
0.0
 11
-244.38164
 21
157.99999
 31
0.0
  0
LINE
  5
11A
100
AcDbEntity
  8
0
  6
CONTINUOUS
 62
     7
100
AcDbLine
 10
-230.61836
 20
158.29999
 30
0.0
 11
-230.61836
 21
154.99999
 31
0.0
  0
LINE
  5
11B
100
AcDbEntity
  8
0
  6
CONTINUOUS
 62
     7
100
AcDbLine
 10
-231.5
 20
180.99999
 30
0.0
 11
-215.0
 21
180.99999
 31
0.0
  0
LINE
  5
11C
100
AcDbEntity
  8
0
  6
CONTINUOUS
 62
     7
100
AcDbLine
 10
-255.61836
 20
154.99999
 30
0.0
 11
-230.61836
 21
154.99999
 31
0.0
  0
LINE
  5
11D
100
AcDbEntity
  8
0
  6
CONTINUOUS
 62
     7
100
AcDbLine
 10
-255.61836
 20
157.99999
 30
0.0
 11
-244.38164
 21
157.99999
 31
0.0
  0
LINE
  5
11E
100
AcDbEntity
  8
0
  6
CONTINUOUS
 62
     7
100
AcDbLine
 10
-244.38164
 20
160.99999
 30
0.0
 11
-243.5
 21
160.99999
 31
0.0
  0
LINE
  5
11F
100
AcDbEntity
  8
0
  6
CONTINUOUS
 62
     7
100
AcDbLine
 10
-230.61836
 20
158.29999
 30
0.0
 11
-195.0
 21
158.29999
 31
0.0
  0
LINE
  5
120
100
AcDbEntity
  8
0
  6
CONTINUOUS
 62
     7
100
AcDbLine
 10
-231.5
 20
160.99999
 30
0.0
 11
-215.0
 21
160.99999
 31
0.0
  0
LINE
  5
121
100
AcDbEntity
  8
0
  6
CONTINUOUS
 62
     7
100
AcDbLine
 10
-230.61836
 20
186.99999
 30
0.0
 11
-230.61836
 21
183.69999
 31
0.0
  0
LINE
  5
122
100
AcDbEntity
  8
0
  6
CONTINUOUS
 62
     7
100
AcDbLine
 10
-230.61836
 20
184.89999
 30
0.0
 11
-195.0
 21
184.89999
 31
0.0
  0
LINE
  5
123
100
AcDbEntity
  8
0
  6
CONTINUOUS
 62
     7
100
AcDbLine
 10
-230.61836
 20
157.09999
 30
0.0
 11
-195.0
 21
157.09999
 31
0.0
  0
ARC
  5
124
100
AcDbEntity
  8
0
  6
CONTINUOUS
 62
     7
100
AcDbCircle
 10
-213.0
 20
176.89999
 30
0.0
 40
2.0
100
AcDbArc
 50
179.99999
 51
270.0
  0
ARC
  5
125
100
AcDbEntity
  8
0
  6
CONTINUOUS
 62
     7
100
AcDbCircle
 10
-213.0
 20
165.09999
 30
0.0
 40
2.0
100
AcDbArc
 50
90.000003
 51
180.00001
  0
CIRCLE
  5
126
100
AcDbEntity
  8
0
  6
CONTINUOUS
 62
     7
100
AcDbCircle
 10
-210.0
 20
178.89999
 30
0.0
 40
2.25
  0
ARC
  5
127
100
AcDbEntity
  8
0
  6
CONTINUOUS
 62
     7
100
AcDbCircle
 10
-197.0
 20
176.89999
 30
0.0
 40
2.0
100
AcDbArc
 50
270.0
 51
0.0
  0
CIRCLE
  5
128
100
AcDbEntity
  8
0
  6
CONTINUOUS
 62
     7
100
AcDbCircle
 10
-200.0
 20
178.89999
 30
0.0
 40
2.25
  0
CIRCLE
  5
129
100
AcDbEntity
  8
0
  6
CONTINUOUS
 62
     7
100
AcDbCircle
 10
-210.0
 20
163.09999
 30
0.0
 40
2.25
  0
ARC
  5
12A
100
AcDbEntity
  8
0
  6
CONTINUOUS
 62
     7
100
AcDbCircle
 10
-197.0
 20
165.09999
 30
0.0
 40
2.0
100
AcDbArc
 50
0.0
 51
90.000003
  0
CIRCLE
  5
12B
100
AcDbEntity
  8
0
  6
CONTINUOUS
 62
     7
100
AcDbCircle
 10
-200.0
 20
163.09999
 30
0.0
 40
2.25
  0
POINT
  5
12C
100
AcDbEntity
  8
0
  6
CONTINUOUS
 62
     7
100
AcDbPoint
 10
-160.0
 20
236.0
 30
0.0
  0
POINT
  5
12D
100
AcDbEntity
  8
0
  6
CONTINUOUS
 62
     7
100
AcDbPoint
 10
-144.2
 20
236.0
 30
0.0
  0
LINE
  5
12E
100
AcDbEntity
  8
0
  6
CENTER
 62
     7
100
AcDbLine
 10
-173.1
 20
226.0
 30
0.0
 11
-131.1
 21
226.0
 31
0.0
  0
LINE
  5
12F
100
AcDbEntity
  8
0
  6
CONTINUOUS
 62
     7
100
AcDbLine
 10
-136.1
 20
236.0
 30
0.0
 11
-136.1
 21
216.0
 31
0.0
  0
LINE
  5
130
100
AcDbEntity
  8
0
  6
CONTINUOUS
 62
     7
100
AcDbLine
 10
-148.2
 20
234.8
 30
0.0
 11
-139.4
 21
234.8
 31
0.0
  0
LINE
  5
131
100
AcDbEntity
  8
0
  6
CONTINUOUS
 62
     7
100
AcDbLine
 10
-168.1
 20
236.0
 30
0.0
 11
-136.1
 21
236.0
 31
0.0
  0
LINE
  5
132
100
AcDbEntity
  8
0
  6
CONTINUOUS
 62
     7
100
AcDbLine
 10
-139.4
 20
234.8
 30
0.0
 11
-139.4
 21
216.0
 31
0.0
  0
LINE
  5
133
100
AcDbEntity
  8
0
  6
CONTINUOUS
 62
     7
100
AcDbLine
 10
-164.8
 20
234.8
 30
0.0
 11
-164.8
 21
216.0
 31
0.0
  0
LINE
  5
134
100
AcDbEntity
  8
0
  6
CONTINUOUS
 62
     7
100
AcDbLine
 10
-142.1
 20
234.8
 30
0.0
 11
-142.1
 21
216.0
 31
0.0
  0
LINE
  5
135
100
AcDbEntity
  8
0
  6
CONTINUOUS
 62
     7
100
AcDbLine
 10
-156.0
 20
236.0
 30
0.0
 11
-156.0
 21
234.8
 31
0.0
  0
LINE
  5
136
100
AcDbEntity
  8
0
  6
CONTINUOUS
 62
     7
100
AcDbLine
 10
-156.0
 20
234.8
 30
0.0
 11
-164.8
 21
234.8
 31
0.0
  0
LINE
  5
137
100
AcDbEntity
  8
0
  6
CONTINUOUS
 62
     7
100
AcDbLine
 10
-166.0
 20
236.0
 30
0.0
 11
-166.0
 21
216.0
 31
0.0
  0
LINE
  5
138
100
AcDbEntity
  8
0
  6
CENTER
 62
     7
100
AcDbLine
 10
-144.2
 20
238.0
 30
0.0
 11
-144.2
 21
231.3
 31
0.0
  0
LINE
  5
139
100
AcDbEntity
  8
0
  6
CONTINUOUS
 62
     7
100
AcDbLine
 10
-138.2
 20
236.0
 30
0.0
 11
-138.2
 21
216.0
 31
0.0
  0
LINE
  5
13A
100
AcDbEntity
  8
0
  6
CONTINUOUS
 62
     7
100
AcDbLine
 10
-162.1
 20
234.8
 30
0.0
 11
-162.1
 21
216.0
 31
0.0
  0
LINE
  5
13B
100
AcDbEntity
  8
0
  6
CENTER
 62
     7
100
AcDbLine
 10
-152.1
 20
241.0
 30
0.0
 11
-152.1
 21
211.0
 31
0.0
  0
LINE
  5
13C
100
AcDbEntity
  8
0
  6
CONTINUOUS
 62
     7
100
AcDbLine
 10
-168.1
 20
236.0
 30
0.0
 11
-168.1
 21
216.0
 31
0.0
  0
LINE
  5
13D
100
AcDbEntity
  8
0
  6
CENTER
 62
     7
100
AcDbLine
 10
-160.0
 20
238.0
 30
0.0
 11
-160.0
 21
231.3
 31
0.0
  0
LINE
  5
13E
100
AcDbEntity
  8
0
  6
CONTINUOUS
 62
     7
100
AcDbLine
 10
-168.1
 20
216.0
 30
0.0
 11
-136.1
 21
216.0
 31
0.0
  0
LINE
  5
13F
100
AcDbEntity
  8
0
  6
CONTINUOUS
 62
     7
100
AcDbLine
 10
-148.2
 20
236.0
 30
0.0
 11
-148.2
 21
234.8
 31
0.0
  0
LINE
  5
140
100
AcDbEntity
  8
0
  6
CONTINUOUS
 62
     7
100
AcDbLine
 10
-162.1
 20
233.7
 30
0.0
 11
-142.1
 21
233.7
 31
0.0
  0
LINE
  5
141
100
AcDbEntity
  8
0
  6
CONTINUOUS
 62
     7
100
AcDbLine
 10
-162.1
 20
233.0
 30
0.0
 11
-142.1
 21
233.0
 31
0.0
  0
LINE
  5
142
100
AcDbEntity
  8
0
  6
CONTINUOUS
 62
     7
100
AcDbLine
 10
-162.1
 20
219.0
 30
0.0
 11
-142.1
 21
219.0
 31
0.0
  0
POINT
  5
143
100
AcDbEntity
  8
0
  6
CONTINUOUS
 62
     7
100
AcDbPoint
 10
-60.0
 20
273.10001
 30
0.0
  0
POINT
  5
144
100
AcDbEntity
  8
0
  6
CONTINUOUS
 62
     7
100
AcDbPoint
 10
-50.0
 20
273.10001
 30
0.0
  0
LINE
  5
145
100
AcDbEntity
  8
0
  6
CENTER
 62
     7
100
AcDbLine
 10
-56.75
 20
273.10001
 30
0.0
 11
-63.25
 21
273.10001
 31
0.0
  0
LINE
  5
146
100
AcDbEntity
  8
0
  6
CONTINUOUS
 62
     7
100
AcDbLine
 10
-45.0
 20
294.90001
 30
0.0
 11
-45.0
 21
286.90001
 31
0.0
  0
LINE
  5
147
100
AcDbEntity
  8
0
  6
CONTINUOUS
 62
     7
100
AcDbLine
 10
-45.0
 20
267.10001
 30
0.0
 11
-45.0
 21
275.10001
 31
0.0
  0
LINE
  5
148
100
AcDbEntity
  8
0
  6
CONTINUOUS
 62
     7
100
AcDbLine
 10
-79.448685
 20
297.00001
 30
0.0
 11
-79.448685
 21
293.70001
 31
0.0
  0
LINE
  5
149
100
AcDbEntity
  8
0
  6
CONTINUOUS
 62
     7
100
AcDbLine
 10
-63.0
 20
284.90001
 30
0.0
 11
-47.0
 21
284.90001
 31
0.0
  0
LINE
  5
14A
100
AcDbEntity
  8
0
  6
CONTINUOUS
 62
     7
100
AcDbLine
 10
-93.5
 20
291.00001
 30
0.0
 11
-93.5
 21
271.00001
 31
0.0
  0
LINE
  5
14B
100
AcDbEntity
  8
0
  6
CONTINUOUS
 62
     7
100
AcDbLine
 10
-81.5
 20
291.00001
 30
0.0
 11
-81.5
 21
271.00001
 31
0.0
  0
LINE
  5
14C
100
AcDbEntity
  8
0
  6
CENTER
 62
     7
100
AcDbLine
 10
-100.0
 20
302.00001
 30
0.0
 11
-100.0
 21
260.00001
 31
0.0
  0
LINE
  5
14D
100
AcDbEntity
  8
0
  6
CENTER
 62
     7
100
AcDbLine
 10
-75.0
 20
302.00001
 30
0.0
 11
-75.0
 21
260.00001
 31
0.0
  0
LINE
  5
14E
100
AcDbEntity
  8
0
  6
CONTINUOUS
 62
     7
100
AcDbLine
 10
-79.448685
 20
293.70001
 30
0.0
 11
-45.0
 21
293.70001
 31
0.0
  0
LINE
  5
14F
100
AcDbEntity
  8
0
  6
CONTINUOUS
 62
     7
100
AcDbLine
 10
-95.551315
 20
291.00001
 30
0.0
 11
-90.5
 21
291.00001
 31
0.0
  0
LINE
  5
150
100
AcDbEntity
  8
0
  6
CONTINUOUS
 62
     7
100
AcDbLine
 10
-104.44868
 20
294.00001
 30
0.0
 11
-95.551315
 21
294.00001
 31
0.0
  0
LINE
  5
151
100
AcDbEntity
  8
0
  6
CENTER
 62
     7
100
AcDbLine
 10
-115.0
 20
281.00001
 30
0.0
 11
-50.0
 21
281.00001
 31
0.0
  0
LINE
  5
152
100
AcDbEntity
  8
0
  6
CONTINUOUS
 62
     7
100
AcDbLine
 10
-104.44868
 20
297.00001
 30
0.0
 11
-79.448685
 21
297.00001
 31
0.0
  0
LINE
  5
153
100
AcDbEntity
  8
0
  6
CONTINUOUS
 62
     7
100
AcDbLine
 10
-95.551315
 20
294.00001
 30
0.0
 11
-95.551315
 21
291.00001
 31
0.0
  0
LINE
  5
154
100
AcDbEntity
  8
0
  6
CENTER
 62
     7
100
AcDbLine
 10
-60.0
 20
269.85001
 30
0.0
 11
-60.0
 21
276.35001
 31
0.0
  0
LINE
  5
155
100
AcDbEntity
  8
0
  6
CONTINUOUS
 62
     7
100
AcDbLine
 10
-84.5
 20
291.00001
 30
0.0
 11
-65.0
 21
291.00001
 31
0.0
  0
LINE
  5
156
100
AcDbEntity
  8
0
  6
CENTER
 62
     7
100
AcDbLine
 10
-60.0
 20
292.15001
 30
0.0
 11
-60.0
 21
285.65001
 31
0.0
  0
LINE
  5
157
100
AcDbEntity
  8
0
  6
CONTINUOUS
 62
     7
100
AcDbLine
 10
-104.44868
 20
265.00001
 30
0.0
 11
-79.448685
 21
265.00001
 31
0.0
  0
LINE
  5
158
100
AcDbEntity
  8
0
  6
CONTINUOUS
 62
     7
100
AcDbLine
 10
-90.5
 20
296.10001
 30
0.0
 11
-84.5
 21
296.10001
 31
0.0
  0
LINE
  5
159
100
AcDbEntity
  8
0
  6
CONTINUOUS
 62
     7
100
AcDbLine
 10
-90.5
 20
296.10001
 30
0.0
 11
-90.5
 21
291.00001
 31
0.0
  0
LINE
  5
15A
100
AcDbEntity
  8
0
  6
CONTINUOUS
 62
     7
100
AcDbLine
 10
-84.5
 20
296.10001
 30
0.0
 11
-84.5
 21
291.00001
 31
0.0
  0
LINE
  5
15B
100
AcDbEntity
  8
0
  6
CONTINUOUS
 62
     7
100
AcDbLine
 10
-92.5
 20
291.00001
 30
0.0
 11
-92.5
 21
271.00001
 31
0.0
  0
LINE
  5
15C
100
AcDbEntity
  8
0
  6
CONTINUOUS
 62
     7
100
AcDbLine
 10
-82.5
 20
291.00001
 30
0.0
 11
-82.5
 21
271.00001
 31
0.0
  0
LINE
  5
15D
100
AcDbEntity
  8
0
  6
CONTINUOUS
 62
     7
100
AcDbLine
 10
-90.5
 20
295.50001
 30
0.0
 11
-84.5
 21
295.50001
 31
0.0
  0
LINE
  5
15E
100
AcDbEntity
  8
0
  6
CONTINUOUS
 62
     7
100
AcDbLine
 10
-104.44868
 20
268.00001
 30
0.0
 11
-95.551315
 21
268.00001
 31
0.0
  0
LINE
  5
15F
100
AcDbEntity
  8
0
  6
CONTINUOUS
 62
     7
100
AcDbLine
 10
-95.551315
 20
271.00001
 30
0.0
 11
-90.5
 21
271.00001
 31
0.0
  0
LINE
  5
160
100
AcDbEntity
  8
0
  6
CENTER
 62
     7
100
AcDbLine
 10
-46.75
 20
288.90001
 30
0.0
 11
-53.25
 21
288.90001
 31
0.0
  0
LINE
  5
161
100
AcDbEntity
  8
0
  6
CENTER
 62
     7
100
AcDbLine
 10
-50.0
 20
292.15001
 30
0.0
 11
-50.0
 21
285.65001
 31
0.0
  0
LINE
  5
162
100
AcDbEntity
  8
0
  6
CONTINUOUS
 62
     7
100
AcDbLine
 10
-79.448685
 20
265.00001
 30
0.0
 11
-79.448685
 21
268.30001
 31
0.0
  0
LINE
  5
163
100
AcDbEntity
  8
0
  6
CONTINUOUS
 62
     7
100
AcDbLine
 10
-95.551315
 20
268.00001
 30
0.0
 11
-95.551315
 21
271.00001
 31
0.0
  0
LINE
  5
164
100
AcDbEntity
  8
0
  6
CONTINUOUS
 62
     7
100
AcDbLine
 10
-63.0
 20
277.10001
 30
0.0
 11
-47.0
 21
277.10001
 31
0.0
  0
LINE
  5
165
100
AcDbEntity
  8
0
  6
CONTINUOUS
 62
     7
100
AcDbLine
 10
-90.5
 20
265.90001
 30
0.0
 11
-84.5
 21
265.90001
 31
0.0
  0
LINE
  5
166
100
AcDbEntity
  8
0
  6
CONTINUOUS
 62
     7
100
AcDbLine
 10
-90.5
 20
265.90001
 30
0.0
 11
-90.5
 21
271.00001
 31
0.0
  0
LINE
  5
167
100
AcDbEntity
  8
0
  6
CONTINUOUS
 62
     7
100
AcDbLine
 10
-84.5
 20
265.90001
 30
0.0
 11
-84.5
 21
271.00001
 31
0.0
  0
LINE
  5
168
100
AcDbEntity
  8
0
  6
CONTINUOUS
 62
     7
100
AcDbLine
 10
-90.5
 20
266.50001
 30
0.0
 11
-84.5
 21
266.50001
 31
0.0
  0
LINE
  5
169
100
AcDbEntity
  8
0
  6
CENTER
 62
     7
100
AcDbLine
 10
-56.75
 20
288.90001
 30
0.0
 11
-63.25
 21
288.90001
 31
0.0
  0
LINE
  5
16A
100
AcDbEntity
  8
0
  6
CENTER
 62
     7
100
AcDbLine
 10
-92.5
 20
268.20001
 30
0.0
 11
-82.5
 21
268.20001
 31
0.0
  0
LINE
  5
16B
100
AcDbEntity
  8
0
  6
CENTER
 62
     7
100
AcDbLine
 10
-92.5
 20
293.80001
 30
0.0
 11
-82.5
 21
293.80001
 31
0.0
  0
LINE
  5
16C
100
AcDbEntity
  8
0
  6
CONTINUOUS
 62
     7
100
AcDbLine
 10
-79.448685
 20
294.90001
 30
0.0
 11
-45.0
 21
294.90001
 31
0.0
  0
LINE
  5
16D
100
AcDbEntity
  8
0
  6
CONTINUOUS
 62
     7
100
AcDbLine
 10
-65.0
 20
293.70001
 30
0.0
 11
-65.0
 21
286.90001
 31
0.0
  0
LINE
  5
16E
100
AcDbEntity
  8
0
  6
CENTER
 62
     7
100
AcDbLine
 10
-50.0
 20
269.85001
 30
0.0
 11
-50.0
 21
276.35001
 31
0.0
  0
LINE
  5
16F
100
AcDbEntity
  8
0
  6
CENTER
 62
     7
100
AcDbLine
 10
-46.75
 20
273.10001
 30
0.0
 11
-53.25
 21
273.10001
 31
0.0
  0
LINE
  5
170
100
AcDbEntity
  8
0
  6
CONTINUOUS
 62
     7
100
AcDbLine
 10
-79.448685
 20
268.30001
 30
0.0
 11
-45.0
 21
268.30001
 31
0.0
  0
LINE
  5
171
100
AcDbEntity
  8
0
  6
CONTINUOUS
 62
     7
100
AcDbLine
 10
-84.5
 20
271.00001
 30
0.0
 11
-65.0
 21
271.00001
 31
0.0
  0
LINE
  5
172
100
AcDbEntity
  8
0
  6
CONTINUOUS
 62
     7
100
AcDbLine
 10
-79.448685
 20
267.10001
 30
0.0
 11
-45.0
 21
267.10001
 31
0.0
  0
LINE
  5
173
100
AcDbEntity
  8
0
  6
CONTINUOUS
 62
     7
100
AcDbLine
 10
-65.0
 20
268.30001
 30
0.0
 11
-65.0
 21
275.10001
 31
0.0
  0
ARC
  5
174
100
AcDbEntity
  8
0
  6
CONTINUOUS
 62
     7
100
AcDbCircle
 10
-63.0
 20
286.90001
 30
0.0
 40
2.0
100
AcDbArc
 50
179.99999
 51
270.0
  0
ARC
  5
175
100
AcDbEntity
  8
0
  6
CONTINUOUS
 62
     7
100
AcDbCircle
 10
-63.0
 20
275.10001
 30
0.0
 40
2.0
100
AcDbArc
 50
90.000003
 51
180.00001
  0
CIRCLE
  5
176
100
AcDbEntity
  8
0
  6
CONTINUOUS
 62
     7
100
AcDbCircle
 10
-60.0
 20
288.90001
 30
0.0
 40
2.25
  0
ARC
  5
177
100
AcDbEntity
  8
0
  6
CONTINUOUS
 62
     7
100
AcDbCircle
 10
-47.0
 20
286.90001
 30
0.0
 40
2.0
100
AcDbArc
 50
270.0
 51
0.0
  0
CIRCLE
  5
178
100
AcDbEntity
  8
0
  6
CONTINUOUS
 62
     7
100
AcDbCircle
 10
-50.0
 20
288.90001
 30
0.0
 40
2.25
  0
CIRCLE
  5
179
100
AcDbEntity
  8
0
  6
CONTINUOUS
 62
     7
100
AcDbCircle
 10
-60.0
 20
273.10001
 30
0.0
 40
2.25
  0
ARC
  5
17A
100
AcDbEntity
  8
0
  6
CONTINUOUS
 62
     7
100
AcDbCircle
 10
-47.0
 20
275.10001
 30
0.0
 40
2.0
100
AcDbArc
 50
0.0
 51
90.000003
  0
CIRCLE
  5
17B
100
AcDbEntity
  8
0
  6
CONTINUOUS
 62
     7
100
AcDbCircle
 10
-50.0
 20
273.10001
 30
0.0
 40
2.25
  0
POINT
  5
17C
100
AcDbEntity
  8
0
  6
CONTINUOUS
 62
     7
100
AcDbPoint
 10
-60.0
 20
216.0
 30
0.0
  0
POINT
  5
17D
100
AcDbEntity
  8
0
  6
CONTINUOUS
 62
     7
100
AcDbPoint
 10
-50.0
 20
216.0
 30
0.0
  0
LINE
  5
17E
100
AcDbEntity
  8
0
  6
CONTINUOUS
 62
     7
100
AcDbLine
 10
-100.0
 20
236.0
 30
0.0
 11
-75.0
 21
236.0
 31
0.0
  0
LINE
  5
17F
100
AcDbEntity
  8
0
  6
CENTER
 62
     7
100
AcDbLine
 10
-93.959999
 20
226.0
 30
0.0
 11
-106.04
 21
226.0
 31
0.0
  0
LINE
  5
180
100
AcDbEntity
  8
0
  6
CENTER
 62
     7
100
AcDbLine
 10
-68.96
 20
226.0
 30
0.0
 11
-81.040001
 21
226.0
 31
0.0
  0
LINE
  5
181
100
AcDbEntity
  8
0
  6
CENTER
 62
     7
100
AcDbLine
 10
-100.0
 20
232.04
 30
0.0
 11
-100.0
 21
219.96
 31
0.0
  0
LINE
  5
182
100
AcDbEntity
  8
0
  6
CONTINUOUS
 62
     7
100
AcDbLine
 10
-100.0
 20
216.0
 30
0.0
 11
-68.0
 21
216.0
 31
0.0
  0
LINE
  5
183
100
AcDbEntity
  8
0
  6
CONTINUOUS
 62
     7
100
AcDbLine
 10
-80.690235
 20
216.49483
 30
0.0
 11
-82.984262
 21
219.1808
 31
0.0
  0
LINE
  5
184
100
AcDbEntity
  8
0
  6
CONTINUOUS
 62
     7
100
AcDbLine
 10
-77.0
 20
228.87228
 30
0.0
 11
-77.0
 21
223.12772
 31
0.0
  0
LINE
  5
185
100
AcDbEntity
  8
0
  6
CENTER
 62
     7
100
AcDbLine
 10
-75.0
 20
232.04
 30
0.0
 11
-75.0
 21
219.96
 31
0.0
  0
LINE
  5
186
100
AcDbEntity
  8
0
  6
CONTINUOUS
 62
     7
100
AcDbLine
 10
-65.0
 20
216.0
 30
0.0
 11
-45.0
 21
216.0
 31
0.0
  0
LINE
  5
187
100
AcDbEntity
  8
0
  6
CONTINUOUS
 62
     7
100
AcDbLine
 10
-47.738975
 20
223.388
 30
0.0
 11
-70.477985
 21
234.91901
 31
0.0
  0
LINE
  5
188
100
AcDbEntity
  8
0
  6
CONTINUOUS
 62
     7
100
AcDbLine
 10
-45.0
 20
216.0
 30
0.0
 11
-45.0
 21
218.929
 31
0.0
  0
LINE
  5
189
100
AcDbEntity
  8
0
  6
DASHED
 62
     7
100
AcDbLine
 10
-65.0
 20
217.2
 30
0.0
 11
-65.0
 21
216.0
 31
0.0
  0
LINE
  5
18A
100
AcDbEntity
  8
0
  6
DASHED
 62
     7
100
AcDbLine
 10
-65.0
 20
217.2
 30
0.0
 11
-45.0
 21
217.2
 31
0.0
  0
LINE
  5
18B
100
AcDbEntity
  8
0
  6
CONTINUOUS
 62
     7
100
AcDbLine
 10
-81.196774
 20
225.8
 30
0.0
 11
-84.474976
 21
225.8
 31
0.0
  0
LINE
  5
18C
100
AcDbEntity
  8
0
  6
CONTINUOUS
 62
     7
100
AcDbLine
 10
-79.974939
 20
229.7
 30
0.0
 11
-83.520996
 21
229.7
 31
0.0
  0
LINE
  5
18D
100
AcDbEntity
  8
0
  6
CENTER
 62
     7
100
AcDbLine
 10
-60.0
 20
214.0
 30
0.0
 11
-60.0
 21
219.2
 31
0.0
  0
LINE
  5
18E
100
AcDbEntity
  8
0
  6
CENTER
 62
     7
100
AcDbLine
 10
-50.0
 20
214.0
 30
0.0
 11
-50.0
 21
219.2
 31
0.0
  0
ARC
  5
18F
100
AcDbEntity
  8
0
  6
CONTINUOUS
 62
     7
100
AcDbCircle
 10
-100.0
 20
226.0
 30
0.0
 40
10.0
100
AcDbArc
 50
90.000003
 51
270.0
  0
ARC
  5
190
100
AcDbEntity
  8
0
  6
CONTINUOUS
 62
     7
100
AcDbCircle
 10
-75.0
 20
226.0
 30
0.0
 40
10.5
100
AcDbArc
 50
116.0843
 51
220.49999
  0
ARC
  5
191
100
AcDbEntity
  8
0
  6
CONTINUOUS
 62
     7
100
AcDbCircle
 10
-79.748684
 20
235.7
 30
0.0
 40
0.3
100
AcDbArc
 50
296.08429
 51
90.000003
  0
ARC
  5
192
100
AcDbEntity
  8
0
  6
CONTINUOUS
 62
     7
100
AcDbCircle
 10
-80.918358
 20
216.3
 30
0.0
 40
0.3
100
AcDbArc
 50
270.0
 51
40.499999
  0
CIRCLE
  5
193
100
AcDbEntity
  8
0
  6
CONTINUOUS
 62
     7
100
AcDbCircle
 10
-75.0
 20
226.0
 30
0.0
 40
3.5
  0
ARC
  5
194
100
AcDbEntity
  8
0
  6
CONTINUOUS
 62
     7
100
AcDbCircle
 10
-50.0
 20
218.929
 30
0.0
 40
5.0
100
AcDbArc
 50
0.0
 51
63.111699
  0
ARC
  5
195
100
AcDbEntity
  8
0
  6
CONTINUOUS
 62
     7
100
AcDbCircle
 10
-66.5
 20
216.0
 30
0.0
 40
1.5
100
AcDbArc
 50
0.0
 51
180.00001
  0
ARC
  5
196
100
AcDbEntity
  8
0
  6
CONTINUOUS
 62
     7
100
AcDbCircle
 10
-83.520996
 20
230.2
 30
0.0
 40
0.5
100
AcDbArc
 50
153.761
 51
270.0
  0
ARC
  5
197
100
AcDbEntity
  8
0
  6
CONTINUOUS
 62
     7
100
AcDbCircle
 10
-75.0
 20
226.0
 30
0.0
 40
6.2
100
AcDbArc
 50
143.36082
 51
181.84854
  0
ARC
  5
198
100
AcDbEntity
  8
0
  6
CONTINUOUS
 62
     7
100
AcDbCircle
 10
-75.0
 20
226.0
 30
0.0
 40
10.0
100
AcDbArc
 50
184.225
 51
270.015
  0
ARC
  5
199
100
AcDbEntity
  8
0
  6
CONTINUOUS
 62
     7
100
AcDbCircle
 10
-75.0
 20
226.0
 30
0.0
 40
10.0
100
AcDbArc
 50
63.111802
 51
153.761
  0
ARC
  5
19A
100
AcDbEntity
  8
0
  6
CONTINUOUS
 62
     7
100
AcDbCircle
 10
-84.474976
 20
225.3
 30
0.0
 40
0.5
100
AcDbArc
 50
89.998097
 51
184.224
  0
POINT
  5
19B
100
AcDbEntity
  8
0
  6
CONTINUOUS
 62
     7
100
AcDbPoint
 10
-60.0
 20
178.89999
 30
0.0
  0
POINT
  5
19C
100
AcDbEntity
  8
0
  6
CONTINUOUS
 62
     7
100
AcDbPoint
 10
-50.0
 20
178.89999
 30
0.0
  0
LINE
  5
19D
100
AcDbEntity
  8
0
  6
CONTINUOUS
 62
     7
100
AcDbLine
 10
-94.381641
 20
183.99999
 30
0.0
 11
-94.381641
 21
180.99999
 31
0.0
  0
LINE
  5
19E
100
AcDbEntity
  8
0
  6
CONTINUOUS
 62
     7
100
AcDbLine
 10
-105.61836
 20
183.99999
 30
0.0
 11
-94.381641
 21
183.99999
 31
0.0
  0
LINE
  5
19F
100
AcDbEntity
  8
0
  6
CONTINUOUS
 62
     7
100
AcDbLine
 10
-105.61836
 20
186.99999
 30
0.0
 11
-80.618357
 21
186.99999
 31
0.0
  0
LINE
  5
1A0
100
AcDbEntity
  8
0
  6
CENTER
 62
     7
100
AcDbLine
 10
-115.0
 20
170.99999
 30
0.0
 11
-50.0
 21
170.99999
 31
0.0
  0
LINE
  5
1A1
100
AcDbEntity
  8
0
  6
CONTINUOUS
 62
     7
100
AcDbLine
 10
-94.381641
 20
180.99999
 30
0.0
 11
-93.5
 21
180.99999
 31
0.0
  0
LINE
  5
1A2
100
AcDbEntity
  8
0
  6
CONTINUOUS
 62
     7
100
AcDbLine
 10
-80.618357
 20
183.69999
 30
0.0
 11
-65.0
 21
183.69999
 31
0.0
  0
LINE
  5
1A3
100
AcDbEntity
  8
0
  6
CENTER
 62
     7
100
AcDbLine
 10
-75.0
 20
191.99999
 30
0.0
 11
-75.0
 21
149.99999
 31
0.0
  0
LINE
  5
1A4
100
AcDbEntity
  8
0
  6
CENTER
 62
     7
100
AcDbLine
 10
-100.0
 20
191.99999
 30
0.0
 11
-100.0
 21
149.99999
 31
0.0
  0
LINE
  5
1A5
100
AcDbEntity
  8
0
  6
CONTINUOUS
 62
     7
100
AcDbLine
 10
-81.5
 20
180.99999
 30
0.0
 11
-81.5
 21
160.99999
 31
0.0
  0
LINE
  5
1A6
100
AcDbEntity
  8
0
  6
CONTINUOUS
 62
     7
100
AcDbLine
 10
-93.5
 20
180.99999
 30
0.0
 11
-93.5
 21
160.99999
 31
0.0
  0
LINE
  5
1A7
100
AcDbEntity
  8
0
  6
CONTINUOUS
 62
     7
100
AcDbLine
 10
-94.381641
 20
160.99999
 30
0.0
 11
-94.381641
 21
157.99999
 31
0.0
  0
LINE
  5
1A8
100
AcDbEntity
  8
0
  6
CONTINUOUS
 62
     7
100
AcDbLine
 10
-80.618357
 20
158.29999
 30
0.0
 11
-80.618357
 21
154.99999
 31
0.0
  0
LINE
  5
1A9
100
AcDbEntity
  8
0
  6
CONTINUOUS
 62
     7
100
AcDbLine
 10
-81.5
 20
180.99999
 30
0.0
 11
-65.0
 21
180.99999
 31
0.0
  0
LINE
  5
1AA
100
AcDbEntity
  8
0
  6
CONTINUOUS
 62
     7
100
AcDbLine
 10
-105.61836
 20
154.99999
 30
0.0
 11
-80.618357
 21
154.99999
 31
0.0
  0
LINE
  5
1AB
100
AcDbEntity
  8
0
  6
CONTINUOUS
 62
     7
100
AcDbLine
 10
-105.61836
 20
157.99999
 30
0.0
 11
-94.381641
 21
157.99999
 31
0.0
  0
LINE
  5
1AC
100
AcDbEntity
  8
0
  6
CONTINUOUS
 62
     7
100
AcDbLine
 10
-94.381641
 20
160.99999
 30
0.0
 11
-93.5
 21
160.99999
 31
0.0
  0
LINE
  5
1AD
100
AcDbEntity
  8
0
  6
CONTINUOUS
 62
     7
100
AcDbLine
 10
-80.618357
 20
158.29999
 30
0.0
 11
-65.0
 21
158.29999
 31
0.0
  0
LINE
  5
1AE
100
AcDbEntity
  8
0
  6
CONTINUOUS
 62
     7
100
AcDbLine
 10
-81.5
 20
160.99999
 30
0.0
 11
-65.0
 21
160.99999
 31
0.0
  0
LINE
  5
1AF
100
AcDbEntity
  8
0
  6
CONTINUOUS
 62
     7
100
AcDbLine
 10
-80.618357
 20
186.99999
 30
0.0
 11
-80.618357
 21
183.69999
 31
0.0
  0
LINE
  5
1B0
100
AcDbEntity
  8
0
  6
CENTER
 62
     7
100
AcDbLine
 10
-56.75
 20
163.09999
 30
0.0
 11
-63.25
 21
163.09999
 31
0.0
  0
LINE
  5
1B1
100
AcDbEntity
  8
0
  6
CONTINUOUS
 62
     7
100
AcDbLine
 10
-45.0
 20
184.89999
 30
0.0
 11
-45.0
 21
176.89999
 31
0.0
  0
LINE
  5
1B2
100
AcDbEntity
  8
0
  6
CONTINUOUS
 62
     7
100
AcDbLine
 10
-45.0
 20
157.09999
 30
0.0
 11
-45.0
 21
165.09999
 31
0.0
  0
LINE
  5
1B3
100
AcDbEntity
  8
0
  6
CONTINUOUS
 62
     7
100
AcDbLine
 10
-63.0
 20
174.89999
 30
0.0
 11
-47.0
 21
174.89999
 31
0.0
  0
LINE
  5
1B4
100
AcDbEntity
  8
0
  6
CENTER
 62
     7
100
AcDbLine
 10
-60.0
 20
159.84999
 30
0.0
 11
-60.0
 21
166.34999
 31
0.0
  0
LINE
  5
1B5
100
AcDbEntity
  8
0
  6
CENTER
 62
     7
100
AcDbLine
 10
-60.0
 20
182.14999
 30
0.0
 11
-60.0
 21
175.64999
 31
0.0
  0
LINE
  5
1B6
100
AcDbEntity
  8
0
  6
CENTER
 62
     7
100
AcDbLine
 10
-46.75
 20
178.89999
 30
0.0
 11
-53.25
 21
178.89999
 31
0.0
  0
LINE
  5
1B7
100
AcDbEntity
  8
0
  6
CENTER
 62
     7
100
AcDbLine
 10
-50.0
 20
182.14999
 30
0.0
 11
-50.0
 21
175.64999
 31
0.0
  0
LINE
  5
1B8
100
AcDbEntity
  8
0
  6
CONTINUOUS
 62
     7
100
AcDbLine
 10
-63.0
 20
167.09999
 30
0.0
 11
-47.0
 21
167.09999
 31
0.0
  0
LINE
  5
1B9
100
AcDbEntity
  8
0
  6
CENTER
 62
     7
100
AcDbLine
 10
-56.75
 20
178.89999
 30
0.0
 11
-63.25
 21
178.89999
 31
0.0
  0
LINE
  5
1BA
100
AcDbEntity
  8
0
  6
CONTINUOUS
 62
     7
100
AcDbLine
 10
-80.618357
 20
184.89999
 30
0.0
 11
-45.0
 21
184.89999
 31
0.0
  0
LINE
  5
1BB
100
AcDbEntity
  8
0
  6
CONTINUOUS
 62
     7
100
AcDbLine
 10
-65.0
 20
184.89999
 30
0.0
 11
-65.0
 21
176.89999
 31
0.0
  0
LINE
  5
1BC
100
AcDbEntity
  8
0
  6
CENTER
 62
     7
100
AcDbLine
 10
-50.0
 20
159.84999
 30
0.0
 11
-50.0
 21
166.34999
 31
0.0
  0
LINE
  5
1BD
100
AcDbEntity
  8
0
  6
CENTER
 62
     7
100
AcDbLine
 10
-46.75
 20
163.09999
 30
0.0
 11
-53.25
 21
163.09999
 31
0.0
  0
LINE
  5
1BE
100
AcDbEntity
  8
0
  6
CONTINUOUS
 62
     7
100
AcDbLine
 10
-80.618357
 20
157.09999
 30
0.0
 11
-45.0
 21
157.09999
 31
0.0
  0
LINE
  5
1BF
100
AcDbEntity
  8
0
  6
CONTINUOUS
 62
     7
100
AcDbLine
 10
-65.0
 20
157.09999
 30
0.0
 11
-65.0
 21
165.09999
 31
0.0
  0
ARC
  5
1C0
100
AcDbEntity
  8
0
  6
CONTINUOUS
 62
     7
100
AcDbCircle
 10
-63.0
 20
176.89999
 30
0.0
 40
2.0
100
AcDbArc
 50
179.99999
 51
270.0
  0
ARC
  5
1C1
100
AcDbEntity
  8
0
  6
CONTINUOUS
 62
     7
100
AcDbCircle
 10
-63.0
 20
165.09999
 30
0.0
 40
2.0
100
AcDbArc
 50
90.000003
 51
180.00001
  0
CIRCLE
  5
1C2
100
AcDbEntity
  8
0
  6
CONTINUOUS
 62
     7
100
AcDbCircle
 10
-60.0
 20
178.89999
 30
0.0
 40
2.25
  0
ARC
  5
1C3
100
AcDbEntity
  8
0
  6
CONTINUOUS
 62
     7
100
AcDbCircle
 10
-47.0
 20
176.89999
 30
0.0
 40
2.0
100
AcDbArc
 50
270.0
 51
0.0
  0
CIRCLE
  5
1C4
100
AcDbEntity
  8
0
  6
CONTINUOUS
 62
     7
100
AcDbCircle
 10
-50.0
 20
178.89999
 30
0.0
 40
2.25
  0
CIRCLE
  5
1C5
100
AcDbEntity
  8
0
  6
CONTINUOUS
 62
     7
100
AcDbCircle
 10
-60.0
 20
163.09999
 30
0.0
 40
2.25
  0
ARC
  5
1C6
100
AcDbEntity
  8
0
  6
CONTINUOUS
 62
     7
100
AcDbCircle
 10
-47.0
 20
165.09999
 30
0.0
 40
2.0
100
AcDbArc
 50
0.0
 51
90.000003
  0
CIRCLE
  5
1C7
100
AcDbEntity
  8
0
  6
CONTINUOUS
 62
     7
100
AcDbCircle
 10
-50.0
 20
163.09999
 30
0.0
 40
2.25
  0
POINT
  5
1C8
100
AcDbEntity
  8
0
  6
CONTINUOUS
 62
     7
100
AcDbPoint
 10
-10.0
 20
216.0
 30
0.0
  0
POINT
  5
1C9
100
AcDbEntity
  8
0
  6
CONTINUOUS
 62
     7
100
AcDbPoint
 10
5.8
 20
216.0
 30
0.0
  0
LINE
  5
1CA
100
AcDbEntity
  8
0
  6
CENTER
 62
     7
100
AcDbLine
 10
-23.1
 20
226.0
 30
0.0
 11
18.9
 21
226.0
 31
0.0
  0
LINE
  5
1CB
100
AcDbEntity
  8
0
  6
CONTINUOUS
 62
     7
100
AcDbLine
 10
10.6
 20
236.0
 30
0.0
 11
10.6
 21
217.2
 31
0.0
  0
LINE
  5
1CC
100
AcDbEntity
  8
0
  6
CONTINUOUS
 62
     7
100
AcDbLine
 10
-14.8
 20
236.0
 30
0.0
 11
-14.8
 21
217.2
 31
0.0
  0
LINE
  5
1CD
100
AcDbEntity
  8
0
  6
CONTINUOUS
 62
     7
100
AcDbLine
 10
13.9
 20
236.0
 30
0.0
 11
13.9
 21
216.0
 31
0.0
  0
LINE
  5
1CE
100
AcDbEntity
  8
0
  6
CONTINUOUS
 62
     7
100
AcDbLine
 10
-18.1
 20
236.0
 30
0.0
 11
13.9
 21
236.0
 31
0.0
  0
LINE
  5
1CF
100
AcDbEntity
  8
0
  6
CONTINUOUS
 62
     7
100
AcDbLine
 10
1.8
 20
217.2
 30
0.0
 11
10.6
 21
217.2
 31
0.0
  0
LINE
  5
1D0
100
AcDbEntity
  8
0
  6
CONTINUOUS
 62
     7
100
AcDbLine
 10
7.9
 20
236.0
 30
0.0
 11
7.9
 21
217.2
 31
0.0
  0
LINE
  5
1D1
100
AcDbEntity
  8
0
  6
CONTINUOUS
 62
     7
100
AcDbLine
 10
-6.0
 20
216.0
 30
0.0
 11
-6.0
 21
217.2
 31
0.0
  0
LINE
  5
1D2
100
AcDbEntity
  8
0
  6
CONTINUOUS
 62
     7
100
AcDbLine
 10
-6.0
 20
217.2
 30
0.0
 11
-14.8
 21
217.2
 31
0.0
  0
LINE
  5
1D3
100
AcDbEntity
  8
0
  6
CONTINUOUS
 62
     7
100
AcDbLine
 10
-16.0
 20
236.0
 30
0.0
 11
-16.0
 21
216.0
 31
0.0
  0
LINE
  5
1D4
100
AcDbEntity
  8
0
  6
CENTER
 62
     7
100
AcDbLine
 10
5.8
 20
214.0
 30
0.0
 11
5.8
 21
220.7
 31
0.0
  0
LINE
  5
1D5
100
AcDbEntity
  8
0
  6
CONTINUOUS
 62
     7
100
AcDbLine
 10
11.799999
 20
236.0
 30
0.0
 11
11.799999
 21
216.0
 31
0.0
  0
LINE
  5
1D6
100
AcDbEntity
  8
0
  6
CONTINUOUS
 62
     7
100
AcDbLine
 10
-12.1
 20
236.0
 30
0.0
 11
-12.1
 21
217.2
 31
0.0
  0
LINE
  5
1D7
100
AcDbEntity
  8
0
  6
CENTER
 62
     7
100
AcDbLine
 10
-2.1
 20
241.0
 30
0.0
 11
-2.1
 21
211.0
 31
0.0
  0
LINE
  5
1D8
100
AcDbEntity
  8
0
  6
CONTINUOUS
 62
     7
100
AcDbLine
 10
-18.1
 20
236.0
 30
0.0
 11
-18.1
 21
216.0
 31
0.0
  0
LINE
  5
1D9
100
AcDbEntity
  8
0
  6
CENTER
 62
     7
100
AcDbLine
 10
-10.0
 20
214.0
 30
0.0
 11
-10.0
 21
220.7
 31
0.0
  0
LINE
  5
1DA
100
AcDbEntity
  8
0
  6
CONTINUOUS
 62
     7
100
AcDbLine
 10
-18.1
 20
216.0
 30
0.0
 11
13.9
 21
216.0
 31
0.0
  0
LINE
  5
1DB
100
AcDbEntity
  8
0
  6
CONTINUOUS
 62
     7
100
AcDbLine
 10
1.8
 20
216.0
 30
0.0
 11
1.8
 21
217.2
 31
0.0
  0
LINE
  5
1DC
100
AcDbEntity
  8
0
  6
CONTINUOUS
 62
     7
100
AcDbLine
 10
-12.1
 20
233.7
 30
0.0
 11
7.9
 21
233.7
 31
0.0
  0
LINE
  5
1DD
100
AcDbEntity
  8
0
  6
CONTINUOUS
 62
     7
100
AcDbLine
 10
-12.1
 20
233.0
 30
0.0
 11
7.9
 21
233.0
 31
0.0
  0
LINE
  5
1DE
100
AcDbEntity
  8
0
  6
CONTINUOUS
 62
     7
100
AcDbLine
 10
-12.1
 20
219.0
 30
0.0
 11
7.9
 21
219.0
 31
0.0
  0
POINT
  5
1DF
100
AcDbEntity
  8
0
  6
CONTINUOUS
 62
     7
100
AcDbPoint
 10
90.0
 20
262.29999
 30
0.0
  0
POINT
  5
1E0
100
AcDbEntity
  8
0
  6
CONTINUOUS
 62
     7
100
AcDbPoint
 10
100.0
 20
262.29999
 30
0.0
  0
LINE
  5
1E1
100
AcDbEntity
  8
0
  6
CONTINUOUS
 62
     7
100
AcDbLine
 10
70.551315
 20
267.09999
 30
0.0
 11
85.0
 21
267.09999
 31
0.0
  0
LINE
  5
1E2
100
AcDbEntity
  8
0
  6
CONTINUOUS
 62
     7
100
AcDbLine
 10
65.5
 20
270.99999
 30
0.0
 11
85.0
 21
270.99999
 31
0.0
  0
LINE
  5
1E3
100
AcDbEntity
  8
0
  6
CONTINUOUS
 62
     7
100
AcDbLine
 10
105.0
 20
293.69999
 30
0.0
 11
105.0
 21
301.69999
 31
0.0
  0
LINE
  5
1E4
100
AcDbEntity
  8
0
  6
CONTINUOUS
 62
     7
100
AcDbLine
 10
87.0
 20
303.69999
 30
0.0
 11
103.0
 21
303.69999
 31
0.0
  0
LINE
  5
1E5
100
AcDbEntity
  8
0
  6
CONTINUOUS
 62
     7
100
AcDbLine
 10
70.551315
 20
268.29999
 30
0.0
 11
105.0
 21
268.29999
 31
0.0
  0
LINE
  5
1E6
100
AcDbEntity
  8
0
  6
CENTER
 62
     7
100
AcDbLine
 10
90.0
 20
296.44999
 30
0.0
 11
90.0
 21
302.94999
 31
0.0
  0
LINE
  5
1E7
100
AcDbEntity
  8
0
  6
CENTER
 62
     7
100
AcDbLine
 10
103.25
 20
299.69999
 30
0.0
 11
96.75
 21
299.69999
 31
0.0
  0
LINE
  5
1E8
100
AcDbEntity
  8
0
  6
CENTER
 62
     7
100
AcDbLine
 10
100.0
 20
296.44999
 30
0.0
 11
100.0
 21
302.94999
 31
0.0
  0
LINE
  5
1E9
100
AcDbEntity
  8
0
  6
CENTER
 62
     7
100
AcDbLine
 10
93.25
 20
299.69999
 30
0.0
 11
86.75
 21
299.69999
 31
0.0
  0
LINE
  5
1EA
100
AcDbEntity
  8
0
  6
CONTINUOUS
 62
     7
100
AcDbLine
 10
85.0
 20
290.99999
 30
0.0
 11
85.0
 21
301.69999
 31
0.0
  0
LINE
  5
1EB
100
AcDbEntity
  8
0
  6
CONTINUOUS
 62
     7
100
AcDbLine
 10
85.0
 20
270.99999
 30
0.0
 11
85.0
 21
260.29999
 31
0.0
  0
LINE
  5
1EC
100
AcDbEntity
  8
0
  6
CENTER
 62
     7
100
AcDbLine
 10
93.25
 20
262.29999
 30
0.0
 11
86.75
 21
262.29999
 31
0.0
  0
LINE
  5
1ED
100
AcDbEntity
  8
0
  6
CENTER
 62
     7
100
AcDbLine
 10
100.0
 20
265.54999
 30
0.0
 11
100.0
 21
259.04999
 31
0.0
  0
LINE
  5
1EE
100
AcDbEntity
  8
0
  6
CENTER
 62
     7
100
AcDbLine
 10
103.25
 20
262.29999
 30
0.0
 11
96.75
 21
262.29999
 31
0.0
  0
LINE
  5
1EF
100
AcDbEntity
  8
0
  6
CENTER
 62
     7
100
AcDbLine
 10
90.0
 20
265.54999
 30
0.0
 11
90.0
 21
259.04999
 31
0.0
  0
LINE
  5
1F0
100
AcDbEntity
  8
0
  6
CONTINUOUS
 62
     7
100
AcDbLine
 10
70.551315
 20
296.99999
 30
0.0
 11
70.551315
 21
293.69999
 31
0.0
  0
LINE
  5
1F1
100
AcDbEntity
  8
0
  6
CONTINUOUS
 62
     7
100
AcDbLine
 10
56.5
 20
290.99999
 30
0.0
 11
56.5
 21
270.99999
 31
0.0
  0
LINE
  5
1F2
100
AcDbEntity
  8
0
  6
CONTINUOUS
 62
     7
100
AcDbLine
 10
68.5
 20
290.99999
 30
0.0
 11
68.5
 21
270.99999
 31
0.0
  0
LINE
  5
1F3
100
AcDbEntity
  8
0
  6
CENTER
 62
     7
100
AcDbLine
 10
50.0
 20
301.99999
 30
0.0
 11
50.0
 21
259.99999
 31
0.0
  0
LINE
  5
1F4
100
AcDbEntity
  8
0
  6
CENTER
 62
     7
100
AcDbLine
 10
75.0
 20
301.99999
 30
0.0
 11
75.0
 21
259.99999
 31
0.0
  0
LINE
  5
1F5
100
AcDbEntity
  8
0
  6
CONTINUOUS
 62
     7
100
AcDbLine
 10
70.551315
 20
293.69999
 30
0.0
 11
105.0
 21
293.69999
 31
0.0
  0
LINE
  5
1F6
100
AcDbEntity
  8
0
  6
CONTINUOUS
 62
     7
100
AcDbLine
 10
54.448685
 20
290.99999
 30
0.0
 11
59.5
 21
290.99999
 31
0.0
  0
LINE
  5
1F7
100
AcDbEntity
  8
0
  6
CONTINUOUS
 62
     7
100
AcDbLine
 10
45.551319
 20
293.99999
 30
0.0
 11
54.448685
 21
293.99999
 31
0.0
  0
LINE
  5
1F8
100
AcDbEntity
  8
0
  6
CENTER
 62
     7
100
AcDbLine
 10
35.0
 20
280.99999
 30
0.0
 11
100.0
 21
280.99999
 31
0.0
  0
LINE
  5
1F9
100
AcDbEntity
  8
0
  6
CONTINUOUS
 62
     7
100
AcDbLine
 10
45.551319
 20
296.99999
 30
0.0
 11
70.551315
 21
296.99999
 31
0.0
  0
LINE
  5
1FA
100
AcDbEntity
  8
0
  6
CONTINUOUS
 62
     7
100
AcDbLine
 10
54.448685
 20
293.99999
 30
0.0
 11
54.448685
 21
290.99999
 31
0.0
  0
LINE
  5
1FB
100
AcDbEntity
  8
0
  6
CONTINUOUS
 62
     7
100
AcDbLine
 10
65.5
 20
290.99999
 30
0.0
 11
85.0
 21
290.99999
 31
0.0
  0
LINE
  5
1FC
100
AcDbEntity
  8
0
  6
CONTINUOUS
 62
     7
100
AcDbLine
 10
45.551319
 20
264.99999
 30
0.0
 11
70.551315
 21
264.99999
 31
0.0
  0
LINE
  5
1FD
100
AcDbEntity
  8
0
  6
CONTINUOUS
 62
     7
100
AcDbLine
 10
59.5
 20
296.09999
 30
0.0
 11
65.5
 21
296.09999
 31
0.0
  0
LINE
  5
1FE
100
AcDbEntity
  8
0
  6
CONTINUOUS
 62
     7
100
AcDbLine
 10
59.5
 20
296.09999
 30
0.0
 11
59.5
 21
290.99999
 31
0.0
  0
LINE
  5
1FF
100
AcDbEntity
  8
0
  6
CONTINUOUS
 62
     7
100
AcDbLine
 10
65.5
 20
296.09999
 30
0.0
 11
65.5
 21
290.99999
 31
0.0
  0
LINE
  5
200
100
AcDbEntity
  8
0
  6
CONTINUOUS
 62
     7
100
AcDbLine
 10
57.5
 20
290.99999
 30
0.0
 11
57.5
 21
270.99999
 31
0.0
  0
LINE
  5
201
100
AcDbEntity
  8
0
  6
CONTINUOUS
 62
     7
100
AcDbLine
 10
67.5
 20
290.99999
 30
0.0
 11
67.5
 21
270.99999
 31
0.0
  0
LINE
  5
202
100
AcDbEntity
  8
0
  6
CONTINUOUS
 62
     7
100
AcDbLine
 10
59.5
 20
295.49999
 30
0.0
 11
65.5
 21
295.49999
 31
0.0
  0
LINE
  5
203
100
AcDbEntity
  8
0
  6
CONTINUOUS
 62
     7
100
AcDbLine
 10
45.551319
 20
267.99999
 30
0.0
 11
54.448685
 21
267.99999
 31
0.0
  0
LINE
  5
204
100
AcDbEntity
  8
0
  6
CONTINUOUS
 62
     7
100
AcDbLine
 10
54.448685
 20
270.99999
 30
0.0
 11
59.5
 21
270.99999
 31
0.0
  0
LINE
  5
205
100
AcDbEntity
  8
0
  6
CONTINUOUS
 62
     7
100
AcDbLine
 10
70.551315
 20
264.99999
 30
0.0
 11
70.551315
 21
268.29999
 31
0.0
  0
LINE
  5
206
100
AcDbEntity
  8
0
  6
CONTINUOUS
 62
     7
100
AcDbLine
 10
54.448685
 20
267.99999
 30
0.0
 11
54.448685
 21
270.99999
 31
0.0
  0
LINE
  5
207
100
AcDbEntity
  8
0
  6
CONTINUOUS
 62
     7
100
AcDbLine
 10
59.5
 20
265.89999
 30
0.0
 11
65.5
 21
265.89999
 31
0.0
  0
LINE
  5
208
100
AcDbEntity
  8
0
  6
CONTINUOUS
 62
     7
100
AcDbLine
 10
59.5
 20
265.89999
 30
0.0
 11
59.5
 21
270.99999
 31
0.0
  0
LINE
  5
209
100
AcDbEntity
  8
0
  6
CONTINUOUS
 62
     7
100
AcDbLine
 10
65.5
 20
265.89999
 30
0.0
 11
65.5
 21
270.99999
 31
0.0
  0
LINE
  5
20A
100
AcDbEntity
  8
0
  6
CONTINUOUS
 62
     7
100
AcDbLine
 10
59.5
 20
266.49999
 30
0.0
 11
65.5
 21
266.49999
 31
0.0
  0
LINE
  5
20B
100
AcDbEntity
  8
0
  6
CENTER
 62
     7
100
AcDbLine
 10
57.5
 20
268.19999
 30
0.0
 11
67.5
 21
268.19999
 31
0.0
  0
LINE
  5
20C
100
AcDbEntity
  8
0
  6
CENTER
 62
     7
100
AcDbLine
 10
57.5
 20
293.79999
 30
0.0
 11
67.5
 21
293.79999
 31
0.0
  0
LINE
  5
20D
100
AcDbEntity
  8
0
  6
CONTINUOUS
 62
     7
100
AcDbLine
 10
70.551315
 20
294.89999
 30
0.0
 11
85.0
 21
294.89999
 31
0.0
  0
LINE
  5
20E
100
AcDbEntity
  8
0
  6
CONTINUOUS
 62
     7
100
AcDbLine
 10
87.0
 20
258.29999
 30
0.0
 11
103.0
 21
258.29999
 31
0.0
  0
LINE
  5
20F
100
AcDbEntity
  8
0
  6
CONTINUOUS
 62
     7
100
AcDbLine
 10
105.0
 20
268.29999
 30
0.0
 11
105.0
 21
260.29999
 31
0.0
  0
ARC
  5
210
100
AcDbEntity
  8
0
  6
CONTINUOUS
 62
     7
100
AcDbCircle
 10
87.0
 20
301.69999
 30
0.0
 40
2.0
100
AcDbArc
 50
90.000003
 51
180.00001
  0
CIRCLE
  5
211
100
AcDbEntity
  8
0
  6
CONTINUOUS
 62
     7
100
AcDbCircle
 10
100.0
 20
262.29999
 30
0.0
 40
2.25
  0
ARC
  5
212
100
AcDbEntity
  8
0
  6
CONTINUOUS
 62
     7
100
AcDbCircle
 10
103.0
 20
260.29999
 30
0.0
 40
2.0
100
AcDbArc
 50
270.0
 51
0.0
  0
CIRCLE
  5
213
100
AcDbEntity
  8
0
  6
CONTINUOUS
 62
     7
100
AcDbCircle
 10
90.0
 20
299.69999
 30
0.0
 40
2.25
  0
CIRCLE
  5
214
100
AcDbEntity
  8
0
  6
CONTINUOUS
 62
     7
100
AcDbCircle
 10
90.0
 20
262.29999
 30
0.0
 40
2.25
  0
ARC
  5
215
100
AcDbEntity
  8
0
  6
CONTINUOUS
 62
     7
100
AcDbCircle
 10
103.0
 20
301.69999
 30
0.0
 40
2.0
100
AcDbArc
 50
0.0
 51
90.000003
  0
CIRCLE
  5
216
100
AcDbEntity
  8
0
  6
CONTINUOUS
 62
     7
100
AcDbCircle
 10
100.0
 20
299.69999
 30
0.0
 40
2.25
  0
ARC
  5
217
100
AcDbEntity
  8
0
  6
CONTINUOUS
 62
     7
100
AcDbCircle
 10
87.0
 20
260.29999
 30
0.0
 40
2.0
100
AcDbArc
 50
179.99999
 51
270.0
  0
POINT
  5
218
100
AcDbEntity
  8
0
  6
CONTINUOUS
 62
     7
100
AcDbPoint
 10
90.0
 20
236.0
 30
0.0
  0
POINT
  5
219
100
AcDbEntity
  8
0
  6
CONTINUOUS
 62
     7
100
AcDbPoint
 10
100.0
 20
236.0
 30
0.0
  0
LINE
  5
21A
100
AcDbEntity
  8
0
  6
CONTINUOUS
 62
     7
100
AcDbLine
 10
50.0
 20
236.0
 30
0.0
 11
82.0
 21
236.0
 31
0.0
  0
LINE
  5
21B
100
AcDbEntity
  8
0
  6
CONTINUOUS
 62
     7
100
AcDbLine
 10
85.0
 20
236.0
 30
0.0
 11
105.0
 21
236.0
 31
0.0
  0
LINE
  5
21C
100
AcDbEntity
  8
0
  6
CONTINUOUS
 62
     7
100
AcDbLine
 10
105.0
 20
236.0
 30
0.0
 11
105.0
 21
233.071
 31
0.0
  0
LINE
  5
21D
100
AcDbEntity
  8
0
  6
CONTINUOUS
 62
     7
100
AcDbLine
 10
85.0
 20
234.8
 30
0.0
 11
85.0
 21
236.0
 31
0.0
  0
LINE
  5
21E
100
AcDbEntity
  8
0
  6
CONTINUOUS
 62
     7
100
AcDbLine
 10
85.0
 20
234.8
 30
0.0
 11
105.0
 21
234.8
 31
0.0
  0
LINE
  5
21F
100
AcDbEntity
  8
0
  6
CENTER
 62
     7
100
AcDbLine
 10
90.0
 20
238.0
 30
0.0
 11
90.0
 21
232.8
 31
0.0
  0
LINE
  5
220
100
AcDbEntity
  8
0
  6
CENTER
 62
     7
100
AcDbLine
 10
100.0
 20
238.0
 30
0.0
 11
100.0
 21
232.8
 31
0.0
  0
LINE
  5
221
100
AcDbEntity
  8
0
  6
CENTER
 62
     7
100
AcDbLine
 10
56.040001
 20
226.0
 30
0.0
 11
43.959999
 21
226.0
 31
0.0
  0
LINE
  5
222
100
AcDbEntity
  8
0
  6
CENTER
 62
     7
100
AcDbLine
 10
81.04
 20
226.0
 30
0.0
 11
68.959999
 21
226.0
 31
0.0
  0
LINE
  5
223
100
AcDbEntity
  8
0
  6
CENTER
 62
     7
100
AcDbLine
 10
50.0
 20
232.04
 30
0.0
 11
50.0
 21
219.96
 31
0.0
  0
LINE
  5
224
100
AcDbEntity
  8
0
  6
CONTINUOUS
 62
     7
100
AcDbLine
 10
50.0
 20
216.0
 30
0.0
 11
75.0
 21
216.0
 31
0.0
  0
LINE
  5
225
100
AcDbEntity
  8
0
  6
CONTINUOUS
 62
     7
100
AcDbLine
 10
69.309765
 20
216.49483
 30
0.0
 11
67.015738
 21
219.1808
 31
0.0
  0
LINE
  5
226
100
AcDbEntity
  8
0
  6
CONTINUOUS
 62
     7
100
AcDbLine
 10
73.0
 20
228.87228
 30
0.0
 11
73.0
 21
223.12772
 31
0.0
  0
LINE
  5
227
100
AcDbEntity
  8
0
  6
CENTER
 62
     7
100
AcDbLine
 10
75.0
 20
232.04
 30
0.0
 11
75.0
 21
219.96
 31
0.0
  0
LINE
  5
228
100
AcDbEntity
  8
0
  6
CONTINUOUS
 62
     7
100
AcDbLine
 10
102.26103
 20
228.612
 30
0.0
 11
79.522015
 21
217.08099
 31
0.0
  0
LINE
  5
229
100
AcDbEntity
  8
0
  6
CONTINUOUS
 62
     7
100
AcDbLine
 10
68.803226
 20
225.8
 30
0.0
 11
65.525024
 21
225.8
 31
0.0
  0
LINE
  5
22A
100
AcDbEntity
  8
0
  6
CONTINUOUS
 62
     7
100
AcDbLine
 10
70.025061
 20
229.7
 30
0.0
 11
66.479004
 21
229.7
 31
0.0
  0
ARC
  5
22B
100
AcDbEntity
  8
0
  6
CONTINUOUS
 62
     7
100
AcDbCircle
 10
100.0
 20
233.071
 30
0.0
 40
5.0
100
AcDbArc
 50
296.8883
 51
0.0
  0
ARC
  5
22C
100
AcDbEntity
  8
0
  6
CONTINUOUS
 62
     7
100
AcDbCircle
 10
83.5
 20
236.0
 30
0.0
 40
1.5
100
AcDbArc
 50
179.99999
 51
0.00001
  0
ARC
  5
22D
100
AcDbEntity
  8
0
  6
CONTINUOUS
 62
     7
100
AcDbCircle
 10
50.0
 20
226.0
 30
0.0
 40
10.0
100
AcDbArc
 50
90.000003
 51
270.0
  0
ARC
  5
22E
100
AcDbEntity
  8
0
  6
CONTINUOUS
 62
     7
100
AcDbCircle
 10
75.0
 20
226.0
 30
0.0
 40
10.5
100
AcDbArc
 50
116.0843
 51
220.49999
  0
ARC
  5
22F
100
AcDbEntity
  8
0
  6
CONTINUOUS
 62
     7
100
AcDbCircle
 10
70.251316
 20
235.7
 30
0.0
 40
0.3
100
AcDbArc
 50
296.08429
 51
90.000003
  0
ARC
  5
230
100
AcDbEntity
  8
0
  6
CONTINUOUS
 62
     7
100
AcDbCircle
 10
69.081642
 20
216.3
 30
0.0
 40
0.3
100
AcDbArc
 50
270.0
 51
40.499999
  0
CIRCLE
  5
231
100
AcDbEntity
  8
0
  6
CONTINUOUS
 62
     7
100
AcDbCircle
 10
75.0
 20
226.0
 30
0.0
 40
3.5
  0
ARC
  5
232
100
AcDbEntity
  8
0
  6
CONTINUOUS
 62
     7
100
AcDbCircle
 10
66.479004
 20
230.2
 30
0.0
 40
0.5
100
AcDbArc
 50
153.761
 51
270.0
  0
ARC
  5
233
100
AcDbEntity
  8
0
  6
CONTINUOUS
 62
     7
100
AcDbCircle
 10
75.0
 20
226.0
 30
0.0
 40
6.2
100
AcDbArc
 50
143.36082
 51
181.84854
  0
ARC
  5
234
100
AcDbEntity
  8
0
  6
CONTINUOUS
 62
     7
100
AcDbCircle
 10
75.0
 20
226.0
 30
0.0
 40
10.0
100
AcDbArc
 50
184.225
 51
296.5938
  0
ARC
  5
235
100
AcDbEntity
  8
0
  6
CONTINUOUS
 62
     7
100
AcDbCircle
 10
75.0
 20
226.0
 30
0.0
 40
10.0
100
AcDbArc
 50
90.000003
 51
153.761
  0
ARC
  5
236
100
AcDbEntity
  8
0
  6
CONTINUOUS
 62
     7
100
AcDbCircle
 10
65.525024
 20
225.3
 30
0.0
 40
0.5
100
AcDbArc
 50
89.998097
 51
184.224
  0
POINT
  5
237
100
AcDbEntity
  8
0
  6
CONTINUOUS
 62
     7
100
AcDbPoint
 10
90.0
 20
189.7
 30
0.0
  0
POINT
  5
238
100
AcDbEntity
  8
0
  6
CONTINUOUS
 62
     7
100
AcDbPoint
 10
100.0
 20
189.7
 30
0.0
  0
LINE
  5
239
100
AcDbEntity
  8
0
  6
CONTINUOUS
 62
     7
100
AcDbLine
 10
85.0
 20
184.9
 30
0.0
 11
85.0
 21
191.7
 31
0.0
  0
LINE
  5
23A
100
AcDbEntity
  8
0
  6
CONTINUOUS
 62
     7
100
AcDbLine
 10
105.0
 20
158.3
 30
0.0
 11
105.0
 21
150.3
 31
0.0
  0
LINE
  5
23B
100
AcDbEntity
  8
0
  6
CONTINUOUS
 62
     7
100
AcDbLine
 10
87.0
 20
148.3
 30
0.0
 11
103.0
 21
148.3
 31
0.0
  0
LINE
  5
23C
100
AcDbEntity
  8
0
  6
CENTER
 62
     7
100
AcDbLine
 10
90.0
 20
155.55
 30
0.0
 11
90.0
 21
149.05
 31
0.0
  0
LINE
  5
23D
100
AcDbEntity
  8
0
  6
CENTER
 62
     7
100
AcDbLine
 10
103.25
 20
152.3
 30
0.0
 11
96.75
 21
152.3
 31
0.0
  0
LINE
  5
23E
100
AcDbEntity
  8
0
  6
CENTER
 62
     7
100
AcDbLine
 10
100.0
 20
155.55
 30
0.0
 11
100.0
 21
149.05
 31
0.0
  0
LINE
  5
23F
100
AcDbEntity
  8
0
  6
CENTER
 62
     7
100
AcDbLine
 10
93.25
 20
152.3
 30
0.0
 11
86.75
 21
152.3
 31
0.0
  0
LINE
  5
240
100
AcDbEntity
  8
0
  6
CONTINUOUS
 62
     7
100
AcDbLine
 10
85.0
 20
161.0
 30
0.0
 11
85.0
 21
158.3
 31
0.0
  0
LINE
  5
241
100
AcDbEntity
  8
0
  6
CONTINUOUS
 62
     7
100
AcDbLine
 10
85.0
 20
181.0
 30
0.0
 11
85.0
 21
183.7
 31
0.0
  0
LINE
  5
242
100
AcDbEntity
  8
0
  6
CENTER
 62
     7
100
AcDbLine
 10
93.25
 20
189.7
 30
0.0
 11
86.75
 21
189.7
 31
0.0
  0
LINE
  5
243
100
AcDbEntity
  8
0
  6
CENTER
 62
     7
100
AcDbLine
 10
100.0
 20
186.45
 30
0.0
 11
100.0
 21
192.95
 31
0.0
  0
LINE
  5
244
100
AcDbEntity
  8
0
  6
CENTER
 62
     7
100
AcDbLine
 10
103.25
 20
189.7
 30
0.0
 11
96.75
 21
189.7
 31
0.0
  0
LINE
  5
245
100
AcDbEntity
  8
0
  6
CENTER
 62
     7
100
AcDbLine
 10
90.0
 20
186.45
 30
0.0
 11
90.0
 21
192.95
 31
0.0
  0
LINE
  5
246
100
AcDbEntity
  8
0
  6
CONTINUOUS
 62
     7
100
AcDbLine
 10
87.0
 20
193.7
 30
0.0
 11
103.0
 21
193.7
 31
0.0
  0
LINE
  5
247
100
AcDbEntity
  8
0
  6
CONTINUOUS
 62
     7
100
AcDbLine
 10
105.0
 20
183.7
 30
0.0
 11
105.0
 21
191.7
 31
0.0
  0
LINE
  5
248
100
AcDbEntity
  8
0
  6
CONTINUOUS
 62
     7
100
AcDbLine
 10
85.0
 20
157.1
 30
0.0
 11
85.0
 21
150.3
 31
0.0
  0
LINE
  5
249
100
AcDbEntity
  8
0
  6
CONTINUOUS
 62
     7
100
AcDbLine
 10
55.618359
 20
184.0
 30
0.0
 11
55.618359
 21
181.0
 31
0.0
  0
LINE
  5
24A
100
AcDbEntity
  8
0
  6
CONTINUOUS
 62
     7
100
AcDbLine
 10
44.381641
 20
184.0
 30
0.0
 11
55.618359
 21
184.0
 31
0.0
  0
LINE
  5
24B
100
AcDbEntity
  8
0
  6
CONTINUOUS
 62
     7
100
AcDbLine
 10
44.381641
 20
187.0
 30
0.0
 11
69.381643
 21
187.0
 31
0.0
  0
LINE
  5
24C
100
AcDbEntity
  8
0
  6
CENTER
 62
     7
100
AcDbLine
 10
35.0
 20
171.0
 30
0.0
 11
100.0
 21
171.0
 31
0.0
  0
LINE
  5
24D
100
AcDbEntity
  8
0
  6
CONTINUOUS
 62
     7
100
AcDbLine
 10
55.618359
 20
181.0
 30
0.0
 11
56.5
 21
181.0
 31
0.0
  0
LINE
  5
24E
100
AcDbEntity
  8
0
  6
CONTINUOUS
 62
     7
100
AcDbLine
 10
69.381643
 20
183.7
 30
0.0
 11
105.0
 21
183.7
 31
0.0
  0
LINE
  5
24F
100
AcDbEntity
  8
0
  6
CENTER
 62
     7
100
AcDbLine
 10
75.0
 20
192.0
 30
0.0
 11
75.0
 21
150.0
 31
0.0
  0
LINE
  5
250
100
AcDbEntity
  8
0
  6
CENTER
 62
     7
100
AcDbLine
 10
50.0
 20
192.0
 30
0.0
 11
50.0
 21
150.0
 31
0.0
  0
LINE
  5
251
100
AcDbEntity
  8
0
  6
CONTINUOUS
 62
     7
100
AcDbLine
 10
68.5
 20
181.0
 30
0.0
 11
68.5
 21
161.0
 31
0.0
  0
LINE
  5
252
100
AcDbEntity
  8
0
  6
CONTINUOUS
 62
     7
100
AcDbLine
 10
56.5
 20
181.0
 30
0.0
 11
56.5
 21
161.0
 31
0.0
  0
LINE
  5
253
100
AcDbEntity
  8
0
  6
CONTINUOUS
 62
     7
100
AcDbLine
 10
55.618359
 20
161.0
 30
0.0
 11
55.618359
 21
158.0
 31
0.0
  0
LINE
  5
254
100
AcDbEntity
  8
0
  6
CONTINUOUS
 62
     7
100
AcDbLine
 10
69.381643
 20
158.3
 30
0.0
 11
69.381643
 21
155.0
 31
0.0
  0
LINE
  5
255
100
AcDbEntity
  8
0
  6
CONTINUOUS
 62
     7
100
AcDbLine
 10
68.5
 20
181.0
 30
0.0
 11
85.0
 21
181.0
 31
0.0
  0
LINE
  5
256
100
AcDbEntity
  8
0
  6
CONTINUOUS
 62
     7
100
AcDbLine
 10
44.381641
 20
155.0
 30
0.0
 11
69.381643
 21
155.0
 31
0.0
  0
LINE
  5
257
100
AcDbEntity
  8
0
  6
CONTINUOUS
 62
     7
100
AcDbLine
 10
44.381641
 20
158.0
 30
0.0
 11
55.618359
 21
158.0
 31
0.0
  0
LINE
  5
258
100
AcDbEntity
  8
0
  6
CONTINUOUS
 62
     7
100
AcDbLine
 10
55.618359
 20
161.0
 30
0.0
 11
56.5
 21
161.0
 31
0.0
  0
LINE
  5
259
100
AcDbEntity
  8
0
  6
CONTINUOUS
 62
     7
100
AcDbLine
 10
69.381643
 20
158.3
 30
0.0
 11
105.0
 21
158.3
 31
0.0
  0
LINE
  5
25A
100
AcDbEntity
  8
0
  6
CONTINUOUS
 62
     7
100
AcDbLine
 10
68.5
 20
161.0
 30
0.0
 11
85.0
 21
161.0
 31
0.0
  0
LINE
  5
25B
100
AcDbEntity
  8
0
  6
CONTINUOUS
 62
     7
100
AcDbLine
 10
69.381643
 20
187.0
 30
0.0
 11
69.381643
 21
183.7
 31
0.0
  0
LINE
  5
25C
100
AcDbEntity
  8
0
  6
CONTINUOUS
 62
     7
100
AcDbLine
 10
69.381643
 20
184.9
 30
0.0
 11
105.0
 21
184.9
 31
0.0
  0
LINE
  5
25D
100
AcDbEntity
  8
0
  6
CONTINUOUS
 62
     7
100
AcDbLine
 10
69.381643
 20
157.1
 30
0.0
 11
105.0
 21
157.1
 31
0.0
  0
ARC
  5
25E
100
AcDbEntity
  8
0
  6
CONTINUOUS
 62
     7
100
AcDbCircle
 10
87.0
 20
150.3
 30
0.0
 40
2.0
100
AcDbArc
 50
179.99999
 51
270.0
  0
CIRCLE
  5
25F
100
AcDbEntity
  8
0
  6
CONTINUOUS
 62
     7
100
AcDbCircle
 10
100.0
 20
189.7
 30
0.0
 40
2.25
  0
ARC
  5
260
100
AcDbEntity
  8
0
  6
CONTINUOUS
 62
     7
100
AcDbCircle
 10
103.0
 20
191.7
 30
0.0
 40
2.0
100
AcDbArc
 50
0.0
 51
90.000003
  0
CIRCLE
  5
261
100
AcDbEntity
  8
0
  6
CONTINUOUS
 62
     7
100
AcDbCircle
 10
90.0
 20
152.3
 30
0.0
 40
2.25
  0
CIRCLE
  5
262
100
AcDbEntity
  8
0
  6
CONTINUOUS
 62
     7
100
AcDbCircle
 10
90.0
 20
189.7
 30
0.0
 40
2.25
  0
ARC
  5
263
100
AcDbEntity
  8
0
  6
CONTINUOUS
 62
     7
100
AcDbCircle
 10
103.0
 20
150.3
 30
0.0
 40
2.0
100
AcDbArc
 50
270.0
 51
0.0
  0
CIRCLE
  5
264
100
AcDbEntity
  8
0
  6
CONTINUOUS
 62
     7
100
AcDbCircle
 10
100.0
 20
152.3
 30
0.0
 40
2.25
  0
ARC
  5
265
100
AcDbEntity
  8
0
  6
CONTINUOUS
 62
     7
100
AcDbCircle
 10
87.0
 20
191.7
 30
0.0
 40
2.0
100
AcDbArc
 50
90.000003
 51
180.00001
  0
POINT
  5
266
100
AcDbEntity
  8
0
  6
CONTINUOUS
 62
     7
100
AcDbPoint
 10
135.0
 20
236.0
 30
0.0
  0
POINT
  5
267
100
AcDbEntity
  8
0
  6
CONTINUOUS
 62
     7
100
AcDbPoint
 10
172.4
 20
236.0
 30
0.0
  0
LINE
  5
268
100
AcDbEntity
  8
0
  6
CONTINUOUS
 62
     7
100
AcDbLine
 10
169.7
 20
234.8
 30
0.0
 11
169.7
 21
216.0
 31
0.0
  0
LINE
  5
269
100
AcDbEntity
  8
0
  6
CENTER
 62
     7
100
AcDbLine
 10
132.7
 20
226.0
 30
0.0
 11
174.7
 21
226.0
 31
0.0
  0
LINE
  5
26A
100
AcDbEntity
  8
0
  6
CONTINUOUS
 62
     7
100
AcDbLine
 10
176.4
 20
234.8
 30
0.0
 11
167.6
 21
234.8
 31
0.0
  0
LINE
  5
26B
100
AcDbEntity
  8
0
  6
CONTINUOUS
 62
     7
100
AcDbLine
 10
131.0
 20
236.0
 30
0.0
 11
176.4
 21
236.0
 31
0.0
  0
LINE
  5
26C
100
AcDbEntity
  8
0
  6
CONTINUOUS
 62
     7
100
AcDbLine
 10
166.4
 20
236.0
 30
0.0
 11
166.4
 21
216.0
 31
0.0
  0
LINE
  5
26D
100
AcDbEntity
  8
0
  6
CONTINUOUS
 62
     7
100
AcDbLine
 10
141.0
 20
236.0
 30
0.0
 11
141.0
 21
216.0
 31
0.0
  0
LINE
  5
26E
100
AcDbEntity
  8
0
  6
CONTINUOUS
 62
     7
100
AcDbLine
 10
163.7
 20
236.0
 30
0.0
 11
163.7
 21
216.0
 31
0.0
  0
LINE
  5
26F
100
AcDbEntity
  8
0
  6
CONTINUOUS
 62
     7
100
AcDbLine
 10
139.8
 20
234.8
 30
0.0
 11
139.8
 21
216.0
 31
0.0
  0
LINE
  5
270
100
AcDbEntity
  8
0
  6
CENTER
 62
     7
100
AcDbLine
 10
172.4
 20
238.0
 30
0.0
 11
172.4
 21
231.3
 31
0.0
  0
LINE
  5
271
100
AcDbEntity
  8
0
  6
CONTINUOUS
 62
     7
100
AcDbLine
 10
167.6
 20
234.8
 30
0.0
 11
167.6
 21
216.0
 31
0.0
  0
LINE
  5
272
100
AcDbEntity
  8
0
  6
CONTINUOUS
 62
     7
100
AcDbLine
 10
143.7
 20
236.0
 30
0.0
 11
143.7
 21
216.0
 31
0.0
  0
LINE
  5
273
100
AcDbEntity
  8
0
  6
CENTER
 62
     7
100
AcDbLine
 10
153.7
 20
241.0
 30
0.0
 11
153.7
 21
211.0
 31
0.0
  0
LINE
  5
274
100
AcDbEntity
  8
0
  6
CONTINUOUS
 62
     7
100
AcDbLine
 10
137.7
 20
234.8
 30
0.0
 11
137.7
 21
216.0
 31
0.0
  0
LINE
  5
275
100
AcDbEntity
  8
0
  6
CONTINUOUS
 62
     7
100
AcDbLine
 10
137.7
 20
216.0
 30
0.0
 11
169.7
 21
216.0
 31
0.0
  0
LINE
  5
276
100
AcDbEntity
  8
0
  6
CONTINUOUS
 62
     7
100
AcDbLine
 10
176.4
 20
236.0
 30
0.0
 11
176.4
 21
234.8
 31
0.0
  0
LINE
  5
277
100
AcDbEntity
  8
0
  6
CONTINUOUS
 62
     7
100
AcDbLine
 10
143.7
 20
233.7
 30
0.0
 11
163.7
 21
233.7
 31
0.0
  0
LINE
  5
278
100
AcDbEntity
  8
0
  6
CONTINUOUS
 62
     7
100
AcDbLine
 10
143.7
 20
233.0
 30
0.0
 11
163.7
 21
233.0
 31
0.0
  0
LINE
  5
279
100
AcDbEntity
  8
0
  6
CONTINUOUS
 62
     7
100
AcDbLine
 10
143.7
 20
219.0
 30
0.0
 11
163.7
 21
219.0
 31
0.0
  0
LINE
  5
27A
100
AcDbEntity
  8
0
  6
CONTINUOUS
 62
     7
100
AcDbLine
 10
131.0
 20
234.8
 30
0.0
 11
139.8
 21
234.8
 31
0.0
  0
LINE
  5
27B
100
AcDbEntity
  8
0
  6
CONTINUOUS
 62
     7
100
AcDbLine
 10
131.0
 20
236.0
 30
0.0
 11
131.0
 21
234.8
 31
0.0
  0
LINE
  5
27C
100
AcDbEntity
  8
0
  6
CENTER
 62
     7
100
AcDbLine
 10
135.0
 20
238.0
 30
0.0
 11
135.0
 21
231.3
 31
0.0
  0
POINT
  5
27D
100
AcDbEntity
  8
0
  6
CONTINUOUS
 62
     7
100
AcDbPoint
 10
250.0
 20
262.29999
 30
0.0
  0
POINT
  5
27E
100
AcDbEntity
  8
0
  6
CONTINUOUS
 62
     7
100
AcDbPoint
 10
260.0
 20
262.29999
 30
0.0
  0
LINE
  5
27F
100
AcDbEntity
  8
0
  6
CONTINUOUS
 62
     7
100
AcDbLine
 10
230.55132
 20
267.09999
 30
0.0
 11
265.0
 21
267.09999
 31
0.0
  0
LINE
  5
280
100
AcDbEntity
  8
0
  6
CONTINUOUS
 62
     7
100
AcDbLine
 10
245.0
 20
267.09999
 30
0.0
 11
245.0
 21
260.29999
 31
0.0
  0
LINE
  5
281
100
AcDbEntity
  8
0
  6
CONTINUOUS
 62
     7
100
AcDbLine
 10
225.5
 20
270.99999
 30
0.0
 11
245.0
 21
270.99999
 31
0.0
  0
LINE
  5
282
100
AcDbEntity
  8
0
  6
CONTINUOUS
 62
     7
100
AcDbLine
 10
265.0
 20
293.69999
 30
0.0
 11
265.0
 21
301.69999
 31
0.0
  0
LINE
  5
283
100
AcDbEntity
  8
0
  6
CONTINUOUS
 62
     7
100
AcDbLine
 10
247.0
 20
303.69999
 30
0.0
 11
263.0
 21
303.69999
 31
0.0
  0
LINE
  5
284
100
AcDbEntity
  8
0
  6
CONTINUOUS
 62
     7
100
AcDbLine
 10
230.55132
 20
268.29999
 30
0.0
 11
265.0
 21
268.29999
 31
0.0
  0
LINE
  5
285
100
AcDbEntity
  8
0
  6
CENTER
 62
     7
100
AcDbLine
 10
250.0
 20
296.44999
 30
0.0
 11
250.0
 21
302.94999
 31
0.0
  0
LINE
  5
286
100
AcDbEntity
  8
0
  6
CENTER
 62
     7
100
AcDbLine
 10
263.25
 20
299.69999
 30
0.0
 11
256.75
 21
299.69999
 31
0.0
  0
LINE
  5
287
100
AcDbEntity
  8
0
  6
CENTER
 62
     7
100
AcDbLine
 10
260.0
 20
296.44999
 30
0.0
 11
260.0
 21
302.94999
 31
0.0
  0
LINE
  5
288
100
AcDbEntity
  8
0
  6
CENTER
 62
     7
100
AcDbLine
 10
253.25
 20
299.69999
 30
0.0
 11
246.75
 21
299.69999
 31
0.0
  0
LINE
  5
289
100
AcDbEntity
  8
0
  6
CONTINUOUS
 62
     7
100
AcDbLine
 10
245.0
 20
290.99999
 30
0.0
 11
245.0
 21
293.69999
 31
0.0
  0
LINE
  5
28A
100
AcDbEntity
  8
0
  6
CONTINUOUS
 62
     7
100
AcDbLine
 10
245.0
 20
270.99999
 30
0.0
 11
245.0
 21
268.29999
 31
0.0
  0
LINE
  5
28B
100
AcDbEntity
  8
0
  6
CENTER
 62
     7
100
AcDbLine
 10
253.25
 20
262.29999
 30
0.0
 11
246.75
 21
262.29999
 31
0.0
  0
LINE
  5
28C
100
AcDbEntity
  8
0
  6
CENTER
 62
     7
100
AcDbLine
 10
260.0
 20
265.54999
 30
0.0
 11
260.0
 21
259.04999
 31
0.0
  0
LINE
  5
28D
100
AcDbEntity
  8
0
  6
CENTER
 62
     7
100
AcDbLine
 10
263.25
 20
262.29999
 30
0.0
 11
256.75
 21
262.29999
 31
0.0
  0
LINE
  5
28E
100
AcDbEntity
  8
0
  6
CENTER
 62
     7
100
AcDbLine
 10
250.0
 20
265.54999
 30
0.0
 11
250.0
 21
259.04999
 31
0.0
  0
LINE
  5
28F
100
AcDbEntity
  8
0
  6
CONTINUOUS
 62
     7
100
AcDbLine
 10
230.55132
 20
296.99999
 30
0.0
 11
230.55132
 21
293.69999
 31
0.0
  0
LINE
  5
290
100
AcDbEntity
  8
0
  6
CONTINUOUS
 62
     7
100
AcDbLine
 10
216.5
 20
290.99999
 30
0.0
 11
216.5
 21
270.99999
 31
0.0
  0
LINE
  5
291
100
AcDbEntity
  8
0
  6
CONTINUOUS
 62
     7
100
AcDbLine
 10
228.5
 20
290.99999
 30
0.0
 11
228.5
 21
270.99999
 31
0.0
  0
LINE
  5
292
100
AcDbEntity
  8
0
  6
CENTER
 62
     7
100
AcDbLine
 10
210.0
 20
301.99999
 30
0.0
 11
210.0
 21
259.99999
 31
0.0
  0
LINE
  5
293
100
AcDbEntity
  8
0
  6
CENTER
 62
     7
100
AcDbLine
 10
235.0
 20
301.99999
 30
0.0
 11
235.0
 21
259.99999
 31
0.0
  0
LINE
  5
294
100
AcDbEntity
  8
0
  6
CONTINUOUS
 62
     7
100
AcDbLine
 10
230.55132
 20
293.69999
 30
0.0
 11
265.0
 21
293.69999
 31
0.0
  0
LINE
  5
295
100
AcDbEntity
  8
0
  6
CONTINUOUS
 62
     7
100
AcDbLine
 10
214.44868
 20
290.99999
 30
0.0
 11
219.5
 21
290.99999
 31
0.0
  0
LINE
  5
296
100
AcDbEntity
  8
0
  6
CONTINUOUS
 62
     7
100
AcDbLine
 10
205.55132
 20
293.99999
 30
0.0
 11
214.44868
 21
293.99999
 31
0.0
  0
LINE
  5
297
100
AcDbEntity
  8
0
  6
CENTER
 62
     7
100
AcDbLine
 10
195.0
 20
280.99999
 30
0.0
 11
260.0
 21
280.99999
 31
0.0
  0
LINE
  5
298
100
AcDbEntity
  8
0
  6
CONTINUOUS
 62
     7
100
AcDbLine
 10
205.55132
 20
296.99999
 30
0.0
 11
230.55132
 21
296.99999
 31
0.0
  0
LINE
  5
299
100
AcDbEntity
  8
0
  6
CONTINUOUS
 62
     7
100
AcDbLine
 10
214.44868
 20
293.99999
 30
0.0
 11
214.44868
 21
290.99999
 31
0.0
  0
LINE
  5
29A
100
AcDbEntity
  8
0
  6
CONTINUOUS
 62
     7
100
AcDbLine
 10
225.5
 20
290.99999
 30
0.0
 11
245.0
 21
290.99999
 31
0.0
  0
LINE
  5
29B
100
AcDbEntity
  8
0
  6
CONTINUOUS
 62
     7
100
AcDbLine
 10
205.55132
 20
264.99999
 30
0.0
 11
230.55132
 21
264.99999
 31
0.0
  0
LINE
  5
29C
100
AcDbEntity
  8
0
  6
CONTINUOUS
 62
     7
100
AcDbLine
 10
219.5
 20
296.09999
 30
0.0
 11
225.5
 21
296.09999
 31
0.0
  0
LINE
  5
29D
100
AcDbEntity
  8
0
  6
CONTINUOUS
 62
     7
100
AcDbLine
 10
219.5
 20
296.09999
 30
0.0
 11
219.5
 21
290.99999
 31
0.0
  0
LINE
  5
29E
100
AcDbEntity
  8
0
  6
CONTINUOUS
 62
     7
100
AcDbLine
 10
225.5
 20
296.09999
 30
0.0
 11
225.5
 21
290.99999
 31
0.0
  0
LINE
  5
29F
100
AcDbEntity
  8
0
  6
CONTINUOUS
 62
     7
100
AcDbLine
 10
217.5
 20
290.99999
 30
0.0
 11
217.5
 21
270.99999
 31
0.0
  0
LINE
  5
2A0
100
AcDbEntity
  8
0
  6
CONTINUOUS
 62
     7
100
AcDbLine
 10
227.5
 20
290.99999
 30
0.0
 11
227.5
 21
270.99999
 31
0.0
  0
LINE
  5
2A1
100
AcDbEntity
  8
0
  6
CONTINUOUS
 62
     7
100
AcDbLine
 10
219.5
 20
295.49999
 30
0.0
 11
225.5
 21
295.49999
 31
0.0
  0
LINE
  5
2A2
100
AcDbEntity
  8
0
  6
CONTINUOUS
 62
     7
100
AcDbLine
 10
205.55132
 20
267.99999
 30
0.0
 11
214.44868
 21
267.99999
 31
0.0
  0
LINE
  5
2A3
100
AcDbEntity
  8
0
  6
CONTINUOUS
 62
     7
100
AcDbLine
 10
214.44868
 20
270.99999
 30
0.0
 11
219.5
 21
270.99999
 31
0.0
  0
LINE
  5
2A4
100
AcDbEntity
  8
0
  6
CONTINUOUS
 62
     7
100
AcDbLine
 10
230.55132
 20
264.99999
 30
0.0
 11
230.55132
 21
268.29999
 31
0.0
  0
LINE
  5
2A5
100
AcDbEntity
  8
0
  6
CONTINUOUS
 62
     7
100
AcDbLine
 10
214.44868
 20
267.99999
 30
0.0
 11
214.44868
 21
270.99999
 31
0.0
  0
LINE
  5
2A6
100
AcDbEntity
  8
0
  6
CONTINUOUS
 62
     7
100
AcDbLine
 10
219.5
 20
265.89999
 30
0.0
 11
225.5
 21
265.89999
 31
0.0
  0
LINE
  5
2A7
100
AcDbEntity
  8
0
  6
CONTINUOUS
 62
     7
100
AcDbLine
 10
219.5
 20
265.89999
 30
0.0
 11
219.5
 21
270.99999
 31
0.0
  0
LINE
  5
2A8
100
AcDbEntity
  8
0
  6
CONTINUOUS
 62
     7
100
AcDbLine
 10
225.5
 20
265.89999
 30
0.0
 11
225.5
 21
270.99999
 31
0.0
  0
LINE
  5
2A9
100
AcDbEntity
  8
0
  6
CONTINUOUS
 62
     7
100
AcDbLine
 10
219.5
 20
266.49999
 30
0.0
 11
225.5
 21
266.49999
 31
0.0
  0
LINE
  5
2AA
100
AcDbEntity
  8
0
  6
CENTER
 62
     7
100
AcDbLine
 10
217.5
 20
268.19999
 30
0.0
 11
227.5
 21
268.19999
 31
0.0
  0
LINE
  5
2AB
100
AcDbEntity
  8
0
  6
CENTER
 62
     7
100
AcDbLine
 10
217.5
 20
293.79999
 30
0.0
 11
227.5
 21
293.79999
 31
0.0
  0
LINE
  5
2AC
100
AcDbEntity
  8
0
  6
CONTINUOUS
 62
     7
100
AcDbLine
 10
230.55132
 20
294.89999
 30
0.0
 11
265.0
 21
294.89999
 31
0.0
  0
LINE
  5
2AD
100
AcDbEntity
  8
0
  6
CONTINUOUS
 62
     7
100
AcDbLine
 10
247.0
 20
258.29999
 30
0.0
 11
263.0
 21
258.29999
 31
0.0
  0
LINE
  5
2AE
100
AcDbEntity
  8
0
  6
CONTINUOUS
 62
     7
100
AcDbLine
 10
265.0
 20
268.29999
 30
0.0
 11
265.0
 21
260.29999
 31
0.0
  0
LINE
  5
2AF
100
AcDbEntity
  8
0
  6
CONTINUOUS
 62
     7
100
AcDbLine
 10
245.0
 20
294.89999
 30
0.0
 11
245.0
 21
301.69999
 31
0.0
  0
ARC
  5
2B0
100
AcDbEntity
  8
0
  6
CONTINUOUS
 62
     7
100
AcDbCircle
 10
247.0
 20
301.69999
 30
0.0
 40
2.0
100
AcDbArc
 50
90.000003
 51
180.00001
  0
CIRCLE
  5
2B1
100
AcDbEntity
  8
0
  6
CONTINUOUS
 62
     7
100
AcDbCircle
 10
260.0
 20
262.29999
 30
0.0
 40
2.25
  0
ARC
  5
2B2
100
AcDbEntity
  8
0
  6
CONTINUOUS
 62
     7
100
AcDbCircle
 10
263.0
 20
260.29999
 30
0.0
 40
2.0
100
AcDbArc
 50
270.0
 51
0.0
  0
CIRCLE
  5
2B3
100
AcDbEntity
  8
0
  6
CONTINUOUS
 62
     7
100
AcDbCircle
 10
250.0
 20
299.69999
 30
0.0
 40
2.25
  0
CIRCLE
  5
2B4
100
AcDbEntity
  8
0
  6
CONTINUOUS
 62
     7
100
AcDbCircle
 10
250.0
 20
262.29999
 30
0.0
 40
2.25
  0
ARC
  5
2B5
100
AcDbEntity
  8
0
  6
CONTINUOUS
 62
     7
100
AcDbCircle
 10
263.0
 20
301.69999
 30
0.0
 40
2.0
100
AcDbArc
 50
0.0
 51
90.000003
  0
CIRCLE
  5
2B6
100
AcDbEntity
  8
0
  6
CONTINUOUS
 62
     7
100
AcDbCircle
 10
260.0
 20
299.69999
 30
0.0
 40
2.25
  0
ARC
  5
2B7
100
AcDbEntity
  8
0
  6
CONTINUOUS
 62
     7
100
AcDbCircle
 10
247.0
 20
260.29999
 30
0.0
 40
2.0
100
AcDbArc
 50
179.99999
 51
270.0
  0
POINT
  5
2B8
100
AcDbEntity
  8
0
  6
CONTINUOUS
 62
     7
100
AcDbPoint
 10
250.0
 20
216.0
 30
0.0
  0
POINT
  5
2B9
100
AcDbEntity
  8
0
  6
CONTINUOUS
 62
     7
100
AcDbPoint
 10
260.0
 20
216.0
 30
0.0
  0
LINE
  5
2BA
100
AcDbEntity
  8
0
  6
CENTER
 62
     7
100
AcDbLine
 10
250.0
 20
214.0
 30
0.0
 11
250.0
 21
219.2
 31
0.0
  0
LINE
  5
2BB
100
AcDbEntity
  8
0
  6
CENTER
 62
     7
100
AcDbLine
 10
260.0
 20
214.0
 30
0.0
 11
260.0
 21
219.2
 31
0.0
  0
LINE
  5
2BC
100
AcDbEntity
  8
0
  6
CONTINUOUS
 62
     7
100
AcDbLine
 10
230.02506
 20
229.7
 30
0.0
 11
226.479
 21
229.7
 31
0.0
  0
LINE
  5
2BD
100
AcDbEntity
  8
0
  6
CONTINUOUS
 62
     7
100
AcDbLine
 10
228.80323
 20
225.8
 30
0.0
 11
225.52502
 21
225.8
 31
0.0
  0
LINE
  5
2BE
100
AcDbEntity
  8
0
  6
CONTINUOUS
 62
     7
100
AcDbLine
 10
245.0
 20
217.2
 30
0.0
 11
265.0
 21
217.2
 31
0.0
  0
LINE
  5
2BF
100
AcDbEntity
  8
0
  6
CONTINUOUS
 62
     7
100
AcDbLine
 10
245.0
 20
217.2
 30
0.0
 11
245.0
 21
216.0
 31
0.0
  0
LINE
  5
2C0
100
AcDbEntity
  8
0
  6
CONTINUOUS
 62
     7
100
AcDbLine
 10
265.0
 20
216.0
 30
0.0
 11
265.0
 21
218.929
 31
0.0
  0
LINE
  5
2C1
100
AcDbEntity
  8
0
  6
CONTINUOUS
 62
     7
100
AcDbLine
 10
262.26103
 20
223.388
 30
0.0
 11
239.52201
 21
234.91901
 31
0.0
  0
LINE
  5
2C2
100
AcDbEntity
  8
0
  6
CONTINUOUS
 62
     7
100
AcDbLine
 10
245.0
 20
216.0
 30
0.0
 11
265.0
 21
216.0
 31
0.0
  0
LINE
  5
2C3
100
AcDbEntity
  8
0
  6
CENTER
 62
     7
100
AcDbLine
 10
235.0
 20
232.04
 30
0.0
 11
235.0
 21
219.96
 31
0.0
  0
LINE
  5
2C4
100
AcDbEntity
  8
0
  6
CONTINUOUS
 62
     7
100
AcDbLine
 10
233.0
 20
228.87228
 30
0.0
 11
233.0
 21
223.12772
 31
0.0
  0
LINE
  5
2C5
100
AcDbEntity
  8
0
  6
CONTINUOUS
 62
     7
100
AcDbLine
 10
229.30976
 20
216.49483
 30
0.0
 11
227.01574
 21
219.1808
 31
0.0
  0
LINE
  5
2C6
100
AcDbEntity
  8
0
  6
CONTINUOUS
 62
     7
100
AcDbLine
 10
210.0
 20
216.0
 30
0.0
 11
242.0
 21
216.0
 31
0.0
  0
LINE
  5
2C7
100
AcDbEntity
  8
0
  6
CENTER
 62
     7
100
AcDbLine
 10
210.0
 20
232.04
 30
0.0
 11
210.0
 21
219.96
 31
0.0
  0
LINE
  5
2C8
100
AcDbEntity
  8
0
  6
CENTER
 62
     7
100
AcDbLine
 10
241.04
 20
226.0
 30
0.0
 11
228.96
 21
226.0
 31
0.0
  0
LINE
  5
2C9
100
AcDbEntity
  8
0
  6
CENTER
 62
     7
100
AcDbLine
 10
216.04
 20
226.0
 30
0.0
 11
203.96
 21
226.0
 31
0.0
  0
LINE
  5
2CA
100
AcDbEntity
  8
0
  6
CONTINUOUS
 62
     7
100
AcDbLine
 10
210.0
 20
236.0
 30
0.0
 11
235.0
 21
236.0
 31
0.0
  0
ARC
  5
2CB
100
AcDbEntity
  8
0
  6
CONTINUOUS
 62
     7
100
AcDbCircle
 10
225.52502
 20
225.3
 30
0.0
 40
0.5
100
AcDbArc
 50
89.998097
 51
184.224
  0
ARC
  5
2CC
100
AcDbEntity
  8
0
  6
CONTINUOUS
 62
     7
100
AcDbCircle
 10
235.0
 20
226.0
 30
0.0
 40
10.0
100
AcDbArc
 50
63.111802
 51
153.761
  0
ARC
  5
2CD
100
AcDbEntity
  8
0
  6
CONTINUOUS
 62
     7
100
AcDbCircle
 10
235.0
 20
226.0
 30
0.0
 40
10.0
100
AcDbArc
 50
184.225
 51
270.015
  0
ARC
  5
2CE
100
AcDbEntity
  8
0
  6
CONTINUOUS
 62
     7
100
AcDbCircle
 10
235.0
 20
226.0
 30
0.0
 40
6.2
100
AcDbArc
 50
143.36082
 51
181.84854
  0
ARC
  5
2CF
100
AcDbEntity
  8
0
  6
CONTINUOUS
 62
     7
100
AcDbCircle
 10
226.479
 20
230.2
 30
0.0
 40
0.5
100
AcDbArc
 50
153.761
 51
270.0
  0
ARC
  5
2D0
100
AcDbEntity
  8
0
  6
CONTINUOUS
 62
     7
100
AcDbCircle
 10
243.5
 20
216.0
 30
0.0
 40
1.5
100
AcDbArc
 50
0.0
 51
180.00001
  0
ARC
  5
2D1
100
AcDbEntity
  8
0
  6
CONTINUOUS
 62
     7
100
AcDbCircle
 10
260.0
 20
218.929
 30
0.0
 40
5.0
100
AcDbArc
 50
0.0
 51
63.111699
  0
CIRCLE
  5
2D2
100
AcDbEntity
  8
0
  6
CONTINUOUS
 62
     7
100
AcDbCircle
 10
235.0
 20
226.0
 30
0.0
 40
3.5
  0
ARC
  5
2D3
100
AcDbEntity
  8
0
  6
CONTINUOUS
 62
     7
100
AcDbCircle
 10
229.08164
 20
216.3
 30
0.0
 40
0.3
100
AcDbArc
 50
270.0
 51
40.499999
  0
ARC
  5
2D4
100
AcDbEntity
  8
0
  6
CONTINUOUS
 62
     7
100
AcDbCircle
 10
230.25132
 20
235.7
 30
0.0
 40
0.3
100
AcDbArc
 50
296.08429
 51
90.000003
  0
ARC
  5
2D5
100
AcDbEntity
  8
0
  6
CONTINUOUS
 62
     7
100
AcDbCircle
 10
235.0
 20
226.0
 30
0.0
 40
10.5
100
AcDbArc
 50
116.0843
 51
220.49999
  0
ARC
  5
2D6
100
AcDbEntity
  8
0
  6
CONTINUOUS
 62
     7
100
AcDbCircle
 10
210.0
 20
226.0
 30
0.0
 40
10.0
100
AcDbArc
 50
90.000003
 51
270.0
  0
POINT
  5
2D7
100
AcDbEntity
  8
0
  6
CONTINUOUS
 62
     7
100
AcDbPoint
 10
250.0
 20
189.7
 30
0.0
  0
POINT
  5
2D8
100
AcDbEntity
  8
0
  6
CONTINUOUS
 62
     7
100
AcDbPoint
 10
260.0
 20
189.7
 30
0.0
  0
LINE
  5
2D9
100
AcDbEntity
  8
0
  6
CONTINUOUS
 62
     7
100
AcDbLine
 10
245.0
 20
181.0
 30
0.0
 11
245.0
 21
191.7
 31
0.0
  0
LINE
  5
2DA
100
AcDbEntity
  8
0
  6
CONTINUOUS
 62
     7
100
AcDbLine
 10
265.0
 20
158.3
 30
0.0
 11
265.0
 21
150.3
 31
0.0
  0
LINE
  5
2DB
100
AcDbEntity
  8
0
  6
CONTINUOUS
 62
     7
100
AcDbLine
 10
247.0
 20
148.3
 30
0.0
 11
263.0
 21
148.3
 31
0.0
  0
LINE
  5
2DC
100
AcDbEntity
  8
0
  6
CENTER
 62
     7
100
AcDbLine
 10
250.0
 20
155.55
 30
0.0
 11
250.0
 21
149.05
 31
0.0
  0
LINE
  5
2DD
100
AcDbEntity
  8
0
  6
CENTER
 62
     7
100
AcDbLine
 10
263.25
 20
152.3
 30
0.0
 11
256.75
 21
152.3
 31
0.0
  0
LINE
  5
2DE
100
AcDbEntity
  8
0
  6
CENTER
 62
     7
100
AcDbLine
 10
260.0
 20
155.55
 30
0.0
 11
260.0
 21
149.05
 31
0.0
  0
LINE
  5
2DF
100
AcDbEntity
  8
0
  6
CENTER
 62
     7
100
AcDbLine
 10
253.25
 20
152.3
 30
0.0
 11
246.75
 21
152.3
 31
0.0
  0
LINE
  5
2E0
100
AcDbEntity
  8
0
  6
CENTER
 62
     7
100
AcDbLine
 10
253.25
 20
189.7
 30
0.0
 11
246.75
 21
189.7
 31
0.0
  0
LINE
  5
2E1
100
AcDbEntity
  8
0
  6
CENTER
 62
     7
100
AcDbLine
 10
260.0
 20
186.45
 30
0.0
 11
260.0
 21
192.95
 31
0.0
  0
LINE
  5
2E2
100
AcDbEntity
  8
0
  6
CENTER
 62
     7
100
AcDbLine
 10
263.25
 20
189.7
 30
0.0
 11
256.75
 21
189.7
 31
0.0
  0
LINE
  5
2E3
100
AcDbEntity
  8
0
  6
CENTER
 62
     7
100
AcDbLine
 10
250.0
 20
186.45
 30
0.0
 11
250.0
 21
192.95
 31
0.0
  0
LINE
  5
2E4
100
AcDbEntity
  8
0
  6
CONTINUOUS
 62
     7
100
AcDbLine
 10
247.0
 20
193.7
 30
0.0
 11
263.0
 21
193.7
 31
0.0
  0
LINE
  5
2E5
100
AcDbEntity
  8
0
  6
CONTINUOUS
 62
     7
100
AcDbLine
 10
265.0
 20
183.7
 30
0.0
 11
265.0
 21
191.7
 31
0.0
  0
LINE
  5
2E6
100
AcDbEntity
  8
0
  6
CONTINUOUS
 62
     7
100
AcDbLine
 10
245.0
 20
161.0
 30
0.0
 11
245.0
 21
150.3
 31
0.0
  0
LINE
  5
2E7
100
AcDbEntity
  8
0
  6
CONTINUOUS
 62
     7
100
AcDbLine
 10
215.61836
 20
184.0
 30
0.0
 11
215.61836
 21
181.0
 31
0.0
  0
LINE
  5
2E8
100
AcDbEntity
  8
0
  6
CONTINUOUS
 62
     7
100
AcDbLine
 10
204.38164
 20
184.0
 30
0.0
 11
215.61836
 21
184.0
 31
0.0
  0
LINE
  5
2E9
100
AcDbEntity
  8
0
  6
CONTINUOUS
 62
     7
100
AcDbLine
 10
204.38164
 20
187.0
 30
0.0
 11
229.38164
 21
187.0
 31
0.0
  0
LINE
  5
2EA
100
AcDbEntity
  8
0
  6
CENTER
 62
     7
100
AcDbLine
 10
195.0
 20
171.0
 30
0.0
 11
260.0
 21
171.0
 31
0.0
  0
LINE
  5
2EB
100
AcDbEntity
  8
0
  6
CONTINUOUS
 62
     7
100
AcDbLine
 10
215.61836
 20
181.0
 30
0.0
 11
216.5
 21
181.0
 31
0.0
  0
LINE
  5
2EC
100
AcDbEntity
  8
0
  6
CONTINUOUS
 62
     7
100
AcDbLine
 10
229.38164
 20
183.7
 30
0.0
 11
265.0
 21
183.7
 31
0.0
  0
LINE
  5
2ED
100
AcDbEntity
  8
0
  6
CENTER
 62
     7
100
AcDbLine
 10
235.0
 20
192.0
 30
0.0
 11
235.0
 21
150.0
 31
0.0
  0
LINE
  5
2EE
100
AcDbEntity
  8
0
  6
CENTER
 62
     7
100
AcDbLine
 10
210.0
 20
192.0
 30
0.0
 11
210.0
 21
150.0
 31
0.0
  0
LINE
  5
2EF
100
AcDbEntity
  8
0
  6
CONTINUOUS
 62
     7
100
AcDbLine
 10
228.5
 20
181.0
 30
0.0
 11
228.5
 21
161.0
 31
0.0
  0
LINE
  5
2F0
100
AcDbEntity
  8
0
  6
CONTINUOUS
 62
     7
100
AcDbLine
 10
216.5
 20
181.0
 30
0.0
 11
216.5
 21
161.0
 31
0.0
  0
LINE
  5
2F1
100
AcDbEntity
  8
0
  6
CONTINUOUS
 62
     7
100
AcDbLine
 10
215.61836
 20
161.0
 30
0.0
 11
215.61836
 21
158.0
 31
0.0
  0
LINE
  5
2F2
100
AcDbEntity
  8
0
  6
CONTINUOUS
 62
     7
100
AcDbLine
 10
229.38164
 20
158.3
 30
0.0
 11
229.38164
 21
155.0
 31
0.0
  0
LINE
  5
2F3
100
AcDbEntity
  8
0
  6
CONTINUOUS
 62
     7
100
AcDbLine
 10
228.5
 20
181.0
 30
0.0
 11
245.0
 21
181.0
 31
0.0
  0
LINE
  5
2F4
100
AcDbEntity
  8
0
  6
CONTINUOUS
 62
     7
100
AcDbLine
 10
204.38164
 20
155.0
 30
0.0
 11
229.38164
 21
155.0
 31
0.0
  0
LINE
  5
2F5
100
AcDbEntity
  8
0
  6
CONTINUOUS
 62
     7
100
AcDbLine
 10
204.38164
 20
158.0
 30
0.0
 11
215.61836
 21
158.0
 31
0.0
  0
LINE
  5
2F6
100
AcDbEntity
  8
0
  6
CONTINUOUS
 62
     7
100
AcDbLine
 10
215.61836
 20
161.0
 30
0.0
 11
216.5
 21
161.0
 31
0.0
  0
LINE
  5
2F7
100
AcDbEntity
  8
0
  6
CONTINUOUS
 62
     7
100
AcDbLine
 10
229.38164
 20
158.3
 30
0.0
 11
265.0
 21
158.3
 31
0.0
  0
LINE
  5
2F8
100
AcDbEntity
  8
0
  6
CONTINUOUS
 62
     7
100
AcDbLine
 10
228.5
 20
161.0
 30
0.0
 11
245.0
 21
161.0
 31
0.0
  0
LINE
  5
2F9
100
AcDbEntity
  8
0
  6
CONTINUOUS
 62
     7
100
AcDbLine
 10
229.38164
 20
187.0
 30
0.0
 11
229.38164
 21
183.7
 31
0.0
  0
LINE
  5
2FA
100
AcDbEntity
  8
0
  6
CONTINUOUS
 62
     7
100
AcDbLine
 10
229.38164
 20
184.9
 30
0.0
 11
245.0
 21
184.9
 31
0.0
  0
LINE
  5
2FB
100
AcDbEntity
  8
0
  6
CONTINUOUS
 62
     7
100
AcDbLine
 10
229.38164
 20
157.1
 30
0.0
 11
245.0
 21
157.1
 31
0.0
  0
ARC
  5
2FC
100
AcDbEntity
  8
0
  6
CONTINUOUS
 62
     7
100
AcDbCircle
 10
247.0
 20
150.3
 30
0.0
 40
2.0
100
AcDbArc
 50
179.99999
 51
270.0
  0
CIRCLE
  5
2FD
100
AcDbEntity
  8
0
  6
CONTINUOUS
 62
     7
100
AcDbCircle
 10
260.0
 20
189.7
 30
0.0
 40
2.25
  0
ARC
  5
2FE
100
AcDbEntity
  8
0
  6
CONTINUOUS
 62
     7
100
AcDbCircle
 10
263.0
 20
191.7
 30
0.0
 40
2.0
100
AcDbArc
 50
0.0
 51
90.000003
  0
CIRCLE
  5
2FF
100
AcDbEntity
  8
0
  6
CONTINUOUS
 62
     7
100
AcDbCircle
 10
250.0
 20
152.3
 30
0.0
 40
2.25
  0
CIRCLE
  5
300
100
AcDbEntity
  8
0
  6
CONTINUOUS
 62
     7
100
AcDbCircle
 10
250.0
 20
189.7
 30
0.0
 40
2.25
  0
ARC
  5
301
100
AcDbEntity
  8
0
  6
CONTINUOUS
 62
     7
100
AcDbCircle
 10
263.0
 20
150.3
 30
0.0
 40
2.0
100
AcDbArc
 50
270.0
 51
0.0
  0
CIRCLE
  5
302
100
AcDbEntity
  8
0
  6
CONTINUOUS
 62
     7
100
AcDbCircle
 10
260.0
 20
152.3
 30
0.0
 40
2.25
  0
ARC
  5
303
100
AcDbEntity
  8
0
  6
CONTINUOUS
 62
     7
100
AcDbCircle
 10
247.0
 20
191.7
 30
0.0
 40
2.0
100
AcDbArc
 50
90.000003
 51
180.00001
  0
POINT
  5
304
100
AcDbEntity
  8
0
  6
CONTINUOUS
 62
     7
100
AcDbPoint
 10
295.0
 20
216.0
 30
0.0
  0
POINT
  5
305
100
AcDbEntity
  8
0
  6
CONTINUOUS
 62
     7
100
AcDbPoint
 10
332.4
 20
216.0
 30
0.0
  0
LINE
  5
306
100
AcDbEntity
  8
0
  6
CONTINUOUS
 62
     7
100
AcDbLine
 10
329.7
 20
236.0
 30
0.0
 11
329.7
 21
217.2
 31
0.0
  0
LINE
  5
307
100
AcDbEntity
  8
0
  6
CENTER
 62
     7
100
AcDbLine
 10
292.7
 20
226.0
 30
0.0
 11
334.7
 21
226.0
 31
0.0
  0
LINE
  5
308
100
AcDbEntity
  8
0
  6
CONTINUOUS
 62
     7
100
AcDbLine
 10
336.4
 20
217.2
 30
0.0
 11
327.6
 21
217.2
 31
0.0
  0
LINE
  5
309
100
AcDbEntity
  8
0
  6
CONTINUOUS
 62
     7
100
AcDbLine
 10
297.7
 20
236.0
 30
0.0
 11
329.7
 21
236.0
 31
0.0
  0
LINE
  5
30A
100
AcDbEntity
  8
0
  6
CONTINUOUS
 62
     7
100
AcDbLine
 10
326.4
 20
236.0
 30
0.0
 11
326.4
 21
216.0
 31
0.0
  0
LINE
  5
30B
100
AcDbEntity
  8
0
  6
CONTINUOUS
 62
     7
100
AcDbLine
 10
301.0
 20
236.0
 30
0.0
 11
301.0
 21
216.0
 31
0.0
  0
LINE
  5
30C
100
AcDbEntity
  8
0
  6
CONTINUOUS
 62
     7
100
AcDbLine
 10
323.7
 20
236.0
 30
0.0
 11
323.7
 21
216.0
 31
0.0
  0
LINE
  5
30D
100
AcDbEntity
  8
0
  6
CONTINUOUS
 62
     7
100
AcDbLine
 10
299.8
 20
217.2
 30
0.0
 11
299.8
 21
236.0
 31
0.0
  0
LINE
  5
30E
100
AcDbEntity
  8
0
  6
CENTER
 62
     7
100
AcDbLine
 10
332.4
 20
214.0
 30
0.0
 11
332.4
 21
220.7
 31
0.0
  0
LINE
  5
30F
100
AcDbEntity
  8
0
  6
CONTINUOUS
 62
     7
100
AcDbLine
 10
327.6
 20
217.2
 30
0.0
 11
327.6
 21
236.0
 31
0.0
  0
LINE
  5
310
100
AcDbEntity
  8
0
  6
CONTINUOUS
 62
     7
100
AcDbLine
 10
303.7
 20
236.0
 30
0.0
 11
303.7
 21
216.0
 31
0.0
  0
LINE
  5
311
100
AcDbEntity
  8
0
  6
CENTER
 62
     7
100
AcDbLine
 10
313.7
 20
241.0
 30
0.0
 11
313.7
 21
211.0
 31
0.0
  0
LINE
  5
312
100
AcDbEntity
  8
0
  6
CONTINUOUS
 62
     7
100
AcDbLine
 10
297.7
 20
236.0
 30
0.0
 11
297.7
 21
217.2
 31
0.0
  0
LINE
  5
313
100
AcDbEntity
  8
0
  6
CONTINUOUS
 62
     7
100
AcDbLine
 10
291.0
 20
216.0
 30
0.0
 11
336.4
 21
216.0
 31
0.0
  0
LINE
  5
314
100
AcDbEntity
  8
0
  6
CONTINUOUS
 62
     7
100
AcDbLine
 10
336.4
 20
216.0
 30
0.0
 11
336.4
 21
217.2
 31
0.0
  0
LINE
  5
315
100
AcDbEntity
  8
0
  6
CONTINUOUS
 62
     7
100
AcDbLine
 10
303.7
 20
233.7
 30
0.0
 11
323.7
 21
233.7
 31
0.0
  0
LINE
  5
316
100
AcDbEntity
  8
0
  6
CONTINUOUS
 62
     7
100
AcDbLine
 10
303.7
 20
233.0
 30
0.0
 11
323.7
 21
233.0
 31
0.0
  0
LINE
  5
317
100
AcDbEntity
  8
0
  6
CONTINUOUS
 62
     7
100
AcDbLine
 10
303.7
 20
219.0
 30
0.0
 11
323.7
 21
219.0
 31
0.0
  0
LINE
  5
318
100
AcDbEntity
  8
0
  6
CONTINUOUS
 62
     7
100
AcDbLine
 10
291.0
 20
217.2
 30
0.0
 11
299.8
 21
217.2
 31
0.0
  0
LINE
  5
319
100
AcDbEntity
  8
0
  6
CONTINUOUS
 62
     7
100
AcDbLine
 10
291.0
 20
216.0
 30
0.0
 11
291.0
 21
217.2
 31
0.0
  0
LINE
  5
31A
100
AcDbEntity
  8
0
  6
CENTER
 62
     7
100
AcDbLine
 10
295.0
 20
214.0
 30
0.0
 11
295.0
 21
220.7
 31
0.0
  0
POINT
  5
31B
100
AcDbEntity
  8
0
  6
CONTINUOUS
 62
     7
100
AcDbPoint
 10
-300.0
 20
60.0
 30
0.0
  0
POINT
  5
31C
100
AcDbEntity
  8
0
  6
CONTINUOUS
 62
     7
100
AcDbPoint
 10
-285.0
 20
60.0
 30
0.0
  0
LINE
  5
31D
100
AcDbEntity
  8
0
  6
CONTINUOUS
 62
     7
100
AcDbLine
 10
-319.38164
 20
73.0
 30
0.0
 11
-330.61836
 21
73.0
 31
0.0
  0
LINE
  5
31E
100
AcDbEntity
  8
0
  6
CONTINUOUS
 62
     7
100
AcDbLine
 10
-305.61836
 20
47.0
 30
0.0
 11
-305.61836
 21
50.0
 31
0.0
  0
LINE
  5
31F
100
AcDbEntity
  8
0
  6
CONTINUOUS
 62
     7
100
AcDbLine
 10
-294.38164
 20
47.0
 30
0.0
 11
-305.61836
 21
47.0
 31
0.0
  0
LINE
  5
320
100
AcDbEntity
  8
0
  6
CONTINUOUS
 62
     7
100
AcDbLine
 10
-294.38164
 20
44.0
 30
0.0
 11
-319.38164
 21
44.0
 31
0.0
  0
LINE
  5
321
100
AcDbEntity
  8
0
  6
CENTER
 62
     7
100
AcDbLine
 10
-285.0
 20
60.0
 30
0.0
 11
-340.0
 21
60.0
 31
0.0
  0
LINE
  5
322
100
AcDbEntity
  8
0
  6
CONTINUOUS
 62
     7
100
AcDbLine
 10
-305.61836
 20
50.0
 30
0.0
 11
-306.5
 21
50.0
 31
0.0
  0
LINE
  5
323
100
AcDbEntity
  8
0
  6
CENTER
 62
     7
100
AcDbLine
 10
-325.0
 20
39.0
 30
0.0
 11
-325.0
 21
81.0
 31
0.0
  0
LINE
  5
324
100
AcDbEntity
  8
0
  6
CENTER
 62
     7
100
AcDbLine
 10
-300.0
 20
39.0
 30
0.0
 11
-300.0
 21
81.0
 31
0.0
  0
LINE
  5
325
100
AcDbEntity
  8
0
  6
CONTINUOUS
 62
     7
100
AcDbLine
 10
-318.5
 20
50.0
 30
0.0
 11
-318.5
 21
70.0
 31
0.0
  0
LINE
  5
326
100
AcDbEntity
  8
0
  6
CONTINUOUS
 62
     7
100
AcDbLine
 10
-306.5
 20
50.0
 30
0.0
 11
-306.5
 21
70.0
 31
0.0
  0
LINE
  5
327
100
AcDbEntity
  8
0
  6
CONTINUOUS
 62
     7
100
AcDbLine
 10
-305.61836
 20
70.0
 30
0.0
 11
-305.61836
 21
73.0
 31
0.0
  0
LINE
  5
328
100
AcDbEntity
  8
0
  6
CONTINUOUS
 62
     7
100
AcDbLine
 10
-319.38164
 20
73.0
 30
0.0
 11
-319.38164
 21
76.0
 31
0.0
  0
LINE
  5
329
100
AcDbEntity
  8
0
  6
CONTINUOUS
 62
     7
100
AcDbLine
 10
-318.5
 20
50.0
 30
0.0
 11
-330.61836
 21
50.0
 31
0.0
  0
LINE
  5
32A
100
AcDbEntity
  8
0
  6
CONTINUOUS
 62
     7
100
AcDbLine
 10
-294.38164
 20
76.0
 30
0.0
 11
-319.38164
 21
76.0
 31
0.0
  0
LINE
  5
32B
100
AcDbEntity
  8
0
  6
CONTINUOUS
 62
     7
100
AcDbLine
 10
-294.38164
 20
73.0
 30
0.0
 11
-305.61836
 21
73.0
 31
0.0
  0
LINE
  5
32C
100
AcDbEntity
  8
0
  6
CONTINUOUS
 62
     7
100
AcDbLine
 10
-305.61836
 20
70.0
 30
0.0
 11
-306.5
 21
70.0
 31
0.0
  0
LINE
  5
32D
100
AcDbEntity
  8
0
  6
CONTINUOUS
 62
     7
100
AcDbLine
 10
-318.5
 20
70.0
 30
0.0
 11
-330.61836
 21
70.0
 31
0.0
  0
LINE
  5
32E
100
AcDbEntity
  8
0
  6
CONTINUOUS
 62
     7
100
AcDbLine
 10
-319.38164
 20
44.0
 30
0.0
 11
-319.38164
 21
47.0
 31
0.0
  0
LINE
  5
32F
100
AcDbEntity
  8
0
  6
CONTINUOUS
 62
     7
100
AcDbLine
 10
-319.38164
 20
47.0
 30
0.0
 11
-330.61836
 21
47.0
 31
0.0
  0
POINT
  5
330
100
AcDbEntity
  8
0
  6
CONTINUOUS
 62
     7
100
AcDbPoint
 10
-300.0
 20
5.0
 30
0.0
  0
POINT
  5
331
100
AcDbEntity
  8
0
  6
CONTINUOUS
 62
     7
100
AcDbPoint
 10
-287.46
 20
5.0
 30
0.0
  0
LINE
  5
332
100
AcDbEntity
  8
0
  6
CONTINUOUS
 62
     7
100
AcDbLine
 10
-300.0
 20
-5.0
 30
0.0
 11
-325.0
 21
-5.0
 31
0.0
  0
LINE
  5
333
100
AcDbEntity
  8
0
  6
CONTINUOUS
 62
     7
100
AcDbLine
 10
-300.0
 20
15.0
 30
0.0
 11
-325.0
 21
15.0
 31
0.0
  0
LINE
  5
334
100
AcDbEntity
  8
0
  6
CONTINUOUS
 62
     7
100
AcDbLine
 10
-319.30976
 20
14.505166
 30
0.0
 11
-317.01574
 21
11.819204
 31
0.0
  0
LINE
  5
335
100
AcDbEntity
  8
0
  6
CONTINUOUS
 62
     7
100
AcDbLine
 10
-323.0
 20
2.127719
 30
0.0
 11
-323.0
 21
7.872281
 31
0.0
  0
LINE
  5
336
100
AcDbEntity
  8
0
  6
CENTER
 62
     7
100
AcDbLine
 10
-325.0
 20
18.04
 30
0.0
 11
-325.0
 21
-8.04
 31
0.0
  0
LINE
  5
337
100
AcDbEntity
  8
0
  6
CENTER
 62
     7
100
AcDbLine
 10
-338.04
 20
5.0
 30
0.0
 11
-311.96
 21
5.0
 31
0.0
  0
LINE
  5
338
100
AcDbEntity
  8
0
  6
CENTER
 62
     7
100
AcDbLine
 10
-300.0
 20
17.54
 30
0.0
 11
-300.0
 21
-7.54
 31
0.0
  0
LINE
  5
339
100
AcDbEntity
  8
0
  6
CENTER
 62
     7
100
AcDbLine
 10
-312.54
 20
5.0
 30
0.0
 11
-287.46
 21
5.0
 31
0.0
  0
ARC
  5
33A
100
AcDbEntity
  8
0
  6
CONTINUOUS
 62
     7
100
AcDbCircle
 10
-300.0
 20
5.0
 30
0.0
 40
10.0
100
AcDbArc
 50
270.0
 51
90.000003
  0
ARC
  5
33B
100
AcDbEntity
  8
0
  6
CONTINUOUS
 62
     7
100
AcDbCircle
 10
-325.0
 20
5.0
 30
0.0
 40
10.5
100
AcDbArc
 50
296.08429
 51
40.499999
  0
ARC
  5
33C
100
AcDbEntity
  8
0
  6
CONTINUOUS
 62
     7
100
AcDbCircle
 10
-320.25132
 20
-4.7
 30
0.0
 40
0.3
100
AcDbArc
 50
116.0843
 51
270.0
  0
ARC
  5
33D
100
AcDbEntity
  8
0
  6
CONTINUOUS
 62
     7
100
AcDbCircle
 10
-319.08164
 20
14.7
 30
0.0
 40
0.3
100
AcDbArc
 50
90.000003
 51
220.49999
  0
CIRCLE
  5
33E
100
AcDbEntity
  8
0
  6
CONTINUOUS
 62
     7
100
AcDbCircle
 10
-325.0
 20
5.0
 30
0.0
 40
3.5
  0
POINT
  5
33F
100
AcDbEntity
  8
0
  6
CONTINUOUS
 62
     7
100
AcDbPoint
 10
-300.0
 20
-50.0
 30
0.0
  0
POINT
  5
340
100
AcDbEntity
  8
0
  6
CONTINUOUS
 62
     7
100
AcDbPoint
 10
-285.0
 20
-50.0
 30
0.0
  0
LINE
  5
341
100
AcDbEntity
  8
0
  6
CONTINUOUS
 62
     7
100
AcDbLine
 10
-320.55132
 20
-66.0
 30
0.0
 11
-320.55132
 21
-63.0
 31
0.0
  0
LINE
  5
342
100
AcDbEntity
  8
0
  6
CONTINUOUS
 62
     7
100
AcDbLine
 10
-306.5
 20
-60.0
 30
0.0
 11
-306.5
 21
-40.0
 31
0.0
  0
LINE
  5
343
100
AcDbEntity
  8
0
  6
CONTINUOUS
 62
     7
100
AcDbLine
 10
-318.5
 20
-60.0
 30
0.0
 11
-318.5
 21
-40.0
 31
0.0
  0
LINE
  5
344
100
AcDbEntity
  8
0
  6
CENTER
 62
     7
100
AcDbLine
 10
-300.0
 20
-71.0
 30
0.0
 11
-300.0
 21
-29.0
 31
0.0
  0
LINE
  5
345
100
AcDbEntity
  8
0
  6
CENTER
 62
     7
100
AcDbLine
 10
-325.0
 20
-71.0
 30
0.0
 11
-325.0
 21
-29.0
 31
0.0
  0
LINE
  5
346
100
AcDbEntity
  8
0
  6
CONTINUOUS
 62
     7
100
AcDbLine
 10
-304.44868
 20
-60.0
 30
0.0
 11
-309.5
 21
-60.0
 31
0.0
  0
LINE
  5
347
100
AcDbEntity
  8
0
  6
CONTINUOUS
 62
     7
100
AcDbLine
 10
-295.55132
 20
-63.0
 30
0.0
 11
-304.44868
 21
-63.0
 31
0.0
  0
LINE
  5
348
100
AcDbEntity
  8
0
  6
CENTER
 62
     7
100
AcDbLine
 10
-285.0
 20
-50.0
 30
0.0
 11
-340.0
 21
-50.0
 31
0.0
  0
LINE
  5
349
100
AcDbEntity
  8
0
  6
CONTINUOUS
 62
     7
100
AcDbLine
 10
-295.55132
 20
-66.0
 30
0.0
 11
-320.55132
 21
-66.0
 31
0.0
  0
LINE
  5
34A
100
AcDbEntity
  8
0
  6
CONTINUOUS
 62
     7
100
AcDbLine
 10
-304.44868
 20
-63.0
 30
0.0
 11
-304.44868
 21
-60.0
 31
0.0
  0
LINE
  5
34B
100
AcDbEntity
  8
0
  6
CONTINUOUS
 62
     7
100
AcDbLine
 10
-315.5
 20
-60.0
 30
0.0
 11
-329.44868
 21
-60.0
 31
0.0
  0
LINE
  5
34C
100
AcDbEntity
  8
0
  6
CONTINUOUS
 62
     7
100
AcDbLine
 10
-295.55132
 20
-34.0
 30
0.0
 11
-320.55132
 21
-34.0
 31
0.0
  0
LINE
  5
34D
100
AcDbEntity
  8
0
  6
CONTINUOUS
 62
     7
100
AcDbLine
 10
-309.5
 20
-65.1
 30
0.0
 11
-315.5
 21
-65.1
 31
0.0
  0
LINE
  5
34E
100
AcDbEntity
  8
0
  6
CONTINUOUS
 62
     7
100
AcDbLine
 10
-309.5
 20
-65.1
 30
0.0
 11
-309.5
 21
-60.0
 31
0.0
  0
LINE
  5
34F
100
AcDbEntity
  8
0
  6
CONTINUOUS
 62
     7
100
AcDbLine
 10
-315.5
 20
-65.1
 30
0.0
 11
-315.5
 21
-60.0
 31
0.0
  0
LINE
  5
350
100
AcDbEntity
  8
0
  6
CONTINUOUS
 62
     7
100
AcDbLine
 10
-307.5
 20
-60.0
 30
0.0
 11
-307.5
 21
-40.0
 31
0.0
  0
LINE
  5
351
100
AcDbEntity
  8
0
  6
CONTINUOUS
 62
     7
100
AcDbLine
 10
-317.5
 20
-60.0
 30
0.0
 11
-317.5
 21
-40.0
 31
0.0
  0
LINE
  5
352
100
AcDbEntity
  8
0
  6
CONTINUOUS
 62
     7
100
AcDbLine
 10
-309.5
 20
-64.5
 30
0.0
 11
-315.5
 21
-64.5
 31
0.0
  0
LINE
  5
353
100
AcDbEntity
  8
0
  6
CONTINUOUS
 62
     7
100
AcDbLine
 10
-295.55132
 20
-37.0
 30
0.0
 11
-304.44868
 21
-37.0
 31
0.0
  0
LINE
  5
354
100
AcDbEntity
  8
0
  6
CONTINUOUS
 62
     7
100
AcDbLine
 10
-304.44868
 20
-40.0
 30
0.0
 11
-309.5
 21
-40.0
 31
0.0
  0
LINE
  5
355
100
AcDbEntity
  8
0
  6
CONTINUOUS
 62
     7
100
AcDbLine
 10
-320.55132
 20
-34.0
 30
0.0
 11
-320.55132
 21
-37.0
 31
0.0
  0
LINE
  5
356
100
AcDbEntity
  8
0
  6
CONTINUOUS
 62
     7
100
AcDbLine
 10
-304.44868
 20
-37.0
 30
0.0
 11
-304.44868
 21
-40.0
 31
0.0
  0
LINE
  5
357
100
AcDbEntity
  8
0
  6
CONTINUOUS
 62
     7
100
AcDbLine
 10
-309.5
 20
-34.9
 30
0.0
 11
-315.5
 21
-34.9
 31
0.0
  0
LINE
  5
358
100
AcDbEntity
  8
0
  6
CONTINUOUS
 62
     7
100
AcDbLine
 10
-309.5
 20
-34.9
 30
0.0
 11
-309.5
 21
-40.0
 31
0.0
  0
LINE
  5
359
100
AcDbEntity
  8
0
  6
CONTINUOUS
 62
     7
100
AcDbLine
 10
-315.5
 20
-34.9
 30
0.0
 11
-315.5
 21
-40.0
 31
0.0
  0
LINE
  5
35A
100
AcDbEntity
  8
0
  6
CONTINUOUS
 62
     7
100
AcDbLine
 10
-309.5
 20
-35.5
 30
0.0
 11
-315.5
 21
-35.5
 31
0.0
  0
LINE
  5
35B
100
AcDbEntity
  8
0
  6
CENTER
 62
     7
100
AcDbLine
 10
-307.5
 20
-37.2
 30
0.0
 11
-317.5
 21
-37.2
 31
0.0
  0
LINE
  5
35C
100
AcDbEntity
  8
0
  6
CENTER
 62
     7
100
AcDbLine
 10
-307.5
 20
-62.8
 30
0.0
 11
-317.5
 21
-62.8
 31
0.0
  0
LINE
  5
35D
100
AcDbEntity
  8
0
  6
CONTINUOUS
 62
     7
100
AcDbLine
 10
-315.5
 20
-40.0
 30
0.0
 11
-329.44868
 21
-40.0
 31
0.0
  0
LINE
  5
35E
100
AcDbEntity
  8
0
  6
CONTINUOUS
 62
     7
100
AcDbLine
 10
-320.55132
 20
-63.0
 30
0.0
 11
-329.44868
 21
-63.0
 31
0.0
  0
LINE
  5
35F
100
AcDbEntity
  8
0
  6
CONTINUOUS
 62
     7
100
AcDbLine
 10
-320.55132
 20
-37.0
 30
0.0
 11
-329.44868
 21
-37.0
 31
0.0
  0
POINT
  5
360
100
AcDbEntity
  8
0
  6
CONTINUOUS
 62
     7
100
AcDbPoint
 10
-210.0
 20
53.0
 30
0.0
  0
POINT
  5
361
100
AcDbEntity
  8
0
  6
CONTINUOUS
 62
     7
100
AcDbPoint
 10
-200.0
 20
53.0
 30
0.0
  0
LINE
  5
362
100
AcDbEntity
  8
0
  6
CONTINUOUS
 62
     7
100
AcDbLine
 10
-244.38164
 20
73.0
 30
0.0
 11
-255.61836
 21
73.0
 31
0.0
  0
LINE
  5
363
100
AcDbEntity
  8
0
  6
CONTINUOUS
 62
     7
100
AcDbLine
 10
-230.61836
 20
47.0
 30
0.0
 11
-230.61836
 21
50.0
 31
0.0
  0
LINE
  5
364
100
AcDbEntity
  8
0
  6
CONTINUOUS
 62
     7
100
AcDbLine
 10
-215.0
 20
44.0
 30
0.0
 11
-244.38164
 21
44.0
 31
0.0
  0
LINE
  5
365
100
AcDbEntity
  8
0
  6
CENTER
 62
     7
100
AcDbLine
 10
-200.0
 20
60.0
 30
0.0
 11
-265.0
 21
60.0
 31
0.0
  0
LINE
  5
366
100
AcDbEntity
  8
0
  6
CONTINUOUS
 62
     7
100
AcDbLine
 10
-230.61836
 20
50.0
 30
0.0
 11
-231.5
 21
50.0
 31
0.0
  0
LINE
  5
367
100
AcDbEntity
  8
0
  6
CENTER
 62
     7
100
AcDbLine
 10
-250.0
 20
39.0
 30
0.0
 11
-250.0
 21
81.0
 31
0.0
  0
LINE
  5
368
100
AcDbEntity
  8
0
  6
CENTER
 62
     7
100
AcDbLine
 10
-225.0
 20
39.0
 30
0.0
 11
-225.0
 21
81.0
 31
0.0
  0
LINE
  5
369
100
AcDbEntity
  8
0
  6
CONTINUOUS
 62
     7
100
AcDbLine
 10
-243.5
 20
50.0
 30
0.0
 11
-243.5
 21
70.0
 31
0.0
  0
LINE
  5
36A
100
AcDbEntity
  8
0
  6
CONTINUOUS
 62
     7
100
AcDbLine
 10
-231.5
 20
50.0
 30
0.0
 11
-231.5
 21
70.0
 31
0.0
  0
LINE
  5
36B
100
AcDbEntity
  8
0
  6
CONTINUOUS
 62
     7
100
AcDbLine
 10
-230.61836
 20
70.0
 30
0.0
 11
-230.61836
 21
73.0
 31
0.0
  0
LINE
  5
36C
100
AcDbEntity
  8
0
  6
CONTINUOUS
 62
     7
100
AcDbLine
 10
-244.38164
 20
73.0
 30
0.0
 11
-244.38164
 21
76.0
 31
0.0
  0
LINE
  5
36D
100
AcDbEntity
  8
0
  6
CONTINUOUS
 62
     7
100
AcDbLine
 10
-243.5
 20
50.0
 30
0.0
 11
-255.61836
 21
50.0
 31
0.0
  0
LINE
  5
36E
100
AcDbEntity
  8
0
  6
CONTINUOUS
 62
     7
100
AcDbLine
 10
-215.0
 20
76.0
 30
0.0
 11
-244.38164
 21
76.0
 31
0.0
  0
LINE
  5
36F
100
AcDbEntity
  8
0
  6
CONTINUOUS
 62
     7
100
AcDbLine
 10
-195.0
 20
73.0
 30
0.0
 11
-230.61836
 21
73.0
 31
0.0
  0
LINE
  5
370
100
AcDbEntity
  8
0
  6
CONTINUOUS
 62
     7
100
AcDbLine
 10
-230.61836
 20
70.0
 30
0.0
 11
-231.5
 21
70.0
 31
0.0
  0
LINE
  5
371
100
AcDbEntity
  8
0
  6
CONTINUOUS
 62
     7
100
AcDbLine
 10
-243.5
 20
70.0
 30
0.0
 11
-255.61836
 21
70.0
 31
0.0
  0
LINE
  5
372
100
AcDbEntity
  8
0
  6
CONTINUOUS
 62
     7
100
AcDbLine
 10
-244.38164
 20
44.0
 30
0.0
 11
-244.38164
 21
47.0
 31
0.0
  0
LINE
  5
373
100
AcDbEntity
  8
0
  6
CONTINUOUS
 62
     7
100
AcDbLine
 10
-244.38164
 20
47.0
 30
0.0
 11
-255.61836
 21
47.0
 31
0.0
  0
LINE
  5
374
100
AcDbEntity
  8
0
  6
CONTINUOUS
 62
     7
100
AcDbLine
 10
-195.0
 20
71.799999
 30
0.0
 11
-230.61836
 21
71.799999
 31
0.0
  0
LINE
  5
375
100
AcDbEntity
  8
0
  6
CONTINUOUS
 62
     7
100
AcDbLine
 10
-197.0
 20
63.0
 30
0.0
 11
-213.0
 21
63.0
 31
0.0
  0
LINE
  5
376
100
AcDbEntity
  8
0
  6
CENTER
 62
     7
100
AcDbLine
 10
-200.0
 20
70.25
 30
0.0
 11
-200.0
 21
63.75
 31
0.0
  0
LINE
  5
377
100
AcDbEntity
  8
0
  6
CONTINUOUS
 62
     7
100
AcDbLine
 10
-195.0
 20
65.0
 30
0.0
 11
-195.0
 21
73.0
 31
0.0
  0
LINE
  5
378
100
AcDbEntity
  8
0
  6
CENTER
 62
     7
100
AcDbLine
 10
-210.0
 20
70.25
 30
0.0
 11
-210.0
 21
63.75
 31
0.0
  0
LINE
  5
379
100
AcDbEntity
  8
0
  6
CENTER
 62
     7
100
AcDbLine
 10
-213.25
 20
67.0
 30
0.0
 11
-206.75
 21
67.0
 31
0.0
  0
LINE
  5
37A
100
AcDbEntity
  8
0
  6
CONTINUOUS
 62
     7
100
AcDbLine
 10
-215.0
 20
65.0
 30
0.0
 11
-215.0
 21
71.799999
 31
0.0
  0
LINE
  5
37B
100
AcDbEntity
  8
0
  6
CONTINUOUS
 62
     7
100
AcDbLine
 10
-215.0
 20
73.0
 30
0.0
 11
-215.0
 21
76.0
 31
0.0
  0
LINE
  5
37C
100
AcDbEntity
  8
0
  6
CONTINUOUS
 62
     7
100
AcDbLine
 10
-195.0
 20
48.2
 30
0.0
 11
-230.61836
 21
48.2
 31
0.0
  0
LINE
  5
37D
100
AcDbEntity
  8
0
  6
CENTER
 62
     7
100
AcDbLine
 10
-203.25
 20
67.0
 30
0.0
 11
-196.75
 21
67.0
 31
0.0
  0
LINE
  5
37E
100
AcDbEntity
  8
0
  6
CONTINUOUS
 62
     7
100
AcDbLine
 10
-197.0
 20
57.0
 30
0.0
 11
-213.0
 21
57.0
 31
0.0
  0
LINE
  5
37F
100
AcDbEntity
  8
0
  6
CONTINUOUS
 62
     7
100
AcDbLine
 10
-195.0
 20
47.0
 30
0.0
 11
-230.61836
 21
47.0
 31
0.0
  0
LINE
  5
380
100
AcDbEntity
  8
0
  6
CENTER
 62
     7
100
AcDbLine
 10
-200.0
 20
49.75
 30
0.0
 11
-200.0
 21
56.25
 31
0.0
  0
LINE
  5
381
100
AcDbEntity
  8
0
  6
CONTINUOUS
 62
     7
100
AcDbLine
 10
-195.0
 20
55.0
 30
0.0
 11
-195.0
 21
47.0
 31
0.0
  0
LINE
  5
382
100
AcDbEntity
  8
0
  6
CENTER
 62
     7
100
AcDbLine
 10
-210.0
 20
49.75
 30
0.0
 11
-210.0
 21
56.25
 31
0.0
  0
LINE
  5
383
100
AcDbEntity
  8
0
  6
CENTER
 62
     7
100
AcDbLine
 10
-213.25
 20
53.0
 30
0.0
 11
-206.75
 21
53.0
 31
0.0
  0
LINE
  5
384
100
AcDbEntity
  8
0
  6
CONTINUOUS
 62
     7
100
AcDbLine
 10
-215.0
 20
55.0
 30
0.0
 11
-215.0
 21
48.2
 31
0.0
  0
LINE
  5
385
100
AcDbEntity
  8
0
  6
CONTINUOUS
 62
     7
100
AcDbLine
 10
-215.0
 20
47.0
 30
0.0
 11
-215.0
 21
44.0
 31
0.0
  0
LINE
  5
386
100
AcDbEntity
  8
0
  6
CENTER
 62
     7
100
AcDbLine
 10
-203.25
 20
53.0
 30
0.0
 11
-196.75
 21
53.0
 31
0.0
  0
ARC
  5
387
100
AcDbEntity
  8
0
  6
CONTINUOUS
 62
     7
100
AcDbCircle
 10
-213.0
 20
65.0
 30
0.0
 40
2.0
100
AcDbArc
 50
179.99999
 51
270.0
  0
ARC
  5
388
100
AcDbEntity
  8
0
  6
CONTINUOUS
 62
     7
100
AcDbCircle
 10
-197.0
 20
65.0
 30
0.0
 40
2.0
100
AcDbArc
 50
270.0
 51
0.0
  0
CIRCLE
  5
389
100
AcDbEntity
  8
0
  6
CONTINUOUS
 62
     7
100
AcDbCircle
 10
-210.0
 20
67.0
 30
0.0
 40
2.25
  0
CIRCLE
  5
38A
100
AcDbEntity
  8
0
  6
CONTINUOUS
 62
     7
100
AcDbCircle
 10
-200.0
 20
67.0
 30
0.0
 40
2.25
  0
ARC
  5
38B
100
AcDbEntity
  8
0
  6
CONTINUOUS
 62
     7
100
AcDbCircle
 10
-213.0
 20
55.0
 30
0.0
 40
2.0
100
AcDbArc
 50
90.000003
 51
180.00001
  0
ARC
  5
38C
100
AcDbEntity
  8
0
  6
CONTINUOUS
 62
     7
100
AcDbCircle
 10
-197.0
 20
55.0
 30
0.0
 40
2.0
100
AcDbArc
 50
0.0
 51
90.000003
  0
CIRCLE
  5
38D
100
AcDbEntity
  8
0
  6
CONTINUOUS
 62
     7
100
AcDbCircle
 10
-210.0
 20
53.0
 30
0.0
 40
2.25
  0
CIRCLE
  5
38E
100
AcDbEntity
  8
0
  6
CONTINUOUS
 62
     7
100
AcDbCircle
 10
-200.0
 20
53.0
 30
0.0
 40
2.25
  0
POINT
  5
38F
100
AcDbEntity
  8
0
  6
CONTINUOUS
 62
     7
100
AcDbPoint
 10
-210.0
 20
-5.0
 30
0.0
  0
POINT
  5
390
100
AcDbEntity
  8
0
  6
CONTINUOUS
 62
     7
100
AcDbPoint
 10
-200.0
 20
-5.0
 30
0.0
  0
LINE
  5
391
100
AcDbEntity
  8
0
  6
CONTINUOUS
 62
     7
100
AcDbLine
 10
-195.0
 20
-5.0
 30
0.0
 11
-215.0
 21
-5.0
 31
0.0
  0
LINE
  5
392
100
AcDbEntity
  8
0
  6
CENTER
 62
     7
100
AcDbLine
 10
-256.04
 20
5.0
 30
0.0
 11
-243.96
 21
5.0
 31
0.0
  0
LINE
  5
393
100
AcDbEntity
  8
0
  6
CENTER
 62
     7
100
AcDbLine
 10
-231.04
 20
5.0
 30
0.0
 11
-218.96
 21
5.0
 31
0.0
  0
LINE
  5
394
100
AcDbEntity
  8
0
  6
CENTER
 62
     7
100
AcDbLine
 10
-225.0
 20
-1.04
 30
0.0
 11
-225.0
 21
11.040001
 31
0.0
  0
LINE
  5
395
100
AcDbEntity
  8
0
  6
CONTINUOUS
 62
     7
100
AcDbLine
 10
-225.0
 20
15.0
 30
0.0
 11
-250.0
 21
15.0
 31
0.0
  0
LINE
  5
396
100
AcDbEntity
  8
0
  6
CONTINUOUS
 62
     7
100
AcDbLine
 10
-244.30976
 20
14.505165
 30
0.0
 11
-242.01574
 21
11.819204
 31
0.0
  0
LINE
  5
397
100
AcDbEntity
  8
0
  6
CONTINUOUS
 62
     7
100
AcDbLine
 10
-248.0
 20
2.127718
 30
0.0
 11
-248.0
 21
7.872281
 31
0.0
  0
LINE
  5
398
100
AcDbEntity
  8
0
  6
CENTER
 62
     7
100
AcDbLine
 10
-250.0
 20
-1.04
 30
0.0
 11
-250.0
 21
11.040001
 31
0.0
  0
LINE
  5
399
100
AcDbEntity
  8
0
  6
DASHED
 62
     7
100
AcDbLine
 10
-215.0
 20
-3.799999
 30
0.0
 11
-215.0
 21
-4.999996
 31
0.0
  0
LINE
  5
39A
100
AcDbEntity
  8
0
  6
DASHED
 62
     7
100
AcDbLine
 10
-195.0
 20
-3.799999
 30
0.0
 11
-215.0
 21
-3.799999
 31
0.0
  0
LINE
  5
39B
100
AcDbEntity
  8
0
  6
CENTER
 62
     7
100
AcDbLine
 10
-210.0
 20
-5.959198
 30
0.0
 11
-210.0
 21
-3.012596
 31
0.0
  0
LINE
  5
39C
100
AcDbEntity
  8
0
  6
CONTINUOUS
 62
     7
100
AcDbLine
 10
-195.0
 20
-4.999996
 30
0.0
 11
-195.0
 21
-2.070698
 31
0.0
  0
LINE
  5
39D
100
AcDbEntity
  8
0
  6
CONTINUOUS
 62
     7
100
AcDbLine
 10
-197.73901
 20
2.388696
 30
0.0
 11
-220.47701
 21
13.91889
 31
0.0
  0
LINE
  5
39E
100
AcDbEntity
  8
0
  6
CENTER
 62
     7
100
AcDbLine
 10
-200.0
 20
-5.959198
 30
0.0
 11
-200.0
 21
-3.012596
 31
0.0
  0
LINE
  5
39F
100
AcDbEntity
  8
0
  6
CONTINUOUS
 62
     7
100
AcDbLine
 10
-218.0
 20
-5.0
 30
0.0
 11
-250.0
 21
-5.0
 31
0.0
  0
ARC
  5
3A0
100
AcDbEntity
  8
0
  6
CONTINUOUS
 62
     7
100
AcDbCircle
 10
-225.0
 20
5.0
 30
0.0
 40
10.0
100
AcDbArc
 50
270.0
 51
90.000003
  0
ARC
  5
3A1
100
AcDbEntity
  8
0
  6
CONTINUOUS
 62
     7
100
AcDbCircle
 10
-250.0
 20
5.0
 30
0.0
 40
10.5
100
AcDbArc
 50
296.08429
 51
40.499999
  0
ARC
  5
3A2
100
AcDbEntity
  8
0
  6
CONTINUOUS
 62
     7
100
AcDbCircle
 10
-245.25132
 20
-4.7
 30
0.0
 40
0.3
100
AcDbArc
 50
116.0843
 51
270.0
  0
ARC
  5
3A3
100
AcDbEntity
  8
0
  6
CONTINUOUS
 62
     7
100
AcDbCircle
 10
-244.08164
 20
14.700001
 30
0.0
 40
0.3
100
AcDbArc
 50
90.000003
 51
220.49999
  0
CIRCLE
  5
3A4
100
AcDbEntity
  8
0
  6
CONTINUOUS
 62
     7
100
AcDbCircle
 10
-250.0
 20
5.0
 30
0.0
 40
3.5
  0
CIRCLE
  5
3A5
100
AcDbEntity
  8
0
  6
CONTINUOUS
 62
     7
100
AcDbCircle
 10
-225.0
 20
5.0
 30
0.0
 40
3.5
  0
ARC
  5
3A6
100
AcDbEntity
  8
0
  6
CONTINUOUS
 62
     7
100
AcDbCircle
 10
-216.5
 20
-4.999996
 30
0.0
 40
1.5
100
AcDbArc
 50
0.0
 51
180.00001
  0
ARC
  5
3A7
100
AcDbEntity
  8
0
  6
CONTINUOUS
 62
     7
100
AcDbCircle
 10
-200.0
 20
-2.070698
 30
0.0
 40
5.0
100
AcDbArc
 50
0.0
 51
63.111699
  0
POINT
  5
3A8
100
AcDbEntity
  8
0
  6
CONTINUOUS
 62
     7
100
AcDbPoint
 10
-210.0
 20
-43.0
 30
0.0
  0
POINT
  5
3A9
100
AcDbEntity
  8
0
  6
CONTINUOUS
 62
     7
100
AcDbPoint
 10
-200.0
 20
-43.0
 30
0.0
  0
LINE
  5
3AA
100
AcDbEntity
  8
0
  6
CONTINUOUS
 62
     7
100
AcDbLine
 10
-245.55132
 20
-66.0
 30
0.0
 11
-245.55132
 21
-63.0
 31
0.0
  0
LINE
  5
3AB
100
AcDbEntity
  8
0
  6
CONTINUOUS
 62
     7
100
AcDbLine
 10
-231.5
 20
-60.0
 30
0.0
 11
-231.5
 21
-40.0
 31
0.0
  0
LINE
  5
3AC
100
AcDbEntity
  8
0
  6
CONTINUOUS
 62
     7
100
AcDbLine
 10
-243.5
 20
-60.0
 30
0.0
 11
-243.5
 21
-40.0
 31
0.0
  0
LINE
  5
3AD
100
AcDbEntity
  8
0
  6
CENTER
 62
     7
100
AcDbLine
 10
-225.0
 20
-71.0
 30
0.0
 11
-225.0
 21
-29.0
 31
0.0
  0
LINE
  5
3AE
100
AcDbEntity
  8
0
  6
CENTER
 62
     7
100
AcDbLine
 10
-250.0
 20
-71.0
 30
0.0
 11
-250.0
 21
-29.0
 31
0.0
  0
LINE
  5
3AF
100
AcDbEntity
  8
0
  6
CONTINUOUS
 62
     7
100
AcDbLine
 10
-229.44868
 20
-60.0
 30
0.0
 11
-234.5
 21
-60.0
 31
0.0
  0
LINE
  5
3B0
100
AcDbEntity
  8
0
  6
CONTINUOUS
 62
     7
100
AcDbLine
 10
-195.0
 20
-63.0
 30
0.0
 11
-229.44868
 21
-63.0
 31
0.0
  0
LINE
  5
3B1
100
AcDbEntity
  8
0
  6
CENTER
 62
     7
100
AcDbLine
 10
-200.0
 20
-50.0
 30
0.0
 11
-265.0
 21
-50.0
 31
0.0
  0
LINE
  5
3B2
100
AcDbEntity
  8
0
  6
CONTINUOUS
 62
     7
100
AcDbLine
 10
-215.0
 20
-66.0
 30
0.0
 11
-245.55132
 21
-66.0
 31
0.0
  0
LINE
  5
3B3
100
AcDbEntity
  8
0
  6
CONTINUOUS
 62
     7
100
AcDbLine
 10
-229.44868
 20
-63.0
 30
0.0
 11
-229.44868
 21
-60.0
 31
0.0
  0
LINE
  5
3B4
100
AcDbEntity
  8
0
  6
CONTINUOUS
 62
     7
100
AcDbLine
 10
-240.5
 20
-60.0
 30
0.0
 11
-254.44868
 21
-60.0
 31
0.0
  0
LINE
  5
3B5
100
AcDbEntity
  8
0
  6
CONTINUOUS
 62
     7
100
AcDbLine
 10
-215.0
 20
-34.0
 30
0.0
 11
-245.55132
 21
-34.0
 31
0.0
  0
LINE
  5
3B6
100
AcDbEntity
  8
0
  6
CONTINUOUS
 62
     7
100
AcDbLine
 10
-234.5
 20
-65.1
 30
0.0
 11
-240.5
 21
-65.1
 31
0.0
  0
LINE
  5
3B7
100
AcDbEntity
  8
0
  6
CONTINUOUS
 62
     7
100
AcDbLine
 10
-240.5
 20
-65.1
 30
0.0
 11
-240.5
 21
-60.0
 31
0.0
  0
LINE
  5
3B8
100
AcDbEntity
  8
0
  6
CONTINUOUS
 62
     7
100
AcDbLine
 10
-232.5
 20
-60.0
 30
0.0
 11
-232.5
 21
-40.0
 31
0.0
  0
LINE
  5
3B9
100
AcDbEntity
  8
0
  6
CONTINUOUS
 62
     7
100
AcDbLine
 10
-242.5
 20
-60.0
 30
0.0
 11
-242.5
 21
-40.0
 31
0.0
  0
LINE
  5
3BA
100
AcDbEntity
  8
0
  6
CONTINUOUS
 62
     7
100
AcDbLine
 10
-234.5
 20
-64.5
 30
0.0
 11
-240.5
 21
-64.5
 31
0.0
  0
LINE
  5
3BB
100
AcDbEntity
  8
0
  6
CONTINUOUS
 62
     7
100
AcDbLine
 10
-195.0
 20
-37.0
 30
0.0
 11
-229.44868
 21
-37.0
 31
0.0
  0
LINE
  5
3BC
100
AcDbEntity
  8
0
  6
CONTINUOUS
 62
     7
100
AcDbLine
 10
-229.44868
 20
-40.0
 30
0.0
 11
-234.5
 21
-40.0
 31
0.0
  0
LINE
  5
3BD
100
AcDbEntity
  8
0
  6
CENTER
 62
     7
100
AcDbLine
 10
-213.25
 20
-43.0
 30
0.0
 11
-206.75
 21
-43.0
 31
0.0
  0
LINE
  5
3BE
100
AcDbEntity
  8
0
  6
CONTINUOUS
 62
     7
100
AcDbLine
 10
-245.55132
 20
-34.0
 30
0.0
 11
-245.55132
 21
-37.0
 31
0.0
  0
LINE
  5
3BF
100
AcDbEntity
  8
0
  6
CONTINUOUS
 62
     7
100
AcDbLine
 10
-229.44868
 20
-37.0
 30
0.0
 11
-229.44868
 21
-40.0
 31
0.0
  0
LINE
  5
3C0
100
AcDbEntity
  8
0
  6
CONTINUOUS
 62
     7
100
AcDbLine
 10
-234.5
 20
-34.9
 30
0.0
 11
-240.5
 21
-34.9
 31
0.0
  0
LINE
  5
3C1
100
AcDbEntity
  8
0
  6
CONTINUOUS
 62
     7
100
AcDbLine
 10
-234.5
 20
-34.9
 30
0.0
 11
-234.5
 21
-40.0
 31
0.0
  0
LINE
  5
3C2
100
AcDbEntity
  8
0
  6
CONTINUOUS
 62
     7
100
AcDbLine
 10
-240.5
 20
-34.9
 30
0.0
 11
-240.5
 21
-40.0
 31
0.0
  0
LINE
  5
3C3
100
AcDbEntity
  8
0
  6
CONTINUOUS
 62
     7
100
AcDbLine
 10
-234.5
 20
-35.5
 30
0.0
 11
-240.5
 21
-35.5
 31
0.0
  0
LINE
  5
3C4
100
AcDbEntity
  8
0
  6
CENTER
 62
     7
100
AcDbLine
 10
-232.5
 20
-37.2
 30
0.0
 11
-242.5
 21
-37.2
 31
0.0
  0
LINE
  5
3C5
100
AcDbEntity
  8
0
  6
CENTER
 62
     7
100
AcDbLine
 10
-232.5
 20
-62.799999
 30
0.0
 11
-242.5
 21
-62.799999
 31
0.0
  0
LINE
  5
3C6
100
AcDbEntity
  8
0
  6
CONTINUOUS
 62
     7
100
AcDbLine
 10
-240.5
 20
-40.0
 30
0.0
 11
-254.44868
 21
-40.0
 31
0.0
  0
LINE
  5
3C7
100
AcDbEntity
  8
0
  6
CONTINUOUS
 62
     7
100
AcDbLine
 10
-245.55132
 20
-63.0
 30
0.0
 11
-254.44868
 21
-63.0
 31
0.0
  0
LINE
  5
3C8
100
AcDbEntity
  8
0
  6
CONTINUOUS
 62
     7
100
AcDbLine
 10
-245.55132
 20
-37.0
 30
0.0
 11
-254.44868
 21
-37.0
 31
0.0
  0
LINE
  5
3C9
100
AcDbEntity
  8
0
  6
CENTER
 62
     7
100
AcDbLine
 10
-210.0
 20
-39.75
 30
0.0
 11
-210.0
 21
-46.25
 31
0.0
  0
LINE
  5
3CA
100
AcDbEntity
  8
0
  6
CONTINUOUS
 62
     7
100
AcDbLine
 10
-195.0
 20
-45.0
 30
0.0
 11
-195.0
 21
-37.0
 31
0.0
  0
LINE
  5
3CB
100
AcDbEntity
  8
0
  6
CENTER
 62
     7
100
AcDbLine
 10
-200.0
 20
-39.75
 30
0.0
 11
-200.0
 21
-46.25
 31
0.0
  0
LINE
  5
3CC
100
AcDbEntity
  8
0
  6
CONTINUOUS
 62
     7
100
AcDbLine
 10
-197.0
 20
-47.0
 30
0.0
 11
-213.0
 21
-47.0
 31
0.0
  0
LINE
  5
3CD
100
AcDbEntity
  8
0
  6
CONTINUOUS
 62
     7
100
AcDbLine
 10
-215.0
 20
-38.2
 30
0.0
 11
-229.44868
 21
-38.2
 31
0.0
  0
LINE
  5
3CE
100
AcDbEntity
  8
0
  6
CONTINUOUS
 62
     7
100
AcDbLine
 10
-215.0
 20
-45.0
 30
0.0
 11
-215.0
 21
-34.0
 31
0.0
  0
LINE
  5
3CF
100
AcDbEntity
  8
0
  6
CONTINUOUS
 62
     7
100
AcDbLine
 10
-215.0
 20
-61.799999
 30
0.0
 11
-229.44868
 21
-61.799999
 31
0.0
  0
LINE
  5
3D0
100
AcDbEntity
  8
0
  6
CENTER
 62
     7
100
AcDbLine
 10
-203.25
 20
-43.0
 30
0.0
 11
-196.75
 21
-43.0
 31
0.0
  0
LINE
  5
3D1
100
AcDbEntity
  8
0
  6
CONTINUOUS
 62
     7
100
AcDbLine
 10
-197.0
 20
-53.0
 30
0.0
 11
-213.0
 21
-53.0
 31
0.0
  0
LINE
  5
3D2
100
AcDbEntity
  8
0
  6
CENTER
 62
     7
100
AcDbLine
 10
-200.0
 20
-60.25
 30
0.0
 11
-200.0
 21
-53.75
 31
0.0
  0
LINE
  5
3D3
100
AcDbEntity
  8
0
  6
CONTINUOUS
 62
     7
100
AcDbLine
 10
-195.0
 20
-55.0
 30
0.0
 11
-195.0
 21
-63.0
 31
0.0
  0
LINE
  5
3D4
100
AcDbEntity
  8
0
  6
CENTER
 62
     7
100
AcDbLine
 10
-210.0
 20
-60.25
 30
0.0
 11
-210.0
 21
-53.75
 31
0.0
  0
LINE
  5
3D5
100
AcDbEntity
  8
0
  6
CENTER
 62
     7
100
AcDbLine
 10
-213.25
 20
-57.0
 30
0.0
 11
-206.75
 21
-57.0
 31
0.0
  0
LINE
  5
3D6
100
AcDbEntity
  8
0
  6
CONTINUOUS
 62
     7
100
AcDbLine
 10
-215.0
 20
-55.0
 30
0.0
 11
-215.0
 21
-66.0
 31
0.0
  0
LINE
  5
3D7
100
AcDbEntity
  8
0
  6
CENTER
 62
     7
100
AcDbLine
 10
-203.25
 20
-57.0
 30
0.0
 11
-196.75
 21
-57.0
 31
0.0
  0
ARC
  5
3D8
100
AcDbEntity
  8
0
  6
CONTINUOUS
 62
     7
100
AcDbCircle
 10
-213.0
 20
-45.0
 30
0.0
 40
2.0
100
AcDbArc
 50
179.99999
 51
270.0
  0
ARC
  5
3D9
100
AcDbEntity
  8
0
  6
CONTINUOUS
 62
     7
100
AcDbCircle
 10
-197.0
 20
-45.0
 30
0.0
 40
2.0
100
AcDbArc
 50
270.0
 51
0.0
  0
CIRCLE
  5
3DA
100
AcDbEntity
  8
0
  6
CONTINUOUS
 62
     7
100
AcDbCircle
 10
-210.0
 20
-43.0
 30
0.0
 40
2.25
  0
CIRCLE
  5
3DB
100
AcDbEntity
  8
0
  6
CONTINUOUS
 62
     7
100
AcDbCircle
 10
-200.0
 20
-43.0
 30
0.0
 40
2.25
  0
ARC
  5
3DC
100
AcDbEntity
  8
0
  6
CONTINUOUS
 62
     7
100
AcDbCircle
 10
-213.0
 20
-55.0
 30
0.0
 40
2.0
100
AcDbArc
 50
90.000003
 51
180.00001
  0
ARC
  5
3DD
100
AcDbEntity
  8
0
  6
CONTINUOUS
 62
     7
100
AcDbCircle
 10
-197.0
 20
-55.0
 30
0.0
 40
2.0
100
AcDbArc
 50
0.0
 51
90.000003
  0
CIRCLE
  5
3DE
100
AcDbEntity
  8
0
  6
CONTINUOUS
 62
     7
100
AcDbCircle
 10
-210.0
 20
-57.0
 30
0.0
 40
2.25
  0
CIRCLE
  5
3DF
100
AcDbEntity
  8
0
  6
CONTINUOUS
 62
     7
100
AcDbCircle
 10
-200.0
 20
-57.0
 30
0.0
 40
2.25
  0
POINT
  5
3E0
100
AcDbEntity
  8
0
  6
CONTINUOUS
 62
     7
100
AcDbPoint
 10
-160.0
 20
-5.0
 30
0.0
  0
POINT
  5
3E1
100
AcDbEntity
  8
0
  6
CONTINUOUS
 62
     7
100
AcDbPoint
 10
-146.0
 20
-5.0
 30
0.0
  0
LINE
  5
3E2
100
AcDbEntity
  8
0
  6
CONTINUOUS
 62
     7
100
AcDbLine
 10
-141.2
 20
-3.8
 30
0.0
 11
-141.2
 21
15.0
 31
0.0
  0
LINE
  5
3E3
100
AcDbEntity
  8
0
  6
CENTER
 62
     7
100
AcDbLine
 10
-174.0
 20
5.0
 30
0.0
 11
-132.0
 21
5.0
 31
0.0
  0
LINE
  5
3E4
100
AcDbEntity
  8
0
  6
CONTINUOUS
 62
     7
100
AcDbLine
 10
-137.0
 20
-5.0
 30
0.0
 11
-137.0
 21
15.0
 31
0.0
  0
LINE
  5
3E5
100
AcDbEntity
  8
0
  6
CONTINUOUS
 62
     7
100
AcDbLine
 10
-150.0
 20
-3.8
 30
0.0
 11
-141.2
 21
-3.8
 31
0.0
  0
LINE
  5
3E6
100
AcDbEntity
  8
0
  6
CONTINUOUS
 62
     7
100
AcDbLine
 10
-169.0
 20
-5.0
 30
0.0
 11
-137.0
 21
-5.0
 31
0.0
  0
LINE
  5
3E7
100
AcDbEntity
  8
0
  6
CONTINUOUS
 62
     7
100
AcDbLine
 10
-140.0
 20
-5.0
 30
0.0
 11
-140.0
 21
15.0
 31
0.0
  0
LINE
  5
3E8
100
AcDbEntity
  8
0
  6
CONTINUOUS
 62
     7
100
AcDbLine
 10
-150.0
 20
-5.0
 30
0.0
 11
-150.0
 21
-3.8
 31
0.0
  0
LINE
  5
3E9
100
AcDbEntity
  8
0
  6
CONTINUOUS
 62
     7
100
AcDbLine
 10
-143.0
 20
-3.8
 30
0.0
 11
-143.0
 21
15.0
 31
0.0
  0
LINE
  5
3EA
100
AcDbEntity
  8
0
  6
CONTINUOUS
 62
     7
100
AcDbLine
 10
-156.0
 20
-3.8
 30
0.0
 11
-164.8
 21
-3.8
 31
0.0
  0
LINE
  5
3EB
100
AcDbEntity
  8
0
  6
CONTINUOUS
 62
     7
100
AcDbLine
 10
-156.0
 20
-5.0
 30
0.0
 11
-156.0
 21
-3.8
 31
0.0
  0
LINE
  5
3EC
100
AcDbEntity
  8
0
  6
CENTER
 62
     7
100
AcDbLine
 10
-146.0
 20
-7.0
 30
0.0
 11
-146.0
 21
-0.3
 31
0.0
  0
LINE
  5
3ED
100
AcDbEntity
  8
0
  6
CONTINUOUS
 62
     7
100
AcDbLine
 10
-166.0
 20
-5.0
 30
0.0
 11
-166.0
 21
15.0
 31
0.0
  0
LINE
  5
3EE
100
AcDbEntity
  8
0
  6
CONTINUOUS
 62
     7
100
AcDbLine
 10
-163.0
 20
-3.8
 30
0.0
 11
-163.0
 21
15.0
 31
0.0
  0
LINE
  5
3EF
100
AcDbEntity
  8
0
  6
CENTER
 62
     7
100
AcDbLine
 10
-153.0
 20
-10.0
 30
0.0
 11
-153.0
 21
20.0
 31
0.0
  0
LINE
  5
3F0
100
AcDbEntity
  8
0
  6
CONTINUOUS
 62
     7
100
AcDbLine
 10
-169.0
 20
-5.0
 30
0.0
 11
-169.0
 21
15.0
 31
0.0
  0
LINE
  5
3F1
100
AcDbEntity
  8
0
  6
CENTER
 62
     7
100
AcDbLine
 10
-160.0
 20
-7.0
 30
0.0
 11
-160.0
 21
-0.3
 31
0.0
  0
LINE
  5
3F2
100
AcDbEntity
  8
0
  6
CONTINUOUS
 62
     7
100
AcDbLine
 10
-169.0
 20
15.0
 30
0.0
 11
-137.0
 21
15.0
 31
0.0
  0
LINE
  5
3F3
100
AcDbEntity
  8
0
  6
CONTINUOUS
 62
     7
100
AcDbLine
 10
-163.0
 20
-2.7
 30
0.0
 11
-143.0
 21
-2.7
 31
0.0
  0
LINE
  5
3F4
100
AcDbEntity
  8
0
  6
CONTINUOUS
 62
     7
100
AcDbLine
 10
-163.0
 20
-2.0
 30
0.0
 11
-143.0
 21
-2.0
 31
0.0
  0
LINE
  5
3F5
100
AcDbEntity
  8
0
  6
CONTINUOUS
 62
     7
100
AcDbLine
 10
-163.0
 20
12.0
 30
0.0
 11
-143.0
 21
12.0
 31
0.0
  0
LINE
  5
3F6
100
AcDbEntity
  8
0
  6
CONTINUOUS
 62
     7
100
AcDbLine
 10
-164.8
 20
-3.8
 30
0.0
 11
-164.8
 21
15.0
 31
0.0
  0
POINT
  5
3F7
100
AcDbEntity
  8
0
  6
CONTINUOUS
 62
     7
100
AcDbPoint
 10
-60.0
 20
53.0
 30
0.0
  0
POINT
  5
3F8
100
AcDbEntity
  8
0
  6
CONTINUOUS
 62
     7
100
AcDbPoint
 10
-50.0
 20
53.0
 30
0.0
  0
LINE
  5
3F9
100
AcDbEntity
  8
0
  6
CONTINUOUS
 62
     7
100
AcDbLine
 10
-94.381641
 20
73.0
 30
0.0
 11
-105.61836
 21
73.0
 31
0.0
  0
LINE
  5
3FA
100
AcDbEntity
  8
0
  6
CONTINUOUS
 62
     7
100
AcDbLine
 10
-80.618357
 20
47.0
 30
0.0
 11
-80.618357
 21
50.0
 31
0.0
  0
LINE
  5
3FB
100
AcDbEntity
  8
0
  6
CONTINUOUS
 62
     7
100
AcDbLine
 10
-65.0
 20
44.0
 30
0.0
 11
-94.381641
 21
44.0
 31
0.0
  0
LINE
  5
3FC
100
AcDbEntity
  8
0
  6
CENTER
 62
     7
100
AcDbLine
 10
-50.0
 20
60.0
 30
0.0
 11
-115.0
 21
60.0
 31
0.0
  0
LINE
  5
3FD
100
AcDbEntity
  8
0
  6
CONTINUOUS
 62
     7
100
AcDbLine
 10
-80.618357
 20
50.0
 30
0.0
 11
-81.5
 21
50.0
 31
0.0
  0
LINE
  5
3FE
100
AcDbEntity
  8
0
  6
CENTER
 62
     7
100
AcDbLine
 10
-100.0
 20
39.0
 30
0.0
 11
-100.0
 21
81.0
 31
0.0
  0
LINE
  5
3FF
100
AcDbEntity
  8
0
  6
CENTER
 62
     7
100
AcDbLine
 10
-75.0
 20
39.0
 30
0.0
 11
-75.0
 21
81.0
 31
0.0
  0
LINE
  5
400
100
AcDbEntity
  8
0
  6
CONTINUOUS
 62
     7
100
AcDbLine
 10
-93.5
 20
50.0
 30
0.0
 11
-93.5
 21
70.0
 31
0.0
  0
LINE
  5
401
100
AcDbEntity
  8
0
  6
CONTINUOUS
 62
     7
100
AcDbLine
 10
-81.5
 20
50.0
 30
0.0
 11
-81.5
 21
70.0
 31
0.0
  0
LINE
  5
402
100
AcDbEntity
  8
0
  6
CONTINUOUS
 62
     7
100
AcDbLine
 10
-80.618357
 20
70.0
 30
0.0
 11
-80.618357
 21
73.0
 31
0.0
  0
LINE
  5
403
100
AcDbEntity
  8
0
  6
CONTINUOUS
 62
     7
100
AcDbLine
 10
-94.381641
 20
73.0
 30
0.0
 11
-94.381641
 21
76.0
 31
0.0
  0
LINE
  5
404
100
AcDbEntity
  8
0
  6
CONTINUOUS
 62
     7
100
AcDbLine
 10
-93.5
 20
50.0
 30
0.0
 11
-105.61836
 21
50.0
 31
0.0
  0
LINE
  5
405
100
AcDbEntity
  8
0
  6
CONTINUOUS
 62
     7
100
AcDbLine
 10
-65.0
 20
76.0
 30
0.0
 11
-94.381641
 21
76.0
 31
0.0
  0
LINE
  5
406
100
AcDbEntity
  8
0
  6
CONTINUOUS
 62
     7
100
AcDbLine
 10
-45.0
 20
73.0
 30
0.0
 11
-80.618357
 21
73.0
 31
0.0
  0
LINE
  5
407
100
AcDbEntity
  8
0
  6
CONTINUOUS
 62
     7
100
AcDbLine
 10
-80.618357
 20
70.0
 30
0.0
 11
-81.5
 21
70.0
 31
0.0
  0
LINE
  5
408
100
AcDbEntity
  8
0
  6
CONTINUOUS
 62
     7
100
AcDbLine
 10
-93.5
 20
70.0
 30
0.0
 11
-105.61836
 21
70.0
 31
0.0
  0
LINE
  5
409
100
AcDbEntity
  8
0
  6
CONTINUOUS
 62
     7
100
AcDbLine
 10
-94.381641
 20
44.0
 30
0.0
 11
-94.381641
 21
47.0
 31
0.0
  0
LINE
  5
40A
100
AcDbEntity
  8
0
  6
CONTINUOUS
 62
     7
100
AcDbLine
 10
-94.381641
 20
47.0
 30
0.0
 11
-105.61836
 21
47.0
 31
0.0
  0
LINE
  5
40B
100
AcDbEntity
  8
0
  6
CONTINUOUS
 62
     7
100
AcDbLine
 10
-65.0
 20
71.799999
 30
0.0
 11
-80.618357
 21
71.799999
 31
0.0
  0
LINE
  5
40C
100
AcDbEntity
  8
0
  6
CONTINUOUS
 62
     7
100
AcDbLine
 10
-47.0
 20
63.0
 30
0.0
 11
-63.0
 21
63.0
 31
0.0
  0
LINE
  5
40D
100
AcDbEntity
  8
0
  6
CENTER
 62
     7
100
AcDbLine
 10
-50.0
 20
70.25
 30
0.0
 11
-50.0
 21
63.75
 31
0.0
  0
LINE
  5
40E
100
AcDbEntity
  8
0
  6
CONTINUOUS
 62
     7
100
AcDbLine
 10
-45.0
 20
65.0
 30
0.0
 11
-45.0
 21
73.0
 31
0.0
  0
LINE
  5
40F
100
AcDbEntity
  8
0
  6
CENTER
 62
     7
100
AcDbLine
 10
-60.0
 20
70.25
 30
0.0
 11
-60.0
 21
63.75
 31
0.0
  0
LINE
  5
410
100
AcDbEntity
  8
0
  6
CENTER
 62
     7
100
AcDbLine
 10
-63.25
 20
67.0
 30
0.0
 11
-56.75
 21
67.0
 31
0.0
  0
LINE
  5
411
100
AcDbEntity
  8
0
  6
CONTINUOUS
 62
     7
100
AcDbLine
 10
-65.0
 20
65.0
 30
0.0
 11
-65.0
 21
76.0
 31
0.0
  0
LINE
  5
412
100
AcDbEntity
  8
0
  6
CONTINUOUS
 62
     7
100
AcDbLine
 10
-65.0
 20
48.2
 30
0.0
 11
-80.618357
 21
48.2
 31
0.0
  0
LINE
  5
413
100
AcDbEntity
  8
0
  6
CENTER
 62
     7
100
AcDbLine
 10
-53.25
 20
67.0
 30
0.0
 11
-46.75
 21
67.0
 31
0.0
  0
LINE
  5
414
100
AcDbEntity
  8
0
  6
CONTINUOUS
 62
     7
100
AcDbLine
 10
-47.0
 20
57.0
 30
0.0
 11
-63.0
 21
57.0
 31
0.0
  0
LINE
  5
415
100
AcDbEntity
  8
0
  6
CONTINUOUS
 62
     7
100
AcDbLine
 10
-45.0
 20
47.0
 30
0.0
 11
-80.618357
 21
47.0
 31
0.0
  0
LINE
  5
416
100
AcDbEntity
  8
0
  6
CENTER
 62
     7
100
AcDbLine
 10
-50.0
 20
49.75
 30
0.0
 11
-50.0
 21
56.25
 31
0.0
  0
LINE
  5
417
100
AcDbEntity
  8
0
  6
CONTINUOUS
 62
     7
100
AcDbLine
 10
-45.0
 20
55.0
 30
0.0
 11
-45.0
 21
47.0
 31
0.0
  0
LINE
  5
418
100
AcDbEntity
  8
0
  6
CENTER
 62
     7
100
AcDbLine
 10
-60.0
 20
49.75
 30
0.0
 11
-60.0
 21
56.25
 31
0.0
  0
LINE
  5
419
100
AcDbEntity
  8
0
  6
CENTER
 62
     7
100
AcDbLine
 10
-63.25
 20
53.0
 30
0.0
 11
-56.75
 21
53.0
 31
0.0
  0
LINE
  5
41A
100
AcDbEntity
  8
0
  6
CONTINUOUS
 62
     7
100
AcDbLine
 10
-65.0
 20
55.0
 30
0.0
 11
-65.0
 21
44.0
 31
0.0
  0
LINE
  5
41B
100
AcDbEntity
  8
0
  6
CENTER
 62
     7
100
AcDbLine
 10
-53.25
 20
53.0
 30
0.0
 11
-46.75
 21
53.0
 31
0.0
  0
ARC
  5
41C
100
AcDbEntity
  8
0
  6
CONTINUOUS
 62
     7
100
AcDbCircle
 10
-63.0
 20
65.0
 30
0.0
 40
2.0
100
AcDbArc
 50
179.99999
 51
270.0
  0
ARC
  5
41D
100
AcDbEntity
  8
0
  6
CONTINUOUS
 62
     7
100
AcDbCircle
 10
-47.0
 20
65.0
 30
0.0
 40
2.0
100
AcDbArc
 50
270.0
 51
0.0
  0
CIRCLE
  5
41E
100
AcDbEntity
  8
0
  6
CONTINUOUS
 62
     7
100
AcDbCircle
 10
-60.0
 20
67.0
 30
0.0
 40
2.25
  0
CIRCLE
  5
41F
100
AcDbEntity
  8
0
  6
CONTINUOUS
 62
     7
100
AcDbCircle
 10
-50.0
 20
67.0
 30
0.0
 40
2.25
  0
ARC
  5
420
100
AcDbEntity
  8
0
  6
CONTINUOUS
 62
     7
100
AcDbCircle
 10
-63.0
 20
55.0
 30
0.0
 40
2.0
100
AcDbArc
 50
90.000003
 51
180.00001
  0
ARC
  5
421
100
AcDbEntity
  8
0
  6
CONTINUOUS
 62
     7
100
AcDbCircle
 10
-47.0
 20
55.0
 30
0.0
 40
2.0
100
AcDbArc
 50
0.0
 51
90.000003
  0
CIRCLE
  5
422
100
AcDbEntity
  8
0
  6
CONTINUOUS
 62
     7
100
AcDbCircle
 10
-60.0
 20
53.0
 30
0.0
 40
2.25
  0
CIRCLE
  5
423
100
AcDbEntity
  8
0
  6
CONTINUOUS
 62
     7
100
AcDbCircle
 10
-50.0
 20
53.0
 30
0.0
 40
2.25
  0
POINT
  5
424
100
AcDbEntity
  8
0
  6
CONTINUOUS
 62
     7
100
AcDbPoint
 10
-60.0
 20
15.0
 30
0.0
  0
POINT
  5
425
100
AcDbEntity
  8
0
  6
CONTINUOUS
 62
     7
100
AcDbPoint
 10
-50.0
 20
15.0
 30
0.0
  0
LINE
  5
426
100
AcDbEntity
  8
0
  6
CONTINUOUS
 62
     7
100
AcDbLine
 10
-45.0
 20
15.0
 30
0.0
 11
-65.0
 21
15.0
 31
0.0
  0
LINE
  5
427
100
AcDbEntity
  8
0
  6
CENTER
 62
     7
100
AcDbLine
 10
-106.04
 20
5.0
 30
0.0
 11
-93.959999
 21
5.0
 31
0.0
  0
LINE
  5
428
100
AcDbEntity
  8
0
  6
CENTER
 62
     7
100
AcDbLine
 10
-81.040001
 20
5.0
 30
0.0
 11
-68.96
 21
5.0
 31
0.0
  0
LINE
  5
429
100
AcDbEntity
  8
0
  6
CENTER
 62
     7
100
AcDbLine
 10
-75.0
 20
-1.040001
 30
0.0
 11
-75.0
 21
11.04
 31
0.0
  0
LINE
  5
42A
100
AcDbEntity
  8
0
  6
CONTINUOUS
 62
     7
100
AcDbLine
 10
-68.0
 20
15.0
 30
0.0
 11
-100.0
 21
15.0
 31
0.0
  0
LINE
  5
42B
100
AcDbEntity
  8
0
  6
CONTINUOUS
 62
     7
100
AcDbLine
 10
-94.309765
 20
14.505166
 30
0.0
 11
-92.015739
 21
11.819206
 31
0.0
  0
LINE
  5
42C
100
AcDbEntity
  8
0
  6
CONTINUOUS
 62
     7
100
AcDbLine
 10
-98.0
 20
2.127719
 30
0.0
 11
-98.0
 21
7.872282
 31
0.0
  0
LINE
  5
42D
100
AcDbEntity
  8
0
  6
CENTER
 62
     7
100
AcDbLine
 10
-100.0
 20
-1.040001
 30
0.0
 11
-100.0
 21
11.04
 31
0.0
  0
LINE
  5
42E
100
AcDbEntity
  8
0
  6
DASHED
 62
     7
100
AcDbLine
 10
-65.0
 20
13.799999
 30
0.0
 11
-65.0
 21
14.999996
 31
0.0
  0
LINE
  5
42F
100
AcDbEntity
  8
0
  6
DASHED
 62
     7
100
AcDbLine
 10
-45.0
 20
13.799999
 30
0.0
 11
-65.0
 21
13.799999
 31
0.0
  0
LINE
  5
430
100
AcDbEntity
  8
0
  6
CENTER
 62
     7
100
AcDbLine
 10
-60.0
 20
15.959198
 30
0.0
 11
-60.0
 21
13.012596
 31
0.0
  0
LINE
  5
431
100
AcDbEntity
  8
0
  6
CONTINUOUS
 62
     7
100
AcDbLine
 10
-45.0
 20
14.999996
 30
0.0
 11
-45.0
 21
12.070698
 31
0.0
  0
LINE
  5
432
100
AcDbEntity
  8
0
  6
CONTINUOUS
 62
     7
100
AcDbLine
 10
-47.739006
 20
7.611304
 30
0.0
 11
-70.477007
 21
-3.91889
 31
0.0
  0
LINE
  5
433
100
AcDbEntity
  8
0
  6
CENTER
 62
     7
100
AcDbLine
 10
-50.0
 20
15.959198
 30
0.0
 11
-50.0
 21
13.012596
 31
0.0
  0
LINE
  5
434
100
AcDbEntity
  8
0
  6
CONTINUOUS
 62
     7
100
AcDbLine
 10
-75.0
 20
-5.0
 30
0.0
 11
-100.0
 21
-5.0
 31
0.0
  0
ARC
  5
435
100
AcDbEntity
  8
0
  6
CONTINUOUS
 62
     7
100
AcDbCircle
 10
-75.0
 20
5.0
 30
0.0
 40
10.0
100
AcDbArc
 50
270.0
 51
90.000003
  0
ARC
  5
436
100
AcDbEntity
  8
0
  6
CONTINUOUS
 62
     7
100
AcDbCircle
 10
-100.0
 20
5.0
 30
0.0
 40
10.5
100
AcDbArc
 50
296.08429
 51
40.499999
  0
ARC
  5
437
100
AcDbEntity
  8
0
  6
CONTINUOUS
 62
     7
100
AcDbCircle
 10
-95.251316
 20
-4.700001
 30
0.0
 40
0.3
100
AcDbArc
 50
116.0843
 51
270.0
  0
ARC
  5
438
100
AcDbEntity
  8
0
  6
CONTINUOUS
 62
     7
100
AcDbCircle
 10
-94.081642
 20
14.7
 30
0.0
 40
0.3
100
AcDbArc
 50
90.000003
 51
220.49999
  0
CIRCLE
  5
439
100
AcDbEntity
  8
0
  6
CONTINUOUS
 62
     7
100
AcDbCircle
 10
-100.0
 20
5.0
 30
0.0
 40
3.5
  0
CIRCLE
  5
43A
100
AcDbEntity
  8
0
  6
CONTINUOUS
 62
     7
100
AcDbCircle
 10
-75.0
 20
5.0
 30
0.0
 40
3.5
  0
ARC
  5
43B
100
AcDbEntity
  8
0
  6
CONTINUOUS
 62
     7
100
AcDbCircle
 10
-66.5
 20
14.999996
 30
0.0
 40
1.5
100
AcDbArc
 50
179.99999
 51
0.00001
  0
ARC
  5
43C
100
AcDbEntity
  8
0
  6
CONTINUOUS
 62
     7
100
AcDbCircle
 10
-50.0
 20
12.070698
 30
0.0
 40
5.0
100
AcDbArc
 50
296.8883
 51
0.0
  0
POINT
  5
43D
100
AcDbEntity
  8
0
  6
CONTINUOUS
 62
     7
100
AcDbPoint
 10
-60.0
 20
-43.0
 30
0.0
  0
POINT
  5
43E
100
AcDbEntity
  8
0
  6
CONTINUOUS
 62
     7
100
AcDbPoint
 10
-50.0
 20
-43.0
 30
0.0
  0
LINE
  5
43F
100
AcDbEntity
  8
0
  6
CONTINUOUS
 62
     7
100
AcDbLine
 10
-95.551315
 20
-66.0
 30
0.0
 11
-95.551315
 21
-63.0
 31
0.0
  0
LINE
  5
440
100
AcDbEntity
  8
0
  6
CONTINUOUS
 62
     7
100
AcDbLine
 10
-81.5
 20
-60.0
 30
0.0
 11
-81.5
 21
-40.0
 31
0.0
  0
LINE
  5
441
100
AcDbEntity
  8
0
  6
CONTINUOUS
 62
     7
100
AcDbLine
 10
-93.5
 20
-60.0
 30
0.0
 11
-93.5
 21
-40.0
 31
0.0
  0
LINE
  5
442
100
AcDbEntity
  8
0
  6
CENTER
 62
     7
100
AcDbLine
 10
-75.0
 20
-71.0
 30
0.0
 11
-75.0
 21
-29.0
 31
0.0
  0
LINE
  5
443
100
AcDbEntity
  8
0
  6
CENTER
 62
     7
100
AcDbLine
 10
-100.0
 20
-71.0
 30
0.0
 11
-100.0
 21
-29.0
 31
0.0
  0
LINE
  5
444
100
AcDbEntity
  8
0
  6
CONTINUOUS
 62
     7
100
AcDbLine
 10
-79.448685
 20
-60.0
 30
0.0
 11
-84.5
 21
-60.0
 31
0.0
  0
LINE
  5
445
100
AcDbEntity
  8
0
  6
CONTINUOUS
 62
     7
100
AcDbLine
 10
-45.0
 20
-63.0
 30
0.0
 11
-79.448685
 21
-63.0
 31
0.0
  0
LINE
  5
446
100
AcDbEntity
  8
0
  6
CENTER
 62
     7
100
AcDbLine
 10
-50.0
 20
-50.0
 30
0.0
 11
-115.0
 21
-50.0
 31
0.0
  0
LINE
  5
447
100
AcDbEntity
  8
0
  6
CONTINUOUS
 62
     7
100
AcDbLine
 10
-65.0
 20
-66.0
 30
0.0
 11
-95.551315
 21
-66.0
 31
0.0
  0
LINE
  5
448
100
AcDbEntity
  8
0
  6
CONTINUOUS
 62
     7
100
AcDbLine
 10
-79.448685
 20
-63.0
 30
0.0
 11
-79.448685
 21
-60.0
 31
0.0
  0
LINE
  5
449
100
AcDbEntity
  8
0
  6
CONTINUOUS
 62
     7
100
AcDbLine
 10
-90.5
 20
-60.0
 30
0.0
 11
-104.44868
 21
-60.0
 31
0.0
  0
LINE
  5
44A
100
AcDbEntity
  8
0
  6
CONTINUOUS
 62
     7
100
AcDbLine
 10
-65.0
 20
-34.0
 30
0.0
 11
-95.551315
 21
-34.0
 31
0.0
  0
LINE
  5
44B
100
AcDbEntity
  8
0
  6
CONTINUOUS
 62
     7
100
AcDbLine
 10
-84.5
 20
-65.1
 30
0.0
 11
-90.5
 21
-65.1
 31
0.0
  0
LINE
  5
44C
100
AcDbEntity
  8
0
  6
CONTINUOUS
 62
     7
100
AcDbLine
 10
-84.5
 20
-65.1
 30
0.0
 11
-84.5
 21
-60.0
 31
0.0
  0
LINE
  5
44D
100
AcDbEntity
  8
0
  6
CONTINUOUS
 62
     7
100
AcDbLine
 10
-90.5
 20
-65.1
 30
0.0
 11
-90.5
 21
-60.0
 31
0.0
  0
LINE
  5
44E
100
AcDbEntity
  8
0
  6
CONTINUOUS
 62
     7
100
AcDbLine
 10
-82.5
 20
-60.0
 30
0.0
 11
-82.5
 21
-40.0
 31
0.0
  0
LINE
  5
44F
100
AcDbEntity
  8
0
  6
CONTINUOUS
 62
     7
100
AcDbLine
 10
-92.5
 20
-60.0
 30
0.0
 11
-92.5
 21
-40.0
 31
0.0
  0
LINE
  5
450
100
AcDbEntity
  8
0
  6
CONTINUOUS
 62
     7
100
AcDbLine
 10
-84.5
 20
-64.5
 30
0.0
 11
-90.5
 21
-64.5
 31
0.0
  0
LINE
  5
451
100
AcDbEntity
  8
0
  6
CONTINUOUS
 62
     7
100
AcDbLine
 10
-45.0
 20
-37.0
 30
0.0
 11
-79.448685
 21
-37.0
 31
0.0
  0
LINE
  5
452
100
AcDbEntity
  8
0
  6
CONTINUOUS
 62
     7
100
AcDbLine
 10
-79.448685
 20
-40.0
 30
0.0
 11
-84.5
 21
-40.0
 31
0.0
  0
LINE
  5
453
100
AcDbEntity
  8
0
  6
CENTER
 62
     7
100
AcDbLine
 10
-63.25
 20
-43.0
 30
0.0
 11
-56.75
 21
-43.0
 31
0.0
  0
LINE
  5
454
100
AcDbEntity
  8
0
  6
CONTINUOUS
 62
     7
100
AcDbLine
 10
-95.551315
 20
-34.0
 30
0.0
 11
-95.551315
 21
-37.0
 31
0.0
  0
LINE
  5
455
100
AcDbEntity
  8
0
  6
CONTINUOUS
 62
     7
100
AcDbLine
 10
-79.448685
 20
-37.0
 30
0.0
 11
-79.448685
 21
-40.0
 31
0.0
  0
LINE
  5
456
100
AcDbEntity
  8
0
  6
CONTINUOUS
 62
     7
100
AcDbLine
 10
-84.5
 20
-34.9
 30
0.0
 11
-90.5
 21
-34.9
 31
0.0
  0
LINE
  5
457
100
AcDbEntity
  8
0
  6
CONTINUOUS
 62
     7
100
AcDbLine
 10
-84.5
 20
-34.9
 30
0.0
 11
-84.5
 21
-40.0
 31
0.0
  0
LINE
  5
458
100
AcDbEntity
  8
0
  6
CONTINUOUS
 62
     7
100
AcDbLine
 10
-90.5
 20
-34.9
 30
0.0
 11
-90.5
 21
-40.0
 31
0.0
  0
LINE
  5
459
100
AcDbEntity
  8
0
  6
CONTINUOUS
 62
     7
100
AcDbLine
 10
-84.5
 20
-35.5
 30
0.0
 11
-90.5
 21
-35.5
 31
0.0
  0
LINE
  5
45A
100
AcDbEntity
  8
0
  6
CENTER
 62
     7
100
AcDbLine
 10
-82.5
 20
-37.2
 30
0.0
 11
-92.5
 21
-37.2
 31
0.0
  0
LINE
  5
45B
100
AcDbEntity
  8
0
  6
CENTER
 62
     7
100
AcDbLine
 10
-82.5
 20
-62.799999
 30
0.0
 11
-92.5
 21
-62.799999
 31
0.0
  0
LINE
  5
45C
100
AcDbEntity
  8
0
  6
CONTINUOUS
 62
     7
100
AcDbLine
 10
-90.5
 20
-40.0
 30
0.0
 11
-104.44868
 21
-40.0
 31
0.0
  0
LINE
  5
45D
100
AcDbEntity
  8
0
  6
CONTINUOUS
 62
     7
100
AcDbLine
 10
-95.551315
 20
-63.0
 30
0.0
 11
-104.44868
 21
-63.0
 31
0.0
  0
LINE
  5
45E
100
AcDbEntity
  8
0
  6
CONTINUOUS
 62
     7
100
AcDbLine
 10
-95.551315
 20
-37.0
 30
0.0
 11
-104.44868
 21
-37.0
 31
0.0
  0
LINE
  5
45F
100
AcDbEntity
  8
0
  6
CONTINUOUS
 62
     7
100
AcDbLine
 10
-65.0
 20
-63.0
 30
0.0
 11
-65.0
 21
-66.0
 31
0.0
  0
LINE
  5
460
100
AcDbEntity
  8
0
  6
CONTINUOUS
 62
     7
100
AcDbLine
 10
-65.0
 20
-37.0
 30
0.0
 11
-65.0
 21
-34.0
 31
0.0
  0
LINE
  5
461
100
AcDbEntity
  8
0
  6
CENTER
 62
     7
100
AcDbLine
 10
-60.0
 20
-39.75
 30
0.0
 11
-60.0
 21
-46.25
 31
0.0
  0
LINE
  5
462
100
AcDbEntity
  8
0
  6
CONTINUOUS
 62
     7
100
AcDbLine
 10
-45.0
 20
-45.0
 30
0.0
 11
-45.0
 21
-37.0
 31
0.0
  0
LINE
  5
463
100
AcDbEntity
  8
0
  6
CENTER
 62
     7
100
AcDbLine
 10
-50.0
 20
-39.75
 30
0.0
 11
-50.0
 21
-46.25
 31
0.0
  0
LINE
  5
464
100
AcDbEntity
  8
0
  6
CONTINUOUS
 62
     7
100
AcDbLine
 10
-47.0
 20
-47.0
 30
0.0
 11
-63.0
 21
-47.0
 31
0.0
  0
LINE
  5
465
100
AcDbEntity
  8
0
  6
CONTINUOUS
 62
     7
100
AcDbLine
 10
-45.0
 20
-38.2
 30
0.0
 11
-79.448685
 21
-38.2
 31
0.0
  0
LINE
  5
466
100
AcDbEntity
  8
0
  6
CONTINUOUS
 62
     7
100
AcDbLine
 10
-65.0
 20
-45.0
 30
0.0
 11
-65.0
 21
-38.2
 31
0.0
  0
LINE
  5
467
100
AcDbEntity
  8
0
  6
CONTINUOUS
 62
     7
100
AcDbLine
 10
-45.0
 20
-61.799999
 30
0.0
 11
-79.448685
 21
-61.799999
 31
0.0
  0
LINE
  5
468
100
AcDbEntity
  8
0
  6
CENTER
 62
     7
100
AcDbLine
 10
-53.25
 20
-43.0
 30
0.0
 11
-46.75
 21
-43.0
 31
0.0
  0
LINE
  5
469
100
AcDbEntity
  8
0
  6
CONTINUOUS
 62
     7
100
AcDbLine
 10
-47.0
 20
-53.0
 30
0.0
 11
-63.0
 21
-53.0
 31
0.0
  0
LINE
  5
46A
100
AcDbEntity
  8
0
  6
CENTER
 62
     7
100
AcDbLine
 10
-50.0
 20
-60.25
 30
0.0
 11
-50.0
 21
-53.75
 31
0.0
  0
LINE
  5
46B
100
AcDbEntity
  8
0
  6
CONTINUOUS
 62
     7
100
AcDbLine
 10
-45.0
 20
-55.0
 30
0.0
 11
-45.0
 21
-63.0
 31
0.0
  0
LINE
  5
46C
100
AcDbEntity
  8
0
  6
CENTER
 62
     7
100
AcDbLine
 10
-60.0
 20
-60.25
 30
0.0
 11
-60.0
 21
-53.75
 31
0.0
  0
LINE
  5
46D
100
AcDbEntity
  8
0
  6
CENTER
 62
     7
100
AcDbLine
 10
-63.25
 20
-57.0
 30
0.0
 11
-56.75
 21
-57.0
 31
0.0
  0
LINE
  5
46E
100
AcDbEntity
  8
0
  6
CONTINUOUS
 62
     7
100
AcDbLine
 10
-65.0
 20
-55.0
 30
0.0
 11
-65.0
 21
-61.799999
 31
0.0
  0
LINE
  5
46F
100
AcDbEntity
  8
0
  6
CENTER
 62
     7
100
AcDbLine
 10
-53.25
 20
-57.0
 30
0.0
 11
-46.75
 21
-57.0
 31
0.0
  0
ARC
  5
470
100
AcDbEntity
  8
0
  6
CONTINUOUS
 62
     7
100
AcDbCircle
 10
-63.0
 20
-45.0
 30
0.0
 40
2.0
100
AcDbArc
 50
179.99999
 51
270.0
  0
ARC
  5
471
100
AcDbEntity
  8
0
  6
CONTINUOUS
 62
     7
100
AcDbCircle
 10
-47.0
 20
-45.0
 30
0.0
 40
2.0
100
AcDbArc
 50
270.0
 51
0.0
  0
CIRCLE
  5
472
100
AcDbEntity
  8
0
  6
CONTINUOUS
 62
     7
100
AcDbCircle
 10
-60.0
 20
-43.0
 30
0.0
 40
2.25
  0
CIRCLE
  5
473
100
AcDbEntity
  8
0
  6
CONTINUOUS
 62
     7
100
AcDbCircle
 10
-50.0
 20
-43.0
 30
0.0
 40
2.25
  0
ARC
  5
474
100
AcDbEntity
  8
0
  6
CONTINUOUS
 62
     7
100
AcDbCircle
 10
-63.0
 20
-55.0
 30
0.0
 40
2.0
100
AcDbArc
 50
90.000003
 51
180.00001
  0
ARC
  5
475
100
AcDbEntity
  8
0
  6
CONTINUOUS
 62
     7
100
AcDbCircle
 10
-47.0
 20
-55.0
 30
0.0
 40
2.0
100
AcDbArc
 50
0.0
 51
90.000003
  0
CIRCLE
  5
476
100
AcDbEntity
  8
0
  6
CONTINUOUS
 62
     7
100
AcDbCircle
 10
-60.0
 20
-57.0
 30
0.0
 40
2.25
  0
CIRCLE
  5
477
100
AcDbEntity
  8
0
  6
CONTINUOUS
 62
     7
100
AcDbCircle
 10
-50.0
 20
-57.0
 30
0.0
 40
2.25
  0
POINT
  5
478
100
AcDbEntity
  8
0
  6
CONTINUOUS
 62
     7
100
AcDbPoint
 10
-10.0
 20
15.0
 30
0.0
  0
POINT
  5
479
100
AcDbEntity
  8
0
  6
CONTINUOUS
 62
     7
100
AcDbPoint
 10
4.0
 20
15.0
 30
0.0
  0
LINE
  5
47A
100
AcDbEntity
  8
0
  6
CONTINUOUS
 62
     7
100
AcDbLine
 10
8.799999
 20
13.8
 30
0.0
 11
8.799999
 21
-5.0
 31
0.0
  0
LINE
  5
47B
100
AcDbEntity
  8
0
  6
CENTER
 62
     7
100
AcDbLine
 10
-24.0
 20
5.0
 30
0.0
 11
18.0
 21
5.0
 31
0.0
  0
LINE
  5
47C
100
AcDbEntity
  8
0
  6
CONTINUOUS
 62
     7
100
AcDbLine
 10
13.0
 20
-5.0
 30
0.0
 11
13.0
 21
15.0
 31
0.0
  0
LINE
  5
47D
100
AcDbEntity
  8
0
  6
CONTINUOUS
 62
     7
100
AcDbLine
 10
0.0
 20
13.8
 30
0.0
 11
8.799999
 21
13.8
 31
0.0
  0
LINE
  5
47E
100
AcDbEntity
  8
0
  6
CONTINUOUS
 62
     7
100
AcDbLine
 10
-19.0
 20
-5.0
 30
0.0
 11
13.0
 21
-5.0
 31
0.0
  0
LINE
  5
47F
100
AcDbEntity
  8
0
  6
CONTINUOUS
 62
     7
100
AcDbLine
 10
10.0
 20
-5.0
 30
0.0
 11
10.0
 21
15.0
 31
0.0
  0
LINE
  5
480
100
AcDbEntity
  8
0
  6
CONTINUOUS
 62
     7
100
AcDbLine
 10
0.0
 20
15.0
 30
0.0
 11
0.0
 21
13.8
 31
0.0
  0
LINE
  5
481
100
AcDbEntity
  8
0
  6
CONTINUOUS
 62
     7
100
AcDbLine
 10
7.0
 20
13.8
 30
0.0
 11
7.0
 21
-5.0
 31
0.0
  0
LINE
  5
482
100
AcDbEntity
  8
0
  6
CONTINUOUS
 62
     7
100
AcDbLine
 10
-6.0
 20
13.8
 30
0.0
 11
-14.8
 21
13.8
 31
0.0
  0
LINE
  5
483
100
AcDbEntity
  8
0
  6
CONTINUOUS
 62
     7
100
AcDbLine
 10
-6.0
 20
15.0
 30
0.0
 11
-6.0
 21
13.8
 31
0.0
  0
LINE
  5
484
100
AcDbEntity
  8
0
  6
CENTER
 62
     7
100
AcDbLine
 10
4.0
 20
17.0
 30
0.0
 11
4.0
 21
10.3
 31
0.0
  0
LINE
  5
485
100
AcDbEntity
  8
0
  6
CONTINUOUS
 62
     7
100
AcDbLine
 10
-16.0
 20
-5.0
 30
0.0
 11
-16.0
 21
15.0
 31
0.0
  0
LINE
  5
486
100
AcDbEntity
  8
0
  6
CONTINUOUS
 62
     7
100
AcDbLine
 10
-13.0
 20
13.8
 30
0.0
 11
-13.0
 21
-5.0
 31
0.0
  0
LINE
  5
487
100
AcDbEntity
  8
0
  6
CENTER
 62
     7
100
AcDbLine
 10
-3.0
 20
-10.0
 30
0.0
 11
-3.0
 21
20.0
 31
0.0
  0
LINE
  5
488
100
AcDbEntity
  8
0
  6
CONTINUOUS
 62
     7
100
AcDbLine
 10
-19.0
 20
-5.0
 30
0.0
 11
-19.0
 21
15.0
 31
0.0
  0
LINE
  5
489
100
AcDbEntity
  8
0
  6
CENTER
 62
     7
100
AcDbLine
 10
-10.0
 20
17.0
 30
0.0
 11
-10.0
 21
10.3
 31
0.0
  0
LINE
  5
48A
100
AcDbEntity
  8
0
  6
CONTINUOUS
 62
     7
100
AcDbLine
 10
-19.0
 20
15.0
 30
0.0
 11
13.0
 21
15.0
 31
0.0
  0
LINE
  5
48B
100
AcDbEntity
  8
0
  6
CONTINUOUS
 62
     7
100
AcDbLine
 10
-13.0
 20
-2.700001
 30
0.0
 11
7.0
 21
-2.700001
 31
0.0
  0
LINE
  5
48C
100
AcDbEntity
  8
0
  6
CONTINUOUS
 62
     7
100
AcDbLine
 10
-13.0
 20
-2.0
 30
0.0
 11
7.0
 21
-2.0
 31
0.0
  0
LINE
  5
48D
100
AcDbEntity
  8
0
  6
CONTINUOUS
 62
     7
100
AcDbLine
 10
-13.0
 20
12.0
 30
0.0
 11
7.0
 21
12.0
 31
0.0
  0
LINE
  5
48E
100
AcDbEntity
  8
0
  6
CONTINUOUS
 62
     7
100
AcDbLine
 10
-14.8
 20
13.8
 30
0.0
 11
-14.8
 21
-5.0
 31
0.0
  0
POINT
  5
48F
100
AcDbEntity
  8
0
  6
CONTINUOUS
 62
     7
100
AcDbPoint
 10
90.0
 20
42.200001
 30
0.0
  0
POINT
  5
490
100
AcDbEntity
  8
0
  6
CONTINUOUS
 62
     7
100
AcDbPoint
 10
100.0
 20
42.200001
 30
0.0
  0
LINE
  5
491
100
AcDbEntity
  8
0
  6
CONTINUOUS
 62
     7
100
AcDbLine
 10
85.0
 20
44.000001
 30
0.0
 11
55.618359
 21
44.000001
 31
0.0
  0
LINE
  5
492
100
AcDbEntity
  8
0
  6
CONTINUOUS
 62
     7
100
AcDbLine
 10
55.618359
 20
73.0
 30
0.0
 11
44.381641
 21
73.0
 31
0.0
  0
LINE
  5
493
100
AcDbEntity
  8
0
  6
CONTINUOUS
 62
     7
100
AcDbLine
 10
69.381643
 20
47.000001
 30
0.0
 11
69.381643
 21
50.000001
 31
0.0
  0
LINE
  5
494
100
AcDbEntity
  8
0
  6
CENTER
 62
     7
100
AcDbLine
 10
100.0
 20
60.0
 30
0.0
 11
35.0
 21
60.0
 31
0.0
  0
LINE
  5
495
100
AcDbEntity
  8
0
  6
CONTINUOUS
 62
     7
100
AcDbLine
 10
69.381643
 20
50.000001
 30
0.0
 11
68.5
 21
50.000001
 31
0.0
  0
LINE
  5
496
100
AcDbEntity
  8
0
  6
CENTER
 62
     7
100
AcDbLine
 10
50.0
 20
39.000001
 30
0.0
 11
50.0
 21
81.0
 31
0.0
  0
LINE
  5
497
100
AcDbEntity
  8
0
  6
CENTER
 62
     7
100
AcDbLine
 10
75.0
 20
39.000001
 30
0.0
 11
75.0
 21
81.0
 31
0.0
  0
LINE
  5
498
100
AcDbEntity
  8
0
  6
CONTINUOUS
 62
     7
100
AcDbLine
 10
56.5
 20
50.000001
 30
0.0
 11
56.5
 21
70.0
 31
0.0
  0
LINE
  5
499
100
AcDbEntity
  8
0
  6
CONTINUOUS
 62
     7
100
AcDbLine
 10
68.5
 20
50.000001
 30
0.0
 11
68.5
 21
70.0
 31
0.0
  0
LINE
  5
49A
100
AcDbEntity
  8
0
  6
CONTINUOUS
 62
     7
100
AcDbLine
 10
69.381643
 20
70.0
 30
0.0
 11
69.381643
 21
73.0
 31
0.0
  0
LINE
  5
49B
100
AcDbEntity
  8
0
  6
CONTINUOUS
 62
     7
100
AcDbLine
 10
55.618359
 20
73.0
 30
0.0
 11
55.618359
 21
76.0
 31
0.0
  0
LINE
  5
49C
100
AcDbEntity
  8
0
  6
CONTINUOUS
 62
     7
100
AcDbLine
 10
56.5
 20
50.000001
 30
0.0
 11
44.381641
 21
50.000001
 31
0.0
  0
LINE
  5
49D
100
AcDbEntity
  8
0
  6
CONTINUOUS
 62
     7
100
AcDbLine
 10
85.0
 20
76.0
 30
0.0
 11
55.618359
 21
76.0
 31
0.0
  0
LINE
  5
49E
100
AcDbEntity
  8
0
  6
CONTINUOUS
 62
     7
100
AcDbLine
 10
105.0
 20
73.0
 30
0.0
 11
69.381643
 21
73.0
 31
0.0
  0
LINE
  5
49F
100
AcDbEntity
  8
0
  6
CONTINUOUS
 62
     7
100
AcDbLine
 10
69.381643
 20
70.0
 30
0.0
 11
68.5
 21
70.0
 31
0.0
  0
LINE
  5
4A0
100
AcDbEntity
  8
0
  6
CONTINUOUS
 62
     7
100
AcDbLine
 10
56.5
 20
70.0
 30
0.0
 11
44.381641
 21
70.0
 31
0.0
  0
LINE
  5
4A1
100
AcDbEntity
  8
0
  6
CONTINUOUS
 62
     7
100
AcDbLine
 10
55.618359
 20
44.000001
 30
0.0
 11
55.618359
 21
47.000001
 31
0.0
  0
LINE
  5
4A2
100
AcDbEntity
  8
0
  6
CONTINUOUS
 62
     7
100
AcDbLine
 10
55.618359
 20
47.000001
 30
0.0
 11
44.381641
 21
47.000001
 31
0.0
  0
LINE
  5
4A3
100
AcDbEntity
  8
0
  6
CONTINUOUS
 62
     7
100
AcDbLine
 10
105.0
 20
71.800001
 30
0.0
 11
69.381643
 21
71.800001
 31
0.0
  0
LINE
  5
4A4
100
AcDbEntity
  8
0
  6
CONTINUOUS
 62
     7
100
AcDbLine
 10
103.0
 20
81.799999
 30
0.0
 11
87.0
 21
81.799999
 31
0.0
  0
LINE
  5
4A5
100
AcDbEntity
  8
0
  6
CENTER
 62
     7
100
AcDbLine
 10
100.0
 20
74.549999
 30
0.0
 11
100.0
 21
81.049999
 31
0.0
  0
LINE
  5
4A6
100
AcDbEntity
  8
0
  6
CONTINUOUS
 62
     7
100
AcDbLine
 10
105.0
 20
79.799999
 30
0.0
 11
105.0
 21
71.800001
 31
0.0
  0
LINE
  5
4A7
100
AcDbEntity
  8
0
  6
CENTER
 62
     7
100
AcDbLine
 10
90.0
 20
74.549999
 30
0.0
 11
90.0
 21
81.049999
 31
0.0
  0
LINE
  5
4A8
100
AcDbEntity
  8
0
  6
CENTER
 62
     7
100
AcDbLine
 10
86.75
 20
77.799999
 30
0.0
 11
93.25
 21
77.799999
 31
0.0
  0
LINE
  5
4A9
100
AcDbEntity
  8
0
  6
CONTINUOUS
 62
     7
100
AcDbLine
 10
85.0
 20
79.799999
 30
0.0
 11
85.0
 21
73.0
 31
0.0
  0
LINE
  5
4AA
100
AcDbEntity
  8
0
  6
CENTER
 62
     7
100
AcDbLine
 10
96.75
 20
77.799999
 30
0.0
 11
103.25
 21
77.799999
 31
0.0
  0
LINE
  5
4AB
100
AcDbEntity
  8
0
  6
CENTER
 62
     7
100
AcDbLine
 10
96.75
 20
42.200001
 30
0.0
 11
103.25
 21
42.200001
 31
0.0
  0
LINE
  5
4AC
100
AcDbEntity
  8
0
  6
CONTINUOUS
 62
     7
100
AcDbLine
 10
85.0
 20
40.200001
 30
0.0
 11
85.0
 21
47.000001
 31
0.0
  0
LINE
  5
4AD
100
AcDbEntity
  8
0
  6
CENTER
 62
     7
100
AcDbLine
 10
86.75
 20
42.200001
 30
0.0
 11
93.25
 21
42.200001
 31
0.0
  0
LINE
  5
4AE
100
AcDbEntity
  8
0
  6
CENTER
 62
     7
100
AcDbLine
 10
90.0
 20
45.450001
 30
0.0
 11
90.0
 21
38.950001
 31
0.0
  0
LINE
  5
4AF
100
AcDbEntity
  8
0
  6
CONTINUOUS
 62
     7
100
AcDbLine
 10
105.0
 20
40.200001
 30
0.0
 11
105.0
 21
48.200001
 31
0.0
  0
LINE
  5
4B0
100
AcDbEntity
  8
0
  6
CENTER
 62
     7
100
AcDbLine
 10
100.0
 20
45.450001
 30
0.0
 11
100.0
 21
38.950001
 31
0.0
  0
LINE
  5
4B1
100
AcDbEntity
  8
0
  6
CONTINUOUS
 62
     7
100
AcDbLine
 10
103.0
 20
38.200001
 30
0.0
 11
87.0
 21
38.200001
 31
0.0
  0
LINE
  5
4B2
100
AcDbEntity
  8
0
  6
CONTINUOUS
 62
     7
100
AcDbLine
 10
105.0
 20
48.200001
 30
0.0
 11
69.381643
 21
48.200001
 31
0.0
  0
LINE
  5
4B3
100
AcDbEntity
  8
0
  6
CONTINUOUS
 62
     7
100
AcDbLine
 10
105.0
 20
47.000001
 30
0.0
 11
69.381643
 21
47.000001
 31
0.0
  0
ARC
  5
4B4
100
AcDbEntity
  8
0
  6
CONTINUOUS
 62
     7
100
AcDbCircle
 10
87.0
 20
79.799999
 30
0.0
 40
2.0
100
AcDbArc
 50
90.000003
 51
180.00001
  0
ARC
  5
4B5
100
AcDbEntity
  8
0
  6
CONTINUOUS
 62
     7
100
AcDbCircle
 10
103.0
 20
79.799999
 30
0.0
 40
2.0
100
AcDbArc
 50
0.0
 51
90.000003
  0
CIRCLE
  5
4B6
100
AcDbEntity
  8
0
  6
CONTINUOUS
 62
     7
100
AcDbCircle
 10
90.0
 20
77.799999
 30
0.0
 40
2.25
  0
CIRCLE
  5
4B7
100
AcDbEntity
  8
0
  6
CONTINUOUS
 62
     7
100
AcDbCircle
 10
100.0
 20
77.799999
 30
0.0
 40
2.25
  0
CIRCLE
  5
4B8
100
AcDbEntity
  8
0
  6
CONTINUOUS
 62
     7
100
AcDbCircle
 10
100.0
 20
42.200001
 30
0.0
 40
2.25
  0
CIRCLE
  5
4B9
100
AcDbEntity
  8
0
  6
CONTINUOUS
 62
     7
100
AcDbCircle
 10
90.0
 20
42.200001
 30
0.0
 40
2.25
  0
ARC
  5
4BA
100
AcDbEntity
  8
0
  6
CONTINUOUS
 62
     7
100
AcDbCircle
 10
103.0
 20
40.200001
 30
0.0
 40
2.0
100
AcDbArc
 50
270.0
 51
0.0
  0
ARC
  5
4BB
100
AcDbEntity
  8
0
  6
CONTINUOUS
 62
     7
100
AcDbCircle
 10
87.0
 20
40.200001
 30
0.0
 40
2.0
100
AcDbArc
 50
179.99999
 51
270.0
  0
POINT
  5
4BC
100
AcDbEntity
  8
0
  6
CONTINUOUS
 62
     7
100
AcDbPoint
 10
90.0
 20
-5.0
 30
0.0
  0
POINT
  5
4BD
100
AcDbEntity
  8
0
  6
CONTINUOUS
 62
     7
100
AcDbPoint
 10
100.0
 20
-5.0
 30
0.0
  0
LINE
  5
4BE
100
AcDbEntity
  8
0
  6
CONTINUOUS
 62
     7
100
AcDbLine
 10
105.0
 20
-5.0
 30
0.0
 11
85.0
 21
-5.0
 31
0.0
  0
LINE
  5
4BF
100
AcDbEntity
  8
0
  6
CENTER
 62
     7
100
AcDbLine
 10
43.959999
 20
5.0
 30
0.0
 11
56.040001
 21
5.0
 31
0.0
  0
LINE
  5
4C0
100
AcDbEntity
  8
0
  6
CENTER
 62
     7
100
AcDbLine
 10
68.959999
 20
5.0
 30
0.0
 11
81.04
 21
5.0
 31
0.0
  0
LINE
  5
4C1
100
AcDbEntity
  8
0
  6
CENTER
 62
     7
100
AcDbLine
 10
75.0
 20
-1.04
 30
0.0
 11
75.0
 21
11.040001
 31
0.0
  0
LINE
  5
4C2
100
AcDbEntity
  8
0
  6
CONTINUOUS
 62
     7
100
AcDbLine
 10
75.0
 20
15.0
 30
0.0
 11
50.0
 21
15.0
 31
0.0
  0
LINE
  5
4C3
100
AcDbEntity
  8
0
  6
CONTINUOUS
 62
     7
100
AcDbLine
 10
55.690235
 20
14.505165
 30
0.0
 11
57.984264
 21
11.819204
 31
0.0
  0
LINE
  5
4C4
100
AcDbEntity
  8
0
  6
CONTINUOUS
 62
     7
100
AcDbLine
 10
52.0
 20
2.127718
 30
0.0
 11
52.0
 21
7.872281
 31
0.0
  0
LINE
  5
4C5
100
AcDbEntity
  8
0
  6
CENTER
 62
     7
100
AcDbLine
 10
50.0
 20
-1.04
 30
0.0
 11
50.0
 21
11.040001
 31
0.0
  0
LINE
  5
4C6
100
AcDbEntity
  8
0
  6
CONTINUOUS
 62
     7
100
AcDbLine
 10
85.0
 20
-3.799999
 30
0.0
 11
85.0
 21
-4.999996
 31
0.0
  0
LINE
  5
4C7
100
AcDbEntity
  8
0
  6
CONTINUOUS
 62
     7
100
AcDbLine
 10
105.0
 20
-3.799999
 30
0.0
 11
85.0
 21
-3.799999
 31
0.0
  0
LINE
  5
4C8
100
AcDbEntity
  8
0
  6
CENTER
 62
     7
100
AcDbLine
 10
90.0
 20
-5.959198
 30
0.0
 11
90.0
 21
-3.012596
 31
0.0
  0
LINE
  5
4C9
100
AcDbEntity
  8
0
  6
CONTINUOUS
 62
     7
100
AcDbLine
 10
105.0
 20
-4.999996
 30
0.0
 11
105.0
 21
-2.070698
 31
0.0
  0
LINE
  5
4CA
100
AcDbEntity
  8
0
  6
CONTINUOUS
 62
     7
100
AcDbLine
 10
102.26099
 20
2.388696
 30
0.0
 11
79.522993
 21
13.91889
 31
0.0
  0
LINE
  5
4CB
100
AcDbEntity
  8
0
  6
CENTER
 62
     7
100
AcDbLine
 10
100.0
 20
-5.959198
 30
0.0
 11
100.0
 21
-3.012596
 31
0.0
  0
LINE
  5
4CC
100
AcDbEntity
  8
0
  6
CONTINUOUS
 62
     7
100
AcDbLine
 10
82.0
 20
-5.0
 30
0.0
 11
50.0
 21
-5.0
 31
0.0
  0
ARC
  5
4CD
100
AcDbEntity
  8
0
  6
CONTINUOUS
 62
     7
100
AcDbCircle
 10
75.0
 20
5.0
 30
0.0
 40
10.0
100
AcDbArc
 50
270.0
 51
90.000003
  0
ARC
  5
4CE
100
AcDbEntity
  8
0
  6
CONTINUOUS
 62
     7
100
AcDbCircle
 10
50.0
 20
5.0
 30
0.0
 40
10.5
100
AcDbArc
 50
296.08429
 51
40.499999
  0
ARC
  5
4CF
100
AcDbEntity
  8
0
  6
CONTINUOUS
 62
     7
100
AcDbCircle
 10
54.748684
 20
-4.7
 30
0.0
 40
0.3
100
AcDbArc
 50
116.0843
 51
270.0
  0
ARC
  5
4D0
100
AcDbEntity
  8
0
  6
CONTINUOUS
 62
     7
100
AcDbCircle
 10
55.918358
 20
14.700001
 30
0.0
 40
0.3
100
AcDbArc
 50
90.000003
 51
220.49999
  0
CIRCLE
  5
4D1
100
AcDbEntity
  8
0
  6
CONTINUOUS
 62
     7
100
AcDbCircle
 10
50.0
 20
5.0
 30
0.0
 40
3.5
  0
CIRCLE
  5
4D2
100
AcDbEntity
  8
0
  6
CONTINUOUS
 62
     7
100
AcDbCircle
 10
75.0
 20
5.0
 30
0.0
 40
3.5
  0
ARC
  5
4D3
100
AcDbEntity
  8
0
  6
CONTINUOUS
 62
     7
100
AcDbCircle
 10
83.5
 20
-4.999996
 30
0.0
 40
1.5
100
AcDbArc
 50
0.0
 51
180.00001
  0
ARC
  5
4D4
100
AcDbEntity
  8
0
  6
CONTINUOUS
 62
     7
100
AcDbCircle
 10
100.0
 20
-2.070698
 30
0.0
 40
5.0
100
AcDbArc
 50
0.0
 51
63.111699
  0
POINT
  5
4D5
100
AcDbEntity
  8
0
  6
CONTINUOUS
 62
     7
100
AcDbPoint
 10
90.0
 20
-32.200001
 30
0.0
  0
POINT
  5
4D6
100
AcDbEntity
  8
0
  6
CONTINUOUS
 62
     7
100
AcDbPoint
 10
100.0
 20
-32.200001
 30
0.0
  0
LINE
  5
4D7
100
AcDbEntity
  8
0
  6
CONTINUOUS
 62
     7
100
AcDbLine
 10
54.448685
 20
-66.0
 30
0.0
 11
54.448685
 21
-63.0
 31
0.0
  0
LINE
  5
4D8
100
AcDbEntity
  8
0
  6
CONTINUOUS
 62
     7
100
AcDbLine
 10
68.5
 20
-60.0
 30
0.0
 11
68.5
 21
-40.000001
 31
0.0
  0
LINE
  5
4D9
100
AcDbEntity
  8
0
  6
CONTINUOUS
 62
     7
100
AcDbLine
 10
56.5
 20
-60.0
 30
0.0
 11
56.5
 21
-40.000001
 31
0.0
  0
LINE
  5
4DA
100
AcDbEntity
  8
0
  6
CENTER
 62
     7
100
AcDbLine
 10
75.0
 20
-71.0
 30
0.0
 11
75.0
 21
-29.000001
 31
0.0
  0
LINE
  5
4DB
100
AcDbEntity
  8
0
  6
CENTER
 62
     7
100
AcDbLine
 10
50.0
 20
-71.0
 30
0.0
 11
50.0
 21
-29.000001
 31
0.0
  0
LINE
  5
4DC
100
AcDbEntity
  8
0
  6
CONTINUOUS
 62
     7
100
AcDbLine
 10
70.551315
 20
-60.0
 30
0.0
 11
65.5
 21
-60.0
 31
0.0
  0
LINE
  5
4DD
100
AcDbEntity
  8
0
  6
CONTINUOUS
 62
     7
100
AcDbLine
 10
85.0
 20
-63.0
 30
0.0
 11
70.551315
 21
-63.0
 31
0.0
  0
LINE
  5
4DE
100
AcDbEntity
  8
0
  6
CENTER
 62
     7
100
AcDbLine
 10
100.0
 20
-50.0
 30
0.0
 11
35.0
 21
-50.0
 31
0.0
  0
LINE
  5
4DF
100
AcDbEntity
  8
0
  6
CONTINUOUS
 62
     7
100
AcDbLine
 10
85.0
 20
-66.0
 30
0.0
 11
54.448685
 21
-66.0
 31
0.0
  0
LINE
  5
4E0
100
AcDbEntity
  8
0
  6
CONTINUOUS
 62
     7
100
AcDbLine
 10
70.551315
 20
-63.0
 30
0.0
 11
70.551315
 21
-60.0
 31
0.0
  0
LINE
  5
4E1
100
AcDbEntity
  8
0
  6
CONTINUOUS
 62
     7
100
AcDbLine
 10
59.5
 20
-60.0
 30
0.0
 11
45.551319
 21
-60.0
 31
0.0
  0
LINE
  5
4E2
100
AcDbEntity
  8
0
  6
CONTINUOUS
 62
     7
100
AcDbLine
 10
85.0
 20
-34.000001
 30
0.0
 11
54.448685
 21
-34.000001
 31
0.0
  0
LINE
  5
4E3
100
AcDbEntity
  8
0
  6
CONTINUOUS
 62
     7
100
AcDbLine
 10
65.5
 20
-65.100002
 30
0.0
 11
59.5
 21
-65.100002
 31
0.0
  0
LINE
  5
4E4
100
AcDbEntity
  8
0
  6
CONTINUOUS
 62
     7
100
AcDbLine
 10
65.5
 20
-65.100002
 30
0.0
 11
65.5
 21
-60.0
 31
0.0
  0
LINE
  5
4E5
100
AcDbEntity
  8
0
  6
CONTINUOUS
 62
     7
100
AcDbLine
 10
59.5
 20
-65.100002
 30
0.0
 11
59.5
 21
-60.0
 31
0.0
  0
LINE
  5
4E6
100
AcDbEntity
  8
0
  6
CONTINUOUS
 62
     7
100
AcDbLine
 10
67.5
 20
-60.0
 30
0.0
 11
67.5
 21
-40.000001
 31
0.0
  0
LINE
  5
4E7
100
AcDbEntity
  8
0
  6
CONTINUOUS
 62
     7
100
AcDbLine
 10
57.5
 20
-60.0
 30
0.0
 11
57.5
 21
-40.000001
 31
0.0
  0
LINE
  5
4E8
100
AcDbEntity
  8
0
  6
CONTINUOUS
 62
     7
100
AcDbLine
 10
65.5
 20
-64.5
 30
0.0
 11
59.5
 21
-64.5
 31
0.0
  0
LINE
  5
4E9
100
AcDbEntity
  8
0
  6
CONTINUOUS
 62
     7
100
AcDbLine
 10
85.0
 20
-37.000001
 30
0.0
 11
70.551315
 21
-37.000001
 31
0.0
  0
LINE
  5
4EA
100
AcDbEntity
  8
0
  6
CONTINUOUS
 62
     7
100
AcDbLine
 10
70.551315
 20
-40.000001
 30
0.0
 11
65.5
 21
-40.000001
 31
0.0
  0
LINE
  5
4EB
100
AcDbEntity
  8
0
  6
CENTER
 62
     7
100
AcDbLine
 10
100.0
 20
-64.549999
 30
0.0
 11
100.0
 21
-71.049999
 31
0.0
  0
LINE
  5
4EC
100
AcDbEntity
  8
0
  6
CONTINUOUS
 62
     7
100
AcDbLine
 10
54.448685
 20
-34.000001
 30
0.0
 11
54.448685
 21
-37.000001
 31
0.0
  0
LINE
  5
4ED
100
AcDbEntity
  8
0
  6
CONTINUOUS
 62
     7
100
AcDbLine
 10
70.551315
 20
-37.000001
 30
0.0
 11
70.551315
 21
-40.000001
 31
0.0
  0
LINE
  5
4EE
100
AcDbEntity
  8
0
  6
CONTINUOUS
 62
     7
100
AcDbLine
 10
65.5
 20
-34.900001
 30
0.0
 11
59.5
 21
-34.900001
 31
0.0
  0
LINE
  5
4EF
100
AcDbEntity
  8
0
  6
CONTINUOUS
 62
     7
100
AcDbLine
 10
65.5
 20
-34.900001
 30
0.0
 11
65.5
 21
-40.000001
 31
0.0
  0
LINE
  5
4F0
100
AcDbEntity
  8
0
  6
CONTINUOUS
 62
     7
100
AcDbLine
 10
59.5
 20
-34.900001
 30
0.0
 11
59.5
 21
-40.000001
 31
0.0
  0
LINE
  5
4F1
100
AcDbEntity
  8
0
  6
CONTINUOUS
 62
     7
100
AcDbLine
 10
65.5
 20
-35.500001
 30
0.0
 11
59.5
 21
-35.500001
 31
0.0
  0
LINE
  5
4F2
100
AcDbEntity
  8
0
  6
CENTER
 62
     7
100
AcDbLine
 10
67.5
 20
-37.200001
 30
0.0
 11
57.5
 21
-37.200001
 31
0.0
  0
LINE
  5
4F3
100
AcDbEntity
  8
0
  6
CENTER
 62
     7
100
AcDbLine
 10
67.5
 20
-62.800001
 30
0.0
 11
57.5
 21
-62.800001
 31
0.0
  0
LINE
  5
4F4
100
AcDbEntity
  8
0
  6
CONTINUOUS
 62
     7
100
AcDbLine
 10
59.5
 20
-40.000001
 30
0.0
 11
45.551319
 21
-40.000001
 31
0.0
  0
LINE
  5
4F5
100
AcDbEntity
  8
0
  6
CONTINUOUS
 62
     7
100
AcDbLine
 10
54.448685
 20
-63.0
 30
0.0
 11
45.551319
 21
-63.0
 31
0.0
  0
LINE
  5
4F6
100
AcDbEntity
  8
0
  6
CONTINUOUS
 62
     7
100
AcDbLine
 10
54.448685
 20
-37.000001
 30
0.0
 11
45.551319
 21
-37.000001
 31
0.0
  0
LINE
  5
4F7
100
AcDbEntity
  8
0
  6
CONTINUOUS
 62
     7
100
AcDbLine
 10
103.0
 20
-71.799999
 30
0.0
 11
87.0
 21
-71.799999
 31
0.0
  0
LINE
  5
4F8
100
AcDbEntity
  8
0
  6
CONTINUOUS
 62
     7
100
AcDbLine
 10
105.0
 20
-69.799999
 30
0.0
 11
105.0
 21
-61.800001
 31
0.0
  0
LINE
  5
4F9
100
AcDbEntity
  8
0
  6
CENTER
 62
     7
100
AcDbLine
 10
90.0
 20
-64.549999
 30
0.0
 11
90.0
 21
-71.049999
 31
0.0
  0
LINE
  5
4FA
100
AcDbEntity
  8
0
  6
CENTER
 62
     7
100
AcDbLine
 10
86.75
 20
-67.799999
 30
0.0
 11
93.25
 21
-67.799999
 31
0.0
  0
LINE
  5
4FB
100
AcDbEntity
  8
0
  6
CONTINUOUS
 62
     7
100
AcDbLine
 10
85.0
 20
-69.799999
 30
0.0
 11
85.0
 21
-61.800001
 31
0.0
  0
LINE
  5
4FC
100
AcDbEntity
  8
0
  6
CENTER
 62
     7
100
AcDbLine
 10
96.75
 20
-67.799999
 30
0.0
 11
103.25
 21
-67.799999
 31
0.0
  0
LINE
  5
4FD
100
AcDbEntity
  8
0
  6
CENTER
 62
     7
100
AcDbLine
 10
96.75
 20
-32.200001
 30
0.0
 11
103.25
 21
-32.200001
 31
0.0
  0
LINE
  5
4FE
100
AcDbEntity
  8
0
  6
CONTINUOUS
 62
     7
100
AcDbLine
 10
85.0
 20
-30.200001
 30
0.0
 11
85.0
 21
-38.200001
 31
0.0
  0
LINE
  5
4FF
100
AcDbEntity
  8
0
  6
CENTER
 62
     7
100
AcDbLine
 10
86.75
 20
-32.200001
 30
0.0
 11
93.25
 21
-32.200001
 31
0.0
  0
LINE
  5
500
100
AcDbEntity
  8
0
  6
CENTER
 62
     7
100
AcDbLine
 10
90.0
 20
-35.450001
 30
0.0
 11
90.0
 21
-28.950001
 31
0.0
  0
LINE
  5
501
100
AcDbEntity
  8
0
  6
CONTINUOUS
 62
     7
100
AcDbLine
 10
105.0
 20
-30.200001
 30
0.0
 11
105.0
 21
-38.200001
 31
0.0
  0
LINE
  5
502
100
AcDbEntity
  8
0
  6
CENTER
 62
     7
100
AcDbLine
 10
100.0
 20
-35.450001
 30
0.0
 11
100.0
 21
-28.950001
 31
0.0
  0
LINE
  5
503
100
AcDbEntity
  8
0
  6
CONTINUOUS
 62
     7
100
AcDbLine
 10
103.0
 20
-28.200001
 30
0.0
 11
87.0
 21
-28.200001
 31
0.0
  0
LINE
  5
504
100
AcDbEntity
  8
0
  6
CONTINUOUS
 62
     7
100
AcDbLine
 10
105.0
 20
-38.200001
 30
0.0
 11
70.551315
 21
-38.200001
 31
0.0
  0
LINE
  5
505
100
AcDbEntity
  8
0
  6
CONTINUOUS
 62
     7
100
AcDbLine
 10
105.0
 20
-61.800001
 30
0.0
 11
70.551315
 21
-61.800001
 31
0.0
  0
ARC
  5
506
100
AcDbEntity
  8
0
  6
CONTINUOUS
 62
     7
100
AcDbCircle
 10
87.0
 20
-69.799999
 30
0.0
 40
2.0
100
AcDbArc
 50
179.99999
 51
270.0
  0
ARC
  5
507
100
AcDbEntity
  8
0
  6
CONTINUOUS
 62
     7
100
AcDbCircle
 10
103.0
 20
-69.799999
 30
0.0
 40
2.0
100
AcDbArc
 50
270.0
 51
0.0
  0
CIRCLE
  5
508
100
AcDbEntity
  8
0
  6
CONTINUOUS
 62
     7
100
AcDbCircle
 10
90.0
 20
-67.799999
 30
0.0
 40
2.25
  0
CIRCLE
  5
509
100
AcDbEntity
  8
0
  6
CONTINUOUS
 62
     7
100
AcDbCircle
 10
100.0
 20
-67.799999
 30
0.0
 40
2.25
  0
CIRCLE
  5
50A
100
AcDbEntity
  8
0
  6
CONTINUOUS
 62
     7
100
AcDbCircle
 10
100.0
 20
-32.200001
 30
0.0
 40
2.25
  0
CIRCLE
  5
50B
100
AcDbEntity
  8
0
  6
CONTINUOUS
 62
     7
100
AcDbCircle
 10
90.0
 20
-32.200001
 30
0.0
 40
2.25
  0
ARC
  5
50C
100
AcDbEntity
  8
0
  6
CONTINUOUS
 62
     7
100
AcDbCircle
 10
103.0
 20
-30.200001
 30
0.0
 40
2.0
100
AcDbArc
 50
0.0
 51
90.000003
  0
ARC
  5
50D
100
AcDbEntity
  8
0
  6
CONTINUOUS
 62
     7
100
AcDbCircle
 10
87.0
 20
-30.200001
 30
0.0
 40
2.0
100
AcDbArc
 50
90.000003
 51
180.00001
  0
POINT
  5
50E
100
AcDbEntity
  8
0
  6
CONTINUOUS
 62
     7
100
AcDbPoint
 10
135.0
 20
-5.0
 30
0.0
  0
POINT
  5
50F
100
AcDbEntity
  8
0
  6
CONTINUOUS
 62
     7
100
AcDbPoint
 10
170.6
 20
-5.0
 30
0.0
  0
LINE
  5
510
100
AcDbEntity
  8
0
  6
CONTINUOUS
 62
     7
100
AcDbLine
 10
164.6
 20
-5.0
 30
0.0
 11
164.6
 21
15.0
 31
0.0
  0
LINE
  5
511
100
AcDbEntity
  8
0
  6
CENTER
 62
     7
100
AcDbLine
 10
131.8
 20
5.0
 30
0.0
 11
173.8
 21
5.0
 31
0.0
  0
LINE
  5
512
100
AcDbEntity
  8
0
  6
CONTINUOUS
 62
     7
100
AcDbLine
 10
168.8
 20
-3.8
 30
0.0
 11
168.8
 21
15.0
 31
0.0
  0
LINE
  5
513
100
AcDbEntity
  8
0
  6
CONTINUOUS
 62
     7
100
AcDbLine
 10
174.6
 20
-3.8
 30
0.0
 11
165.8
 21
-3.8
 31
0.0
  0
LINE
  5
514
100
AcDbEntity
  8
0
  6
CONTINUOUS
 62
     7
100
AcDbLine
 10
131.0
 20
-5.0
 30
0.0
 11
174.6
 21
-5.0
 31
0.0
  0
LINE
  5
515
100
AcDbEntity
  8
0
  6
CONTINUOUS
 62
     7
100
AcDbLine
 10
165.8
 20
-3.8
 30
0.0
 11
165.8
 21
15.0
 31
0.0
  0
LINE
  5
516
100
AcDbEntity
  8
0
  6
CONTINUOUS
 62
     7
100
AcDbLine
 10
174.6
 20
-5.0
 30
0.0
 11
174.6
 21
-3.8
 31
0.0
  0
LINE
  5
517
100
AcDbEntity
  8
0
  6
CONTINUOUS
 62
     7
100
AcDbLine
 10
162.8
 20
-5.0
 30
0.0
 11
162.8
 21
15.0
 31
0.0
  0
LINE
  5
518
100
AcDbEntity
  8
0
  6
CONTINUOUS
 62
     7
100
AcDbLine
 10
131.0
 20
-5.0
 30
0.0
 11
131.0
 21
-3.8
 31
0.0
  0
LINE
  5
519
100
AcDbEntity
  8
0
  6
CENTER
 62
     7
100
AcDbLine
 10
135.0
 20
-7.0
 30
0.0
 11
135.0
 21
-0.3
 31
0.0
  0
LINE
  5
51A
100
AcDbEntity
  8
0
  6
CENTER
 62
     7
100
AcDbLine
 10
170.6
 20
-7.0
 30
0.0
 11
170.6
 21
-0.3
 31
0.0
  0
LINE
  5
51B
100
AcDbEntity
  8
0
  6
CONTINUOUS
 62
     7
100
AcDbLine
 10
139.8
 20
-3.8
 30
0.0
 11
139.8
 21
15.0
 31
0.0
  0
LINE
  5
51C
100
AcDbEntity
  8
0
  6
CONTINUOUS
 62
     7
100
AcDbLine
 10
142.8
 20
-5.0
 30
0.0
 11
142.8
 21
15.0
 31
0.0
  0
LINE
  5
51D
100
AcDbEntity
  8
0
  6
CENTER
 62
     7
100
AcDbLine
 10
152.8
 20
-10.0
 30
0.0
 11
152.8
 21
20.0
 31
0.0
  0
LINE
  5
51E
100
AcDbEntity
  8
0
  6
CONTINUOUS
 62
     7
100
AcDbLine
 10
136.8
 20
-3.8
 30
0.0
 11
136.8
 21
15.0
 31
0.0
  0
LINE
  5
51F
100
AcDbEntity
  8
0
  6
CONTINUOUS
 62
     7
100
AcDbLine
 10
131.0
 20
-3.8
 30
0.0
 11
139.8
 21
-3.8
 31
0.0
  0
LINE
  5
520
100
AcDbEntity
  8
0
  6
CONTINUOUS
 62
     7
100
AcDbLine
 10
136.8
 20
15.0
 30
0.0
 11
168.8
 21
15.0
 31
0.0
  0
LINE
  5
521
100
AcDbEntity
  8
0
  6
CONTINUOUS
 62
     7
100
AcDbLine
 10
142.8
 20
-2.7
 30
0.0
 11
162.8
 21
-2.7
 31
0.0
  0
LINE
  5
522
100
AcDbEntity
  8
0
  6
CONTINUOUS
 62
     7
100
AcDbLine
 10
142.8
 20
-2.0
 30
0.0
 11
162.8
 21
-2.0
 31
0.0
  0
LINE
  5
523
100
AcDbEntity
  8
0
  6
CONTINUOUS
 62
     7
100
AcDbLine
 10
142.8
 20
12.0
 30
0.0
 11
162.8
 21
12.0
 31
0.0
  0
LINE
  5
524
100
AcDbEntity
  8
0
  6
CONTINUOUS
 62
     7
100
AcDbLine
 10
141.0
 20
-5.0
 30
0.0
 11
141.0
 21
15.0
 31
0.0
  0
POINT
  5
525
100
AcDbEntity
  8
0
  6
CONTINUOUS
 62
     7
100
AcDbPoint
 10
250.0
 20
42.200001
 30
0.0
  0
POINT
  5
526
100
AcDbEntity
  8
0
  6
CONTINUOUS
 62
     7
100
AcDbPoint
 10
260.0
 20
42.200001
 30
0.0
  0
LINE
  5
527
100
AcDbEntity
  8
0
  6
CONTINUOUS
 62
     7
100
AcDbLine
 10
245.0
 20
44.000001
 30
0.0
 11
215.61836
 21
44.000001
 31
0.0
  0
LINE
  5
528
100
AcDbEntity
  8
0
  6
CONTINUOUS
 62
     7
100
AcDbLine
 10
215.61836
 20
73.0
 30
0.0
 11
204.38164
 21
73.0
 31
0.0
  0
LINE
  5
529
100
AcDbEntity
  8
0
  6
CONTINUOUS
 62
     7
100
AcDbLine
 10
229.38164
 20
47.000001
 30
0.0
 11
229.38164
 21
50.000001
 31
0.0
  0
LINE
  5
52A
100
AcDbEntity
  8
0
  6
CENTER
 62
     7
100
AcDbLine
 10
260.0
 20
60.0
 30
0.0
 11
195.0
 21
60.0
 31
0.0
  0
LINE
  5
52B
100
AcDbEntity
  8
0
  6
CONTINUOUS
 62
     7
100
AcDbLine
 10
229.38164
 20
50.000001
 30
0.0
 11
228.5
 21
50.000001
 31
0.0
  0
LINE
  5
52C
100
AcDbEntity
  8
0
  6
CENTER
 62
     7
100
AcDbLine
 10
210.0
 20
39.000001
 30
0.0
 11
210.0
 21
81.0
 31
0.0
  0
LINE
  5
52D
100
AcDbEntity
  8
0
  6
CENTER
 62
     7
100
AcDbLine
 10
235.0
 20
39.000001
 30
0.0
 11
235.0
 21
81.0
 31
0.0
  0
LINE
  5
52E
100
AcDbEntity
  8
0
  6
CONTINUOUS
 62
     7
100
AcDbLine
 10
216.5
 20
50.000001
 30
0.0
 11
216.5
 21
70.0
 31
0.0
  0
LINE
  5
52F
100
AcDbEntity
  8
0
  6
CONTINUOUS
 62
     7
100
AcDbLine
 10
228.5
 20
50.000001
 30
0.0
 11
228.5
 21
70.0
 31
0.0
  0
LINE
  5
530
100
AcDbEntity
  8
0
  6
CONTINUOUS
 62
     7
100
AcDbLine
 10
229.38164
 20
70.0
 30
0.0
 11
229.38164
 21
73.0
 31
0.0
  0
LINE
  5
531
100
AcDbEntity
  8
0
  6
CONTINUOUS
 62
     7
100
AcDbLine
 10
215.61836
 20
73.0
 30
0.0
 11
215.61836
 21
76.0
 31
0.0
  0
LINE
  5
532
100
AcDbEntity
  8
0
  6
CONTINUOUS
 62
     7
100
AcDbLine
 10
216.5
 20
50.000001
 30
0.0
 11
204.38164
 21
50.000001
 31
0.0
  0
LINE
  5
533
100
AcDbEntity
  8
0
  6
CONTINUOUS
 62
     7
100
AcDbLine
 10
245.0
 20
76.0
 30
0.0
 11
215.61836
 21
76.0
 31
0.0
  0
LINE
  5
534
100
AcDbEntity
  8
0
  6
CONTINUOUS
 62
     7
100
AcDbLine
 10
245.0
 20
73.0
 30
0.0
 11
229.38164
 21
73.0
 31
0.0
  0
LINE
  5
535
100
AcDbEntity
  8
0
  6
CONTINUOUS
 62
     7
100
AcDbLine
 10
229.38164
 20
70.0
 30
0.0
 11
228.5
 21
70.0
 31
0.0
  0
LINE
  5
536
100
AcDbEntity
  8
0
  6
CONTINUOUS
 62
     7
100
AcDbLine
 10
216.5
 20
70.0
 30
0.0
 11
204.38164
 21
70.0
 31
0.0
  0
LINE
  5
537
100
AcDbEntity
  8
0
  6
CONTINUOUS
 62
     7
100
AcDbLine
 10
215.61836
 20
44.000001
 30
0.0
 11
215.61836
 21
47.000001
 31
0.0
  0
LINE
  5
538
100
AcDbEntity
  8
0
  6
CONTINUOUS
 62
     7
100
AcDbLine
 10
215.61836
 20
47.000001
 30
0.0
 11
204.38164
 21
47.000001
 31
0.0
  0
LINE
  5
539
100
AcDbEntity
  8
0
  6
CONTINUOUS
 62
     7
100
AcDbLine
 10
265.0
 20
71.800001
 30
0.0
 11
229.38164
 21
71.800001
 31
0.0
  0
LINE
  5
53A
100
AcDbEntity
  8
0
  6
CONTINUOUS
 62
     7
100
AcDbLine
 10
263.0
 20
81.799999
 30
0.0
 11
247.0
 21
81.799999
 31
0.0
  0
LINE
  5
53B
100
AcDbEntity
  8
0
  6
CENTER
 62
     7
100
AcDbLine
 10
260.0
 20
74.549999
 30
0.0
 11
260.0
 21
81.049999
 31
0.0
  0
LINE
  5
53C
100
AcDbEntity
  8
0
  6
CONTINUOUS
 62
     7
100
AcDbLine
 10
265.0
 20
79.799999
 30
0.0
 11
265.0
 21
71.800001
 31
0.0
  0
LINE
  5
53D
100
AcDbEntity
  8
0
  6
CENTER
 62
     7
100
AcDbLine
 10
250.0
 20
74.549999
 30
0.0
 11
250.0
 21
81.049999
 31
0.0
  0
LINE
  5
53E
100
AcDbEntity
  8
0
  6
CENTER
 62
     7
100
AcDbLine
 10
246.75
 20
77.799999
 30
0.0
 11
253.25
 21
77.799999
 31
0.0
  0
LINE
  5
53F
100
AcDbEntity
  8
0
  6
CONTINUOUS
 62
     7
100
AcDbLine
 10
245.0
 20
79.799999
 30
0.0
 11
245.0
 21
71.800001
 31
0.0
  0
LINE
  5
540
100
AcDbEntity
  8
0
  6
CENTER
 62
     7
100
AcDbLine
 10
256.75
 20
77.799999
 30
0.0
 11
263.25
 21
77.799999
 31
0.0
  0
LINE
  5
541
100
AcDbEntity
  8
0
  6
CENTER
 62
     7
100
AcDbLine
 10
256.75
 20
42.200001
 30
0.0
 11
263.25
 21
42.200001
 31
0.0
  0
LINE
  5
542
100
AcDbEntity
  8
0
  6
CONTINUOUS
 62
     7
100
AcDbLine
 10
245.0
 20
40.200001
 30
0.0
 11
245.0
 21
48.200001
 31
0.0
  0
LINE
  5
543
100
AcDbEntity
  8
0
  6
CENTER
 62
     7
100
AcDbLine
 10
246.75
 20
42.200001
 30
0.0
 11
253.25
 21
42.200001
 31
0.0
  0
LINE
  5
544
100
AcDbEntity
  8
0
  6
CENTER
 62
     7
100
AcDbLine
 10
250.0
 20
45.450001
 30
0.0
 11
250.0
 21
38.950001
 31
0.0
  0
LINE
  5
545
100
AcDbEntity
  8
0
  6
CONTINUOUS
 62
     7
100
AcDbLine
 10
265.0
 20
40.200001
 30
0.0
 11
265.0
 21
48.200001
 31
0.0
  0
LINE
  5
546
100
AcDbEntity
  8
0
  6
CENTER
 62
     7
100
AcDbLine
 10
260.0
 20
45.450001
 30
0.0
 11
260.0
 21
38.950001
 31
0.0
  0
LINE
  5
547
100
AcDbEntity
  8
0
  6
CONTINUOUS
 62
     7
100
AcDbLine
 10
263.0
 20
38.200001
 30
0.0
 11
247.0
 21
38.200001
 31
0.0
  0
LINE
  5
548
100
AcDbEntity
  8
0
  6
CONTINUOUS
 62
     7
100
AcDbLine
 10
265.0
 20
48.200001
 30
0.0
 11
229.38164
 21
48.200001
 31
0.0
  0
LINE
  5
549
100
AcDbEntity
  8
0
  6
CONTINUOUS
 62
     7
100
AcDbLine
 10
245.0
 20
47.000001
 30
0.0
 11
229.38164
 21
47.000001
 31
0.0
  0
ARC
  5
54A
100
AcDbEntity
  8
0
  6
CONTINUOUS
 62
     7
100
AcDbCircle
 10
247.0
 20
79.799999
 30
0.0
 40
2.0
100
AcDbArc
 50
90.000003
 51
180.00001
  0
ARC
  5
54B
100
AcDbEntity
  8
0
  6
CONTINUOUS
 62
     7
100
AcDbCircle
 10
263.0
 20
79.799999
 30
0.0
 40
2.0
100
AcDbArc
 50
0.0
 51
90.000003
  0
CIRCLE
  5
54C
100
AcDbEntity
  8
0
  6
CONTINUOUS
 62
     7
100
AcDbCircle
 10
250.0
 20
77.799999
 30
0.0
 40
2.25
  0
CIRCLE
  5
54D
100
AcDbEntity
  8
0
  6
CONTINUOUS
 62
     7
100
AcDbCircle
 10
260.0
 20
77.799999
 30
0.0
 40
2.25
  0
CIRCLE
  5
54E
100
AcDbEntity
  8
0
  6
CONTINUOUS
 62
     7
100
AcDbCircle
 10
260.0
 20
42.200001
 30
0.0
 40
2.25
  0
CIRCLE
  5
54F
100
AcDbEntity
  8
0
  6
CONTINUOUS
 62
     7
100
AcDbCircle
 10
250.0
 20
42.200001
 30
0.0
 40
2.25
  0
ARC
  5
550
100
AcDbEntity
  8
0
  6
CONTINUOUS
 62
     7
100
AcDbCircle
 10
263.0
 20
40.200001
 30
0.0
 40
2.0
100
AcDbArc
 50
270.0
 51
0.0
  0
ARC
  5
551
100
AcDbEntity
  8
0
  6
CONTINUOUS
 62
     7
100
AcDbCircle
 10
247.0
 20
40.200001
 30
0.0
 40
2.0
100
AcDbArc
 50
179.99999
 51
270.0
  0
POINT
  5
552
100
AcDbEntity
  8
0
  6
CONTINUOUS
 62
     7
100
AcDbPoint
 10
250.0
 20
15.0
 30
0.0
  0
POINT
  5
553
100
AcDbEntity
  8
0
  6
CONTINUOUS
 62
     7
100
AcDbPoint
 10
260.0
 20
15.0
 30
0.0
  0
LINE
  5
554
100
AcDbEntity
  8
0
  6
CONTINUOUS
 62
     7
100
AcDbLine
 10
265.0
 20
15.0
 30
0.0
 11
245.0
 21
15.0
 31
0.0
  0
LINE
  5
555
100
AcDbEntity
  8
0
  6
CENTER
 62
     7
100
AcDbLine
 10
203.96
 20
5.0
 30
0.0
 11
216.04
 21
5.0
 31
0.0
  0
LINE
  5
556
100
AcDbEntity
  8
0
  6
CENTER
 62
     7
100
AcDbLine
 10
228.96
 20
5.0
 30
0.0
 11
241.04
 21
5.0
 31
0.0
  0
LINE
  5
557
100
AcDbEntity
  8
0
  6
CENTER
 62
     7
100
AcDbLine
 10
235.0
 20
-1.040001
 30
0.0
 11
235.0
 21
11.04
 31
0.0
  0
LINE
  5
558
100
AcDbEntity
  8
0
  6
CONTINUOUS
 62
     7
100
AcDbLine
 10
242.0
 20
15.0
 30
0.0
 11
210.0
 21
15.0
 31
0.0
  0
LINE
  5
559
100
AcDbEntity
  8
0
  6
CONTINUOUS
 62
     7
100
AcDbLine
 10
215.69024
 20
14.505166
 30
0.0
 11
217.98426
 21
11.819206
 31
0.0
  0
LINE
  5
55A
100
AcDbEntity
  8
0
  6
CONTINUOUS
 62
     7
100
AcDbLine
 10
212.0
 20
2.127719
 30
0.0
 11
212.0
 21
7.872282
 31
0.0
  0
LINE
  5
55B
100
AcDbEntity
  8
0
  6
CENTER
 62
     7
100
AcDbLine
 10
210.0
 20
-1.040001
 30
0.0
 11
210.0
 21
11.04
 31
0.0
  0
LINE
  5
55C
100
AcDbEntity
  8
0
  6
CONTINUOUS
 62
     7
100
AcDbLine
 10
245.0
 20
13.799999
 30
0.0
 11
245.0
 21
14.999996
 31
0.0
  0
LINE
  5
55D
100
AcDbEntity
  8
0
  6
CONTINUOUS
 62
     7
100
AcDbLine
 10
265.0
 20
13.799999
 30
0.0
 11
245.0
 21
13.799999
 31
0.0
  0
LINE
  5
55E
100
AcDbEntity
  8
0
  6
CENTER
 62
     7
100
AcDbLine
 10
250.0
 20
15.959198
 30
0.0
 11
250.0
 21
13.012596
 31
0.0
  0
LINE
  5
55F
100
AcDbEntity
  8
0
  6
CONTINUOUS
 62
     7
100
AcDbLine
 10
265.0
 20
14.999996
 30
0.0
 11
265.0
 21
12.070698
 31
0.0
  0
LINE
  5
560
100
AcDbEntity
  8
0
  6
CONTINUOUS
 62
     7
100
AcDbLine
 10
262.26099
 20
7.611304
 30
0.0
 11
239.52299
 21
-3.91889
 31
0.0
  0
LINE
  5
561
100
AcDbEntity
  8
0
  6
CENTER
 62
     7
100
AcDbLine
 10
260.0
 20
15.959198
 30
0.0
 11
260.0
 21
13.012596
 31
0.0
  0
LINE
  5
562
100
AcDbEntity
  8
0
  6
CONTINUOUS
 62
     7
100
AcDbLine
 10
235.0
 20
-5.0
 30
0.0
 11
210.0
 21
-5.0
 31
0.0
  0
ARC
  5
563
100
AcDbEntity
  8
0
  6
CONTINUOUS
 62
     7
100
AcDbCircle
 10
210.0
 20
5.0
 30
0.0
 40
10.5
100
AcDbArc
 50
296.08429
 51
40.499999
  0
ARC
  5
564
100
AcDbEntity
  8
0
  6
CONTINUOUS
 62
     7
100
AcDbCircle
 10
214.74868
 20
-4.700001
 30
0.0
 40
0.3
100
AcDbArc
 50
116.0843
 51
270.0
  0
ARC
  5
565
100
AcDbEntity
  8
0
  6
CONTINUOUS
 62
     7
100
AcDbCircle
 10
235.0
 20
5.0
 30
0.0
 40
10.0
100
AcDbArc
 50
270.0
 51
90.000003
  0
ARC
  5
566
100
AcDbEntity
  8
0
  6
CONTINUOUS
 62
     7
100
AcDbCircle
 10
215.91836
 20
14.7
 30
0.0
 40
0.3
100
AcDbArc
 50
90.000003
 51
220.49999
  0
CIRCLE
  5
567
100
AcDbEntity
  8
0
  6
CONTINUOUS
 62
     7
100
AcDbCircle
 10
210.0
 20
5.0
 30
0.0
 40
3.5
  0
CIRCLE
  5
568
100
AcDbEntity
  8
0
  6
CONTINUOUS
 62
     7
100
AcDbCircle
 10
235.0
 20
5.0
 30
0.0
 40
3.5
  0
ARC
  5
569
100
AcDbEntity
  8
0
  6
CONTINUOUS
 62
     7
100
AcDbCircle
 10
243.5
 20
14.999996
 30
0.0
 40
1.5
100
AcDbArc
 50
179.99999
 51
0.00001
  0
ARC
  5
56A
100
AcDbEntity
  8
0
  6
CONTINUOUS
 62
     7
100
AcDbCircle
 10
260.0
 20
12.070698
 30
0.0
 40
5.0
100
AcDbArc
 50
296.8883
 51
0.0
  0
POINT
  5
56B
100
AcDbEntity
  8
0
  6
CONTINUOUS
 62
     7
100
AcDbPoint
 10
250.0
 20
-32.200001
 30
0.0
  0
POINT
  5
56C
100
AcDbEntity
  8
0
  6
CONTINUOUS
 62
     7
100
AcDbPoint
 10
260.0
 20
-32.200001
 30
0.0
  0
LINE
  5
56D
100
AcDbEntity
  8
0
  6
CONTINUOUS
 62
     7
100
AcDbLine
 10
214.44868
 20
-66.0
 30
0.0
 11
214.44868
 21
-63.0
 31
0.0
  0
LINE
  5
56E
100
AcDbEntity
  8
0
  6
CONTINUOUS
 62
     7
100
AcDbLine
 10
228.5
 20
-60.0
 30
0.0
 11
228.5
 21
-40.000001
 31
0.0
  0
LINE
  5
56F
100
AcDbEntity
  8
0
  6
CONTINUOUS
 62
     7
100
AcDbLine
 10
216.5
 20
-60.0
 30
0.0
 11
216.5
 21
-40.000001
 31
0.0
  0
LINE
  5
570
100
AcDbEntity
  8
0
  6
CENTER
 62
     7
100
AcDbLine
 10
235.0
 20
-71.0
 30
0.0
 11
235.0
 21
-29.000001
 31
0.0
  0
LINE
  5
571
100
AcDbEntity
  8
0
  6
CENTER
 62
     7
100
AcDbLine
 10
210.0
 20
-71.0
 30
0.0
 11
210.0
 21
-29.000001
 31
0.0
  0
LINE
  5
572
100
AcDbEntity
  8
0
  6
CONTINUOUS
 62
     7
100
AcDbLine
 10
230.55132
 20
-60.0
 30
0.0
 11
225.5
 21
-60.0
 31
0.0
  0
LINE
  5
573
100
AcDbEntity
  8
0
  6
CONTINUOUS
 62
     7
100
AcDbLine
 10
265.0
 20
-63.0
 30
0.0
 11
230.55132
 21
-63.0
 31
0.0
  0
LINE
  5
574
100
AcDbEntity
  8
0
  6
CENTER
 62
     7
100
AcDbLine
 10
260.0
 20
-50.0
 30
0.0
 11
195.0
 21
-50.0
 31
0.0
  0
LINE
  5
575
100
AcDbEntity
  8
0
  6
CONTINUOUS
 62
     7
100
AcDbLine
 10
245.0
 20
-66.0
 30
0.0
 11
214.44868
 21
-66.0
 31
0.0
  0
LINE
  5
576
100
AcDbEntity
  8
0
  6
CONTINUOUS
 62
     7
100
AcDbLine
 10
230.55132
 20
-63.0
 30
0.0
 11
230.55132
 21
-60.0
 31
0.0
  0
LINE
  5
577
100
AcDbEntity
  8
0
  6
CONTINUOUS
 62
     7
100
AcDbLine
 10
219.5
 20
-60.0
 30
0.0
 11
205.55132
 21
-60.0
 31
0.0
  0
LINE
  5
578
100
AcDbEntity
  8
0
  6
CONTINUOUS
 62
     7
100
AcDbLine
 10
245.0
 20
-34.000001
 30
0.0
 11
214.44868
 21
-34.000001
 31
0.0
  0
LINE
  5
579
100
AcDbEntity
  8
0
  6
CONTINUOUS
 62
     7
100
AcDbLine
 10
225.5
 20
-65.100002
 30
0.0
 11
219.5
 21
-65.100002
 31
0.0
  0
LINE
  5
57A
100
AcDbEntity
  8
0
  6
CONTINUOUS
 62
     7
100
AcDbLine
 10
225.5
 20
-65.100002
 30
0.0
 11
225.5
 21
-60.0
 31
0.0
  0
LINE
  5
57B
100
AcDbEntity
  8
0
  6
CONTINUOUS
 62
     7
100
AcDbLine
 10
219.5
 20
-65.100002
 30
0.0
 11
219.5
 21
-60.0
 31
0.0
  0
LINE
  5
57C
100
AcDbEntity
  8
0
  6
CONTINUOUS
 62
     7
100
AcDbLine
 10
227.5
 20
-60.0
 30
0.0
 11
227.5
 21
-40.000001
 31
0.0
  0
LINE
  5
57D
100
AcDbEntity
  8
0
  6
CONTINUOUS
 62
     7
100
AcDbLine
 10
217.5
 20
-60.0
 30
0.0
 11
217.5
 21
-40.000001
 31
0.0
  0
LINE
  5
57E
100
AcDbEntity
  8
0
  6
CONTINUOUS
 62
     7
100
AcDbLine
 10
225.5
 20
-64.5
 30
0.0
 11
219.5
 21
-64.5
 31
0.0
  0
LINE
  5
57F
100
AcDbEntity
  8
0
  6
CONTINUOUS
 62
     7
100
AcDbLine
 10
265.0
 20
-37.000001
 30
0.0
 11
230.55132
 21
-37.000001
 31
0.0
  0
LINE
  5
580
100
AcDbEntity
  8
0
  6
CONTINUOUS
 62
     7
100
AcDbLine
 10
230.55132
 20
-40.000001
 30
0.0
 11
225.5
 21
-40.000001
 31
0.0
  0
LINE
  5
581
100
AcDbEntity
  8
0
  6
CENTER
 62
     7
100
AcDbLine
 10
260.0
 20
-64.549999
 30
0.0
 11
260.0
 21
-71.049999
 31
0.0
  0
LINE
  5
582
100
AcDbEntity
  8
0
  6
CONTINUOUS
 62
     7
100
AcDbLine
 10
214.44868
 20
-34.000001
 30
0.0
 11
214.44868
 21
-37.000001
 31
0.0
  0
LINE
  5
583
100
AcDbEntity
  8
0
  6
CONTINUOUS
 62
     7
100
AcDbLine
 10
230.55132
 20
-37.000001
 30
0.0
 11
230.55132
 21
-40.000001
 31
0.0
  0
LINE
  5
584
100
AcDbEntity
  8
0
  6
CONTINUOUS
 62
     7
100
AcDbLine
 10
225.5
 20
-34.900001
 30
0.0
 11
219.5
 21
-34.900001
 31
0.0
  0
LINE
  5
585
100
AcDbEntity
  8
0
  6
CONTINUOUS
 62
     7
100
AcDbLine
 10
225.5
 20
-34.900001
 30
0.0
 11
225.5
 21
-40.000001
 31
0.0
  0
LINE
  5
586
100
AcDbEntity
  8
0
  6
CONTINUOUS
 62
     7
100
AcDbLine
 10
219.5
 20
-34.900001
 30
0.0
 11
219.5
 21
-40.000001
 31
0.0
  0
LINE
  5
587
100
AcDbEntity
  8
0
  6
CONTINUOUS
 62
     7
100
AcDbLine
 10
225.5
 20
-35.500001
 30
0.0
 11
219.5
 21
-35.500001
 31
0.0
  0
LINE
  5
588
100
AcDbEntity
  8
0
  6
CENTER
 62
     7
100
AcDbLine
 10
227.5
 20
-37.200001
 30
0.0
 11
217.5
 21
-37.200001
 31
0.0
  0
LINE
  5
589
100
AcDbEntity
  8
0
  6
CENTER
 62
     7
100
AcDbLine
 10
227.5
 20
-62.800001
 30
0.0
 11
217.5
 21
-62.800001
 31
0.0
  0
LINE
  5
58A
100
AcDbEntity
  8
0
  6
CONTINUOUS
 62
     7
100
AcDbLine
 10
219.5
 20
-40.000001
 30
0.0
 11
205.55132
 21
-40.000001
 31
0.0
  0
LINE
  5
58B
100
AcDbEntity
  8
0
  6
CONTINUOUS
 62
     7
100
AcDbLine
 10
214.44868
 20
-63.0
 30
0.0
 11
205.55132
 21
-63.0
 31
0.0
  0
LINE
  5
58C
100
AcDbEntity
  8
0
  6
CONTINUOUS
 62
     7
100
AcDbLine
 10
214.44868
 20
-37.000001
 30
0.0
 11
205.55132
 21
-37.000001
 31
0.0
  0
LINE
  5
58D
100
AcDbEntity
  8
0
  6
CONTINUOUS
 62
     7
100
AcDbLine
 10
263.0
 20
-71.799999
 30
0.0
 11
247.0
 21
-71.799999
 31
0.0
  0
LINE
  5
58E
100
AcDbEntity
  8
0
  6
CONTINUOUS
 62
     7
100
AcDbLine
 10
265.0
 20
-69.799999
 30
0.0
 11
265.0
 21
-61.800001
 31
0.0
  0
LINE
  5
58F
100
AcDbEntity
  8
0
  6
CENTER
 62
     7
100
AcDbLine
 10
250.0
 20
-64.549999
 30
0.0
 11
250.0
 21
-71.049999
 31
0.0
  0
LINE
  5
590
100
AcDbEntity
  8
0
  6
CENTER
 62
     7
100
AcDbLine
 10
246.75
 20
-67.799999
 30
0.0
 11
253.25
 21
-67.799999
 31
0.0
  0
LINE
  5
591
100
AcDbEntity
  8
0
  6
CONTINUOUS
 62
     7
100
AcDbLine
 10
245.0
 20
-69.799999
 30
0.0
 11
245.0
 21
-63.0
 31
0.0
  0
LINE
  5
592
100
AcDbEntity
  8
0
  6
CENTER
 62
     7
100
AcDbLine
 10
256.75
 20
-67.799999
 30
0.0
 11
263.25
 21
-67.799999
 31
0.0
  0
LINE
  5
593
100
AcDbEntity
  8
0
  6
CENTER
 62
     7
100
AcDbLine
 10
256.75
 20
-32.200001
 30
0.0
 11
263.25
 21
-32.200001
 31
0.0
  0
LINE
  5
594
100
AcDbEntity
  8
0
  6
CONTINUOUS
 62
     7
100
AcDbLine
 10
245.0
 20
-30.200001
 30
0.0
 11
245.0
 21
-37.000001
 31
0.0
  0
LINE
  5
595
100
AcDbEntity
  8
0
  6
CENTER
 62
     7
100
AcDbLine
 10
246.75
 20
-32.200001
 30
0.0
 11
253.25
 21
-32.200001
 31
0.0
  0
LINE
  5
596
100
AcDbEntity
  8
0
  6
CENTER
 62
     7
100
AcDbLine
 10
250.0
 20
-35.450001
 30
0.0
 11
250.0
 21
-28.950001
 31
0.0
  0
LINE
  5
597
100
AcDbEntity
  8
0
  6
CONTINUOUS
 62
     7
100
AcDbLine
 10
265.0
 20
-30.200001
 30
0.0
 11
265.0
 21
-38.200001
 31
0.0
  0
LINE
  5
598
100
AcDbEntity
  8
0
  6
CENTER
 62
     7
100
AcDbLine
 10
260.0
 20
-35.450001
 30
0.0
 11
260.0
 21
-28.950001
 31
0.0
  0
LINE
  5
599
100
AcDbEntity
  8
0
  6
CONTINUOUS
 62
     7
100
AcDbLine
 10
263.0
 20
-28.200001
 30
0.0
 11
247.0
 21
-28.200001
 31
0.0
  0
LINE
  5
59A
100
AcDbEntity
  8
0
  6
CONTINUOUS
 62
     7
100
AcDbLine
 10
265.0
 20
-38.200001
 30
0.0
 11
230.55132
 21
-38.200001
 31
0.0
  0
LINE
  5
59B
100
AcDbEntity
  8
0
  6
CONTINUOUS
 62
     7
100
AcDbLine
 10
265.0
 20
-61.800001
 30
0.0
 11
230.55132
 21
-61.800001
 31
0.0
  0
ARC
  5
59C
100
AcDbEntity
  8
0
  6
CONTINUOUS
 62
     7
100
AcDbCircle
 10
247.0
 20
-69.799999
 30
0.0
 40
2.0
100
AcDbArc
 50
179.99999
 51
270.0
  0
ARC
  5
59D
100
AcDbEntity
  8
0
  6
CONTINUOUS
 62
     7
100
AcDbCircle
 10
263.0
 20
-69.799999
 30
0.0
 40
2.0
100
AcDbArc
 50
270.0
 51
0.0
  0
CIRCLE
  5
59E
100
AcDbEntity
  8
0
  6
CONTINUOUS
 62
     7
100
AcDbCircle
 10
250.0
 20
-67.799999
 30
0.0
 40
2.25
  0
CIRCLE
  5
59F
100
AcDbEntity
  8
0
  6
CONTINUOUS
 62
     7
100
AcDbCircle
 10
260.0
 20
-67.799999
 30
0.0
 40
2.25
  0
CIRCLE
  5
5A0
100
AcDbEntity
  8
0
  6
CONTINUOUS
 62
     7
100
AcDbCircle
 10
260.0
 20
-32.200001
 30
0.0
 40
2.25
  0
CIRCLE
  5
5A1
100
AcDbEntity
  8
0
  6
CONTINUOUS
 62
     7
100
AcDbCircle
 10
250.0
 20
-32.200001
 30
0.0
 40
2.25
  0
ARC
  5
5A2
100
AcDbEntity
  8
0
  6
CONTINUOUS
 62
     7
100
AcDbCircle
 10
263.0
 20
-30.200001
 30
0.0
 40
2.0
100
AcDbArc
 50
0.0
 51
90.000003
  0
ARC
  5
5A3
100
AcDbEntity
  8
0
  6
CONTINUOUS
 62
     7
100
AcDbCircle
 10
247.0
 20
-30.200001
 30
0.0
 40
2.0
100
AcDbArc
 50
90.000003
 51
180.00001
  0
POINT
  5
5A4
100
AcDbEntity
  8
0
  6
CONTINUOUS
 62
     7
100
AcDbPoint
 10
295.0
 20
15.0
 30
0.0
  0
POINT
  5
5A5
100
AcDbEntity
  8
0
  6
CONTINUOUS
 62
     7
100
AcDbPoint
 10
330.6
 20
15.0
 30
0.0
  0
LINE
  5
5A6
100
AcDbEntity
  8
0
  6
CONTINUOUS
 62
     7
100
AcDbLine
 10
324.6
 20
-5.0
 30
0.0
 11
324.6
 21
15.0
 31
0.0
  0
LINE
  5
5A7
100
AcDbEntity
  8
0
  6
CENTER
 62
     7
100
AcDbLine
 10
291.8
 20
5.0
 30
0.0
 11
333.8
 21
5.0
 31
0.0
  0
LINE
  5
5A8
100
AcDbEntity
  8
0
  6
CONTINUOUS
 62
     7
100
AcDbLine
 10
328.8
 20
13.8
 30
0.0
 11
328.8
 21
-5.0
 31
0.0
  0
LINE
  5
5A9
100
AcDbEntity
  8
0
  6
CONTINUOUS
 62
     7
100
AcDbLine
 10
334.6
 20
13.8
 30
0.0
 11
325.8
 21
13.8
 31
0.0
  0
LINE
  5
5AA
100
AcDbEntity
  8
0
  6
CONTINUOUS
 62
     7
100
AcDbLine
 10
296.8
 20
-5.0
 30
0.0
 11
328.8
 21
-5.0
 31
0.0
  0
LINE
  5
5AB
100
AcDbEntity
  8
0
  6
CONTINUOUS
 62
     7
100
AcDbLine
 10
325.8
 20
13.8
 30
0.0
 11
325.8
 21
-5.0
 31
0.0
  0
LINE
  5
5AC
100
AcDbEntity
  8
0
  6
CONTINUOUS
 62
     7
100
AcDbLine
 10
334.6
 20
15.0
 30
0.0
 11
334.6
 21
13.8
 31
0.0
  0
LINE
  5
5AD
100
AcDbEntity
  8
0
  6
CONTINUOUS
 62
     7
100
AcDbLine
 10
322.8
 20
-5.0
 30
0.0
 11
322.8
 21
15.0
 31
0.0
  0
LINE
  5
5AE
100
AcDbEntity
  8
0
  6
CONTINUOUS
 62
     7
100
AcDbLine
 10
291.0
 20
15.0
 30
0.0
 11
291.0
 21
13.8
 31
0.0
  0
LINE
  5
5AF
100
AcDbEntity
  8
0
  6
CENTER
 62
     7
100
AcDbLine
 10
295.0
 20
17.0
 30
0.0
 11
295.0
 21
10.3
 31
0.0
  0
LINE
  5
5B0
100
AcDbEntity
  8
0
  6
CENTER
 62
     7
100
AcDbLine
 10
330.6
 20
17.0
 30
0.0
 11
330.6
 21
10.3
 31
0.0
  0
LINE
  5
5B1
100
AcDbEntity
  8
0
  6
CONTINUOUS
 62
     7
100
AcDbLine
 10
299.8
 20
13.8
 30
0.0
 11
299.8
 21
-5.0
 31
0.0
  0
LINE
  5
5B2
100
AcDbEntity
  8
0
  6
CONTINUOUS
 62
     7
100
AcDbLine
 10
302.8
 20
-5.0
 30
0.0
 11
302.8
 21
15.0
 31
0.0
  0
LINE
  5
5B3
100
AcDbEntity
  8
0
  6
CENTER
 62
     7
100
AcDbLine
 10
312.8
 20
-10.0
 30
0.0
 11
312.8
 21
20.0
 31
0.0
  0
LINE
  5
5B4
100
AcDbEntity
  8
0
  6
CONTINUOUS
 62
     7
100
AcDbLine
 10
296.8
 20
13.8
 30
0.0
 11
296.8
 21
-5.0
 31
0.0
  0
LINE
  5
5B5
100
AcDbEntity
  8
0
  6
CONTINUOUS
 62
     7
100
AcDbLine
 10
291.0
 20
13.8
 30
0.0
 11
299.8
 21
13.8
 31
0.0
  0
LINE
  5
5B6
100
AcDbEntity
  8
0
  6
CONTINUOUS
 62
     7
100
AcDbLine
 10
291.0
 20
15.0
 30
0.0
 11
334.6
 21
15.0
 31
0.0
  0
LINE
  5
5B7
100
AcDbEntity
  8
0
  6
CONTINUOUS
 62
     7
100
AcDbLine
 10
302.8
 20
-2.700001
 30
0.0
 11
322.8
 21
-2.700001
 31
0.0
  0
LINE
  5
5B8
100
AcDbEntity
  8
0
  6
CONTINUOUS
 62
     7
100
AcDbLine
 10
302.8
 20
-2.0
 30
0.0
 11
322.8
 21
-2.0
 31
0.0
  0
LINE
  5
5B9
100
AcDbEntity
  8
0
  6
CONTINUOUS
 62
     7
100
AcDbLine
 10
302.8
 20
12.0
 30
0.0
 11
322.8
 21
12.0
 31
0.0
  0
LINE
  5
5BA
100
AcDbEntity
  8
0
  6
CONTINUOUS
 62
     7
100
AcDbLine
 10
301.0
 20
-5.0
 30
0.0
 11
301.0
 21
15.0
 31
0.0
  0
POINT
  5
5BB
100
AcDbEntity
  8
0
  6
CONTINUOUS
 62
     7
100
AcDbPoint
 10
-305.0
 20
-233.0
 30
0.0
  0
POINT
  5
5BC
100
AcDbEntity
  8
0
  6
CONTINUOUS
 62
     7
100
AcDbPoint
 10
-284.0
 20
-233.0
 30
0.0
  0
LINE
  5
5BD
100
AcDbEntity
  8
0
  6
CONTINUOUS
 62
     7
100
AcDbLine
 10
-295.0
 20
-255.84903
 30
0.0
 11
-292.0
 21
-255.84903
 31
0.0
  0
LINE
  5
5BE
100
AcDbEntity
  8
0
  6
CONTINUOUS
 62
     7
100
AcDbLine
 10
-318.0
 20
-273.0
 30
0.0
 11
-318.0
 21
-271.27303
 31
0.0
  0
LINE
  5
5BF
100
AcDbEntity
  8
0
  6
CONTINUOUS
 62
     7
100
AcDbLine
 10
-321.0
 20
-273.0
 30
0.0
 11
-321.0
 21
-193.0
 31
0.0
  0
LINE
  5
5C0
100
AcDbEntity
  8
0
  6
CENTER
 62
     7
100
AcDbLine
 10
-305.0
 20
-283.0
 30
0.0
 11
-305.0
 21
-183.0
 31
0.0
  0
LINE
  5
5C1
100
AcDbEntity
  8
0
  6
CONTINUOUS
 62
     7
100
AcDbLine
 10
-315.0
 20
-273.0
 30
0.0
 11
-315.0
 21
-269.80342
 31
0.0
  0
LINE
  5
5C2
100
AcDbEntity
  8
0
  6
CENTER
 62
     7
100
AcDbLine
 10
-326.0
 20
-255.72648
 30
0.0
 11
-284.0
 21
-255.72648
 31
0.0
  0
LINE
  5
5C3
100
AcDbEntity
  8
0
  6
CENTER
 62
     7
100
AcDbLine
 10
-326.0
 20
-233.0
 30
0.0
 11
-284.0
 21
-233.0
 31
0.0
  0
LINE
  5
5C4
100
AcDbEntity
  8
0
  6
CONTINUOUS
 62
     7
100
AcDbLine
 10
-292.0
 20
-241.21074
 30
0.0
 11
-289.0
 21
-241.21074
 31
0.0
  0
LINE
  5
5C5
100
AcDbEntity
  8
0
  6
CONTINUOUS
 62
     7
100
AcDbLine
 10
-289.9
 20
-251.25707
 30
0.0
 11
-289.9
 21
-245.8027
 31
0.0
  0
LINE
  5
5C6
100
AcDbEntity
  8
0
  6
CONTINUOUS
 62
     7
100
AcDbLine
 10
-320.1
 20
-251.25707
 30
0.0
 11
-320.1
 21
-245.8027
 31
0.0
  0
LINE
  5
5C7
100
AcDbEntity
  8
0
  6
CONTINUOUS
 62
     7
100
AcDbLine
 10
-292.0
 20
-266.58819
 30
0.0
 11
-292.0
 21
-255.84903
 31
0.0
  0
LINE
  5
5C8
100
AcDbEntity
  8
0
  6
CONTINUOUS
 62
     7
100
AcDbLine
 10
-295.0
 20
-268.0578
 30
0.0
 11
-295.0
 21
-251.25707
 31
0.0
  0
LINE
  5
5C9
100
AcDbEntity
  8
0
  6
CONTINUOUS
 62
     7
100
AcDbLine
 10
-289.9
 20
-268.0578
 30
0.0
 11
-289.9
 21
-269.80342
 31
0.0
  0
LINE
  5
5CA
100
AcDbEntity
  8
0
  6
CONTINUOUS
 62
     7
100
AcDbLine
 10
-295.0
 20
-251.25707
 30
0.0
 11
-289.9
 21
-251.25707
 31
0.0
  0
LINE
  5
5CB
100
AcDbEntity
  8
0
  6
CONTINUOUS
 62
     7
100
AcDbLine
 10
-315.0
 20
-245.8027
 30
0.0
 11
-315.0
 21
-220.19727
 31
0.0
  0
LINE
  5
5CC
100
AcDbEntity
  8
0
  6
CONTINUOUS
 62
     7
100
AcDbLine
 10
-315.0
 20
-268.0578
 30
0.0
 11
-315.0
 21
-251.25707
 31
0.0
  0
LINE
  5
5CD
100
AcDbEntity
  8
0
  6
CONTINUOUS
 62
     7
100
AcDbLine
 10
-319.5
 20
-268.0578
 30
0.0
 11
-319.5
 21
-269.80342
 31
0.0
  0
LINE
  5
5CE
100
AcDbEntity
  8
0
  6
CONTINUOUS
 62
     7
100
AcDbLine
 10
-320.1
 20
-268.0578
 30
0.0
 11
-320.1
 21
-269.80342
 31
0.0
  0
LINE
  5
5CF
100
AcDbEntity
  8
0
  6
CONTINUOUS
 62
     7
100
AcDbLine
 10
-290.5
 20
-251.25707
 30
0.0
 11
-290.5
 21
-245.8027
 31
0.0
  0
LINE
  5
5D0
100
AcDbEntity
  8
0
  6
CONTINUOUS
 62
     7
100
AcDbLine
 10
-290.5
 20
-268.0578
 30
0.0
 11
-290.5
 21
-269.80342
 31
0.0
  0
LINE
  5
5D1
100
AcDbEntity
  8
0
  6
CONTINUOUS
 62
     7
100
AcDbLine
 10
-292.0
 20
-271.27303
 30
0.0
 11
-295.0
 21
-271.27303
 31
0.0
  0
LINE
  5
5D2
100
AcDbEntity
  8
0
  6
CONTINUOUS
 62
     7
100
AcDbLine
 10
-318.0
 20
-266.58819
 30
0.0
 11
-318.0
 21
-255.84903
 31
0.0
  0
LINE
  5
5D3
100
AcDbEntity
  8
0
  6
CONTINUOUS
 62
     7
100
AcDbLine
 10
-289.9
 20
-269.80342
 30
0.0
 11
-295.0
 21
-269.80342
 31
0.0
  0
LINE
  5
5D4
100
AcDbEntity
  8
0
  6
CONTINUOUS
 62
     7
100
AcDbLine
 10
-319.5
 20
-251.25707
 30
0.0
 11
-319.5
 21
-245.8027
 31
0.0
  0
LINE
  5
5D5
100
AcDbEntity
  8
0
  6
CONTINUOUS
 62
     7
100
AcDbLine
 10
-295.0
 20
-245.8027
 30
0.0
 11
-289.9
 21
-245.8027
 31
0.0
  0
LINE
  5
5D6
100
AcDbEntity
  8
0
  6
CONTINUOUS
 62
     7
100
AcDbLine
 10
-289.0
 20
-266.58819
 30
0.0
 11
-292.0
 21
-266.58819
 31
0.0
  0
LINE
  5
5D7
100
AcDbEntity
  8
0
  6
CONTINUOUS
 62
     7
100
AcDbLine
 10
-289.9
 20
-268.0578
 30
0.0
 11
-295.0
 21
-268.0578
 31
0.0
  0
LINE
  5
5D8
100
AcDbEntity
  8
0
  6
CONTINUOUS
 62
     7
100
AcDbLine
 10
-295.0
 20
-245.8027
 30
0.0
 11
-295.0
 21
-220.19727
 31
0.0
  0
LINE
  5
5D9
100
AcDbEntity
  8
0
  6
CONTINUOUS
 62
     7
100
AcDbLine
 10
-318.0
 20
-241.21074
 30
0.0
 11
-318.0
 21
-224.78922
 31
0.0
  0
LINE
  5
5DA
100
AcDbEntity
  8
0
  6
CONTINUOUS
 62
     7
100
AcDbLine
 10
-289.0
 20
-273.0
 30
0.0
 11
-289.0
 21
-193.0
 31
0.0
  0
LINE
  5
5DB
100
AcDbEntity
  8
0
  6
CONTINUOUS
 62
     7
100
AcDbLine
 10
-321.0
 20
-241.21074
 30
0.0
 11
-318.0
 21
-241.21074
 31
0.0
  0
LINE
  5
5DC
100
AcDbEntity
  8
0
  6
CONTINUOUS
 62
     7
100
AcDbLine
 10
-315.0
 20
-243.98458
 30
0.0
 11
-295.0
 21
-243.98458
 31
0.0
  0
LINE
  5
5DD
100
AcDbEntity
  8
0
  6
CONTINUOUS
 62
     7
100
AcDbLine
 10
-320.1
 20
-245.8027
 30
0.0
 11
-315.0
 21
-245.8027
 31
0.0
  0
LINE
  5
5DE
100
AcDbEntity
  8
0
  6
CONTINUOUS
 62
     7
100
AcDbLine
 10
-320.1
 20
-251.25707
 30
0.0
 11
-315.0
 21
-251.25707
 31
0.0
  0
LINE
  5
5DF
100
AcDbEntity
  8
0
  6
CONTINUOUS
 62
     7
100
AcDbLine
 10
-315.0
 20
-253.0752
 30
0.0
 11
-295.0
 21
-253.0752
 31
0.0
  0
LINE
  5
5E0
100
AcDbEntity
  8
0
  6
CONTINUOUS
 62
     7
100
AcDbLine
 10
-318.0
 20
-255.84903
 30
0.0
 11
-315.0
 21
-255.84903
 31
0.0
  0
LINE
  5
5E1
100
AcDbEntity
  8
0
  6
CONTINUOUS
 62
     7
100
AcDbLine
 10
-321.0
 20
-266.58819
 30
0.0
 11
-318.0
 21
-266.58819
 31
0.0
  0
LINE
  5
5E2
100
AcDbEntity
  8
0
  6
CONTINUOUS
 62
     7
100
AcDbLine
 10
-315.0
 20
-267.47593
 30
0.0
 11
-295.0
 21
-267.47593
 31
0.0
  0
LINE
  5
5E3
100
AcDbEntity
  8
0
  6
CONTINUOUS
 62
     7
100
AcDbLine
 10
-320.1
 20
-268.0578
 30
0.0
 11
-315.0
 21
-268.0578
 31
0.0
  0
LINE
  5
5E4
100
AcDbEntity
  8
0
  6
CONTINUOUS
 62
     7
100
AcDbLine
 10
-320.1
 20
-269.80342
 30
0.0
 11
-315.0
 21
-269.80342
 31
0.0
  0
LINE
  5
5E5
100
AcDbEntity
  8
0
  6
CONTINUOUS
 62
     7
100
AcDbLine
 10
-315.0
 20
-270.38529
 30
0.0
 11
-295.0
 21
-270.38529
 31
0.0
  0
LINE
  5
5E6
100
AcDbEntity
  8
0
  6
CONTINUOUS
 62
     7
100
AcDbLine
 10
-318.0
 20
-271.27303
 30
0.0
 11
-315.0
 21
-271.27303
 31
0.0
  0
LINE
  5
5E7
100
AcDbEntity
  8
0
  6
CONTINUOUS
 62
     7
100
AcDbLine
 10
-321.0
 20
-273.0
 30
0.0
 11
-289.0
 21
-273.0
 31
0.0
  0
LINE
  5
5E8
100
AcDbEntity
  8
0
  6
CONTINUOUS
 62
     7
100
AcDbLine
 10
-292.0
 20
-273.0
 30
0.0
 11
-292.0
 21
-271.27303
 31
0.0
  0
LINE
  5
5E9
100
AcDbEntity
  8
0
  6
CONTINUOUS
 62
     7
100
AcDbLine
 10
-318.0
 20
-224.78922
 30
0.0
 11
-315.0
 21
-224.78922
 31
0.0
  0
LINE
  5
5EA
100
AcDbEntity
  8
0
  6
CONTINUOUS
 62
     7
100
AcDbLine
 10
-295.0
 20
-273.0
 30
0.0
 11
-295.0
 21
-269.80342
 31
0.0
  0
LINE
  5
5EB
100
AcDbEntity
  8
0
  6
CONTINUOUS
 62
     7
100
AcDbLine
 10
-315.0
 20
-222.01539
 30
0.0
 11
-295.0
 21
-222.01539
 31
0.0
  0
LINE
  5
5EC
100
AcDbEntity
  8
0
  6
CONTINUOUS
 62
     7
100
AcDbLine
 10
-320.1
 20
-220.19727
 30
0.0
 11
-315.0
 21
-220.19727
 31
0.0
  0
LINE
  5
5ED
100
AcDbEntity
  8
0
  6
CONTINUOUS
 62
     7
100
AcDbLine
 10
-320.1
 20
-214.74292
 30
0.0
 11
-315.0
 21
-214.74292
 31
0.0
  0
LINE
  5
5EE
100
AcDbEntity
  8
0
  6
CONTINUOUS
 62
     7
100
AcDbLine
 10
-315.0
 20
-212.9248
 30
0.0
 11
-295.0
 21
-212.9248
 31
0.0
  0
LINE
  5
5EF
100
AcDbEntity
  8
0
  6
CONTINUOUS
 62
     7
100
AcDbLine
 10
-321.0
 20
-210.15097
 30
0.0
 11
-318.0
 21
-210.15097
 31
0.0
  0
LINE
  5
5F0
100
AcDbEntity
  8
0
  6
CONTINUOUS
 62
     7
100
AcDbLine
 10
-318.0
 20
-199.41181
 30
0.0
 11
-315.0
 21
-199.41181
 31
0.0
  0
LINE
  5
5F1
100
AcDbEntity
  8
0
  6
CONTINUOUS
 62
     7
100
AcDbLine
 10
-315.0
 20
-198.52406
 30
0.0
 11
-295.0
 21
-198.52406
 31
0.0
  0
LINE
  5
5F2
100
AcDbEntity
  8
0
  6
CONTINUOUS
 62
     7
100
AcDbLine
 10
-320.1
 20
-197.94218
 30
0.0
 11
-315.0
 21
-197.94218
 31
0.0
  0
LINE
  5
5F3
100
AcDbEntity
  8
0
  6
CONTINUOUS
 62
     7
100
AcDbLine
 10
-320.1
 20
-196.19653
 30
0.0
 11
-315.0
 21
-196.19653
 31
0.0
  0
LINE
  5
5F4
100
AcDbEntity
  8
0
  6
CONTINUOUS
 62
     7
100
AcDbLine
 10
-315.0
 20
-195.61465
 30
0.0
 11
-295.0
 21
-195.61465
 31
0.0
  0
LINE
  5
5F5
100
AcDbEntity
  8
0
  6
CONTINUOUS
 62
     7
100
AcDbLine
 10
-321.0
 20
-194.72689
 30
0.0
 11
-318.0
 21
-194.72689
 31
0.0
  0
LINE
  5
5F6
100
AcDbEntity
  8
0
  6
CONTINUOUS
 62
     7
100
AcDbLine
 10
-321.0
 20
-193.0
 30
0.0
 11
-289.0
 21
-193.0
 31
0.0
  0
LINE
  5
5F7
100
AcDbEntity
  8
0
  6
CONTINUOUS
 62
     7
100
AcDbLine
 10
-315.0
 20
-214.74292
 30
0.0
 11
-315.0
 21
-197.94218
 31
0.0
  0
LINE
  5
5F8
100
AcDbEntity
  8
0
  6
CONTINUOUS
 62
     7
100
AcDbLine
 10
-320.1
 20
-196.19653
 30
0.0
 11
-320.1
 21
-197.94218
 31
0.0
  0
LINE
  5
5F9
100
AcDbEntity
  8
0
  6
CONTINUOUS
 62
     7
100
AcDbLine
 10
-319.5
 20
-196.19653
 30
0.0
 11
-319.5
 21
-197.94218
 31
0.0
  0
LINE
  5
5FA
100
AcDbEntity
  8
0
  6
CONTINUOUS
 62
     7
100
AcDbLine
 10
-318.0
 20
-210.15097
 30
0.0
 11
-318.0
 21
-199.41181
 31
0.0
  0
LINE
  5
5FB
100
AcDbEntity
  8
0
  6
CONTINUOUS
 62
     7
100
AcDbLine
 10
-315.0
 20
-196.19653
 30
0.0
 11
-315.0
 21
-193.0
 31
0.0
  0
LINE
  5
5FC
100
AcDbEntity
  8
0
  6
CONTINUOUS
 62
     7
100
AcDbLine
 10
-318.0
 20
-194.72689
 30
0.0
 11
-318.0
 21
-193.0
 31
0.0
  0
LINE
  5
5FD
100
AcDbEntity
  8
0
  6
CONTINUOUS
 62
     7
100
AcDbLine
 10
-319.5
 20
-214.74292
 30
0.0
 11
-319.5
 21
-220.19727
 31
0.0
  0
LINE
  5
5FE
100
AcDbEntity
  8
0
  6
CONTINUOUS
 62
     7
100
AcDbLine
 10
-320.1
 20
-214.74292
 30
0.0
 11
-320.1
 21
-220.19727
 31
0.0
  0
LINE
  5
5FF
100
AcDbEntity
  8
0
  6
CONTINUOUS
 62
     7
100
AcDbLine
 10
-289.0
 20
-194.72689
 30
0.0
 11
-292.0
 21
-194.72689
 31
0.0
  0
LINE
  5
600
100
AcDbEntity
  8
0
  6
CONTINUOUS
 62
     7
100
AcDbLine
 10
-289.9
 20
-196.19653
 30
0.0
 11
-295.0
 21
-196.19653
 31
0.0
  0
LINE
  5
601
100
AcDbEntity
  8
0
  6
CONTINUOUS
 62
     7
100
AcDbLine
 10
-289.9
 20
-197.94218
 30
0.0
 11
-295.0
 21
-197.94218
 31
0.0
  0
LINE
  5
602
100
AcDbEntity
  8
0
  6
CONTINUOUS
 62
     7
100
AcDbLine
 10
-292.0
 20
-199.41181
 30
0.0
 11
-295.0
 21
-199.41181
 31
0.0
  0
LINE
  5
603
100
AcDbEntity
  8
0
  6
CONTINUOUS
 62
     7
100
AcDbLine
 10
-289.0
 20
-210.15097
 30
0.0
 11
-292.0
 21
-210.15097
 31
0.0
  0
LINE
  5
604
100
AcDbEntity
  8
0
  6
CONTINUOUS
 62
     7
100
AcDbLine
 10
-289.9
 20
-214.74292
 30
0.0
 11
-295.0
 21
-214.74292
 31
0.0
  0
LINE
  5
605
100
AcDbEntity
  8
0
  6
CONTINUOUS
 62
     7
100
AcDbLine
 10
-289.9
 20
-220.19727
 30
0.0
 11
-295.0
 21
-220.19727
 31
0.0
  0
LINE
  5
606
100
AcDbEntity
  8
0
  6
CONTINUOUS
 62
     7
100
AcDbLine
 10
-292.0
 20
-224.78922
 30
0.0
 11
-295.0
 21
-224.78922
 31
0.0
  0
LINE
  5
607
100
AcDbEntity
  8
0
  6
CONTINUOUS
 62
     7
100
AcDbLine
 10
-292.0
 20
-241.21074
 30
0.0
 11
-292.0
 21
-224.78922
 31
0.0
  0
LINE
  5
608
100
AcDbEntity
  8
0
  6
CONTINUOUS
 62
     7
100
AcDbLine
 10
-295.0
 20
-214.74292
 30
0.0
 11
-295.0
 21
-197.94218
 31
0.0
  0
LINE
  5
609
100
AcDbEntity
  8
0
  6
CONTINUOUS
 62
     7
100
AcDbLine
 10
-289.9
 20
-196.19653
 30
0.0
 11
-289.9
 21
-197.94218
 31
0.0
  0
LINE
  5
60A
100
AcDbEntity
  8
0
  6
CONTINUOUS
 62
     7
100
AcDbLine
 10
-290.5
 20
-196.19653
 30
0.0
 11
-290.5
 21
-197.94218
 31
0.0
  0
LINE
  5
60B
100
AcDbEntity
  8
0
  6
CONTINUOUS
 62
     7
100
AcDbLine
 10
-292.0
 20
-210.15097
 30
0.0
 11
-292.0
 21
-199.41181
 31
0.0
  0
LINE
  5
60C
100
AcDbEntity
  8
0
  6
CONTINUOUS
 62
     7
100
AcDbLine
 10
-295.0
 20
-196.19653
 30
0.0
 11
-295.0
 21
-193.0
 31
0.0
  0
LINE
  5
60D
100
AcDbEntity
  8
0
  6
CONTINUOUS
 62
     7
100
AcDbLine
 10
-292.0
 20
-194.72689
 30
0.0
 11
-292.0
 21
-193.0
 31
0.0
  0
LINE
  5
60E
100
AcDbEntity
  8
0
  6
CONTINUOUS
 62
     7
100
AcDbLine
 10
-290.5
 20
-214.74292
 30
0.0
 11
-290.5
 21
-220.19727
 31
0.0
  0
LINE
  5
60F
100
AcDbEntity
  8
0
  6
CONTINUOUS
 62
     7
100
AcDbLine
 10
-289.9
 20
-214.74292
 30
0.0
 11
-289.9
 21
-220.19727
 31
0.0
  0
LINE
  5
610
100
AcDbEntity
  8
0
  6
CENTER
 62
     7
100
AcDbLine
 10
-326.0
 20
-263.0
 30
0.0
 11
-284.0
 21
-263.0
 31
0.0
  0
LINE
  5
611
100
AcDbEntity
  8
0
  6
CENTER
 62
     7
100
AcDbLine
 10
-326.0
 20
-210.27352
 30
0.0
 11
-284.0
 21
-210.27352
 31
0.0
  0
LINE
  5
612
100
AcDbEntity
  8
0
  6
CENTER
 62
     7
100
AcDbLine
 10
-326.0
 20
-203.0
 30
0.0
 11
-284.0
 21
-203.0
 31
0.0
  0
POINT
  5
613
100
AcDbEntity
  8
0
  6
CONTINUOUS
 62
     7
100
AcDbPoint
 10
-175.0
 20
-134.0
 30
0.0
  0
POINT
  5
614
100
AcDbEntity
  8
0
  6
CONTINUOUS
 62
     7
100
AcDbPoint
 10
-160.0
 20
-134.0
 30
0.0
  0
LINE
  5
615
100
AcDbEntity
  8
0
  6
CONTINUOUS
 62
     7
100
AcDbLine
 10
-195.55132
 20
-121.0
 30
0.0
 11
-195.55132
 21
-124.0
 31
0.0
  0
LINE
  5
616
100
AcDbEntity
  8
0
  6
CONTINUOUS
 62
     7
100
AcDbLine
 10
-244.33519
 20
-121.0
 30
0.0
 11
-241.57217
 21
-121.0
 31
0.0
  0
LINE
  5
617
100
AcDbEntity
  8
0
  6
CONTINUOUS
 62
     7
100
AcDbLine
 10
-244.33519
 20
-118.0
 30
0.0
 11
-179.44868
 21
-118.0
 31
0.0
  0
LINE
  5
618
100
AcDbEntity
  8
0
  6
CENTER
 62
     7
100
AcDbLine
 10
-254.33519
 20
-134.0
 30
0.0
 11
-160.0
 21
-134.0
 31
0.0
  0
LINE
  5
619
100
AcDbEntity
  8
0
  6
CONTINUOUS
 62
     7
100
AcDbLine
 10
-244.33519
 20
-124.0
 30
0.0
 11
-239.46745
 21
-124.0
 31
0.0
  0
LINE
  5
61A
100
AcDbEntity
  8
0
  6
CENTER
 62
     7
100
AcDbLine
 10
-223.91853
 20
-113.0
 30
0.0
 11
-223.91853
 21
-155.0
 31
0.0
  0
LINE
  5
61B
100
AcDbEntity
  8
0
  6
CENTER
 62
     7
100
AcDbLine
 10
-175.0
 20
-113.0
 30
0.0
 11
-175.0
 21
-155.0
 31
0.0
  0
LINE
  5
61C
100
AcDbEntity
  8
0
  6
CONTINUOUS
 62
     7
100
AcDbLine
 10
-193.5
 20
-124.0
 30
0.0
 11
-193.5
 21
-144.0
 31
0.0
  0
LINE
  5
61D
100
AcDbEntity
  8
0
  6
CONTINUOUS
 62
     7
100
AcDbLine
 10
-190.5
 20
-149.1
 30
0.0
 11
-184.5
 21
-149.1
 31
0.0
  0
LINE
  5
61E
100
AcDbEntity
  8
0
  6
CONTINUOUS
 62
     7
100
AcDbLine
 10
-217.7389
 20
-118.9
 30
0.0
 11
-217.7389
 21
-124.0
 31
0.0
  0
LINE
  5
61F
100
AcDbEntity
  8
0
  6
CONTINUOUS
 62
     7
100
AcDbLine
 10
-190.5
 20
-118.9
 30
0.0
 11
-184.5
 21
-118.9
 31
0.0
  0
LINE
  5
620
100
AcDbEntity
  8
0
  6
CONTINUOUS
 62
     7
100
AcDbLine
 10
-244.33519
 20
-147.0
 30
0.0
 11
-241.57217
 21
-147.0
 31
0.0
  0
LINE
  5
621
100
AcDbEntity
  8
0
  6
CONTINUOUS
 62
     7
100
AcDbLine
 10
-190.5
 20
-149.1
 30
0.0
 11
-190.5
 21
-144.0
 31
0.0
  0
LINE
  5
622
100
AcDbEntity
  8
0
  6
CONTINUOUS
 62
     7
100
AcDbLine
 10
-195.55132
 20
-147.0
 30
0.0
 11
-195.55132
 21
-144.0
 31
0.0
  0
LINE
  5
623
100
AcDbEntity
  8
0
  6
CONTINUOUS
 62
     7
100
AcDbLine
 10
-184.5
 20
-124.0
 30
0.0
 11
-170.55132
 21
-124.0
 31
0.0
  0
LINE
  5
624
100
AcDbEntity
  8
0
  6
CONTINUOUS
 62
     7
100
AcDbLine
 10
-181.5
 20
-124.0
 30
0.0
 11
-181.5
 21
-144.0
 31
0.0
  0
LINE
  5
625
100
AcDbEntity
  8
0
  6
CONTINUOUS
 62
     7
100
AcDbLine
 10
-179.44868
 20
-118.0
 30
0.0
 11
-179.44868
 21
-121.0
 31
0.0
  0
LINE
  5
626
100
AcDbEntity
  8
0
  6
CENTER
 62
     7
100
AcDbLine
 10
-200.0
 20
-113.0
 30
0.0
 11
-200.0
 21
-155.0
 31
0.0
  0
LINE
  5
627
100
AcDbEntity
  8
0
  6
CONTINUOUS
 62
     7
100
AcDbLine
 10
-179.44868
 20
-150.0
 30
0.0
 11
-179.44868
 21
-147.0
 31
0.0
  0
LINE
  5
628
100
AcDbEntity
  8
0
  6
CONTINUOUS
 62
     7
100
AcDbLine
 10
-190.5
 20
-148.5
 30
0.0
 11
-184.5
 21
-148.5
 31
0.0
  0
LINE
  5
629
100
AcDbEntity
  8
0
  6
CONTINUOUS
 62
     7
100
AcDbLine
 10
-184.5
 20
-149.1
 30
0.0
 11
-184.5
 21
-144.0
 31
0.0
  0
LINE
  5
62A
100
AcDbEntity
  8
0
  6
CONTINUOUS
 62
     7
100
AcDbLine
 10
-190.5
 20
-118.9
 30
0.0
 11
-190.5
 21
-124.0
 31
0.0
  0
LINE
  5
62B
100
AcDbEntity
  8
0
  6
CONTINUOUS
 62
     7
100
AcDbLine
 10
-219.65238
 20
-124.0
 30
0.0
 11
-219.65238
 21
-144.0
 31
0.0
  0
LINE
  5
62C
100
AcDbEntity
  8
0
  6
CONTINUOUS
 62
     7
100
AcDbLine
 10
-182.5
 20
-124.0
 30
0.0
 11
-182.5
 21
-144.0
 31
0.0
  0
LINE
  5
62D
100
AcDbEntity
  8
0
  6
CONTINUOUS
 62
     7
100
AcDbLine
 10
-207.16565
 20
-118.0
 30
0.0
 11
-207.16565
 21
-121.0
 31
0.0
  0
LINE
  5
62E
100
AcDbEntity
  8
0
  6
CONTINUOUS
 62
     7
100
AcDbLine
 10
-184.5
 20
-118.9
 30
0.0
 11
-184.5
 21
-124.0
 31
0.0
  0
LINE
  5
62F
100
AcDbEntity
  8
0
  6
CONTINUOUS
 62
     7
100
AcDbLine
 10
-190.5
 20
-119.5
 30
0.0
 11
-184.5
 21
-119.5
 31
0.0
  0
LINE
  5
630
100
AcDbEntity
  8
0
  6
CONTINUOUS
 62
     7
100
AcDbLine
 10
-192.5
 20
-124.0
 30
0.0
 11
-192.5
 21
-144.0
 31
0.0
  0
LINE
  5
631
100
AcDbEntity
  8
0
  6
CONTINUOUS
 62
     7
100
AcDbLine
 10
-210.08497
 20
-124.0
 30
0.0
 11
-210.08497
 21
-144.0
 31
0.0
  0
LINE
  5
632
100
AcDbEntity
  8
0
  6
CONTINUOUS
 62
     7
100
AcDbLine
 10
-244.33519
 20
-150.0
 30
0.0
 11
-179.44868
 21
-150.0
 31
0.0
  0
LINE
  5
633
100
AcDbEntity
  8
0
  6
CENTER
 62
     7
100
AcDbLine
 10
-192.5
 20
-146.8
 30
0.0
 11
-182.5
 21
-146.8
 31
0.0
  0
LINE
  5
634
100
AcDbEntity
  8
0
  6
CENTER
 62
     7
100
AcDbLine
 10
-192.5
 20
-121.2
 30
0.0
 11
-182.5
 21
-121.2
 31
0.0
  0
LINE
  5
635
100
AcDbEntity
  8
0
  6
CONTINUOUS
 62
     7
100
AcDbLine
 10
-184.5
 20
-144.0
 30
0.0
 11
-170.55132
 21
-144.0
 31
0.0
  0
LINE
  5
636
100
AcDbEntity
  8
0
  6
CONTINUOUS
 62
     7
100
AcDbLine
 10
-179.44868
 20
-121.0
 30
0.0
 11
-170.55132
 21
-121.0
 31
0.0
  0
LINE
  5
637
100
AcDbEntity
  8
0
  6
CONTINUOUS
 62
     7
100
AcDbLine
 10
-179.44868
 20
-147.0
 30
0.0
 11
-170.55132
 21
-147.0
 31
0.0
  0
LINE
  5
638
100
AcDbEntity
  8
0
  6
CONTINUOUS
 62
     7
100
AcDbLine
 10
-211.99845
 20
-118.9
 30
0.0
 11
-211.99845
 21
-124.0
 31
0.0
  0
LINE
  5
639
100
AcDbEntity
  8
0
  6
CONTINUOUS
 62
     7
100
AcDbLine
 10
-222.5717
 20
-121.0
 30
0.0
 11
-222.5717
 21
-124.0
 31
0.0
  0
LINE
  5
63A
100
AcDbEntity
  8
0
  6
CONTINUOUS
 62
     7
100
AcDbLine
 10
-236.13412
 20
-124.0
 30
0.0
 11
-236.13412
 21
-144.0
 31
0.0
  0
LINE
  5
63B
100
AcDbEntity
  8
0
  6
CONTINUOUS
 62
     7
100
AcDbLine
 10
-241.57217
 20
-121.0
 30
0.0
 11
-241.57217
 21
-124.0
 31
0.0
  0
LINE
  5
63C
100
AcDbEntity
  8
0
  6
CONTINUOUS
 62
     7
100
AcDbLine
 10
-236.96745
 20
-118.9
 30
0.0
 11
-236.96745
 21
-124.0
 31
0.0
  0
LINE
  5
63D
100
AcDbEntity
  8
0
  6
CONTINUOUS
 62
     7
100
AcDbLine
 10
-239.46745
 20
-118.9
 30
0.0
 11
-239.46745
 21
-124.0
 31
0.0
  0
LINE
  5
63E
100
AcDbEntity
  8
0
  6
CONTINUOUS
 62
     7
100
AcDbLine
 10
-240.30078
 20
-124.0
 30
0.0
 11
-240.30078
 21
-144.0
 31
0.0
  0
LINE
  5
63F
100
AcDbEntity
  8
0
  6
CONTINUOUS
 62
     7
100
AcDbLine
 10
-234.86274
 20
-118.0
 30
0.0
 11
-234.86274
 21
-121.0
 31
0.0
  0
LINE
  5
640
100
AcDbEntity
  8
0
  6
CONTINUOUS
 62
     7
100
AcDbLine
 10
-244.33519
 20
-118.0
 30
0.0
 11
-244.33519
 21
-124.0
 31
0.0
  0
LINE
  5
641
100
AcDbEntity
  8
0
  6
CONTINUOUS
 62
     7
100
AcDbLine
 10
-239.46745
 20
-118.9
 30
0.0
 11
-236.96745
 21
-118.9
 31
0.0
  0
LINE
  5
642
100
AcDbEntity
  8
0
  6
CONTINUOUS
 62
     7
100
AcDbLine
 10
-239.46745
 20
-119.5
 30
0.0
 11
-236.96745
 21
-119.5
 31
0.0
  0
LINE
  5
643
100
AcDbEntity
  8
0
  6
CONTINUOUS
 62
     7
100
AcDbLine
 10
-241.57217
 20
-147.0
 30
0.0
 11
-241.57217
 21
-144.0
 31
0.0
  0
LINE
  5
644
100
AcDbEntity
  8
0
  6
CONTINUOUS
 62
     7
100
AcDbLine
 10
-211.99845
 20
-124.0
 30
0.0
 11
-190.5
 21
-124.0
 31
0.0
  0
LINE
  5
645
100
AcDbEntity
  8
0
  6
CONTINUOUS
 62
     7
100
AcDbLine
 10
-207.16565
 20
-121.0
 30
0.0
 11
-195.55132
 21
-121.0
 31
0.0
  0
LINE
  5
646
100
AcDbEntity
  8
0
  6
CONTINUOUS
 62
     7
100
AcDbLine
 10
-236.96745
 20
-124.0
 30
0.0
 11
-217.7389
 21
-124.0
 31
0.0
  0
LINE
  5
647
100
AcDbEntity
  8
0
  6
CONTINUOUS
 62
     7
100
AcDbLine
 10
-234.86274
 20
-121.0
 30
0.0
 11
-222.5717
 21
-121.0
 31
0.0
  0
LINE
  5
648
100
AcDbEntity
  8
0
  6
CONTINUOUS
 62
     7
100
AcDbLine
 10
-222.5717
 20
-147.0
 30
0.0
 11
-222.5717
 21
-144.0
 31
0.0
  0
LINE
  5
649
100
AcDbEntity
  8
0
  6
CONTINUOUS
 62
     7
100
AcDbLine
 10
-217.7389
 20
-118.9
 30
0.0
 11
-211.99845
 21
-118.9
 31
0.0
  0
LINE
  5
64A
100
AcDbEntity
  8
0
  6
CONTINUOUS
 62
     7
100
AcDbLine
 10
-217.7389
 20
-119.5
 30
0.0
 11
-211.99845
 21
-119.5
 31
0.0
  0
LINE
  5
64B
100
AcDbEntity
  8
0
  6
CONTINUOUS
 62
     7
100
AcDbLine
 10
-211.99845
 20
-149.1
 30
0.0
 11
-211.99845
 21
-144.0
 31
0.0
  0
LINE
  5
64C
100
AcDbEntity
  8
0
  6
CONTINUOUS
 62
     7
100
AcDbLine
 10
-207.16565
 20
-150.0
 30
0.0
 11
-207.16565
 21
-147.0
 31
0.0
  0
LINE
  5
64D
100
AcDbEntity
  8
0
  6
CONTINUOUS
 62
     7
100
AcDbLine
 10
-217.7389
 20
-149.1
 30
0.0
 11
-217.7389
 21
-144.0
 31
0.0
  0
LINE
  5
64E
100
AcDbEntity
  8
0
  6
CONTINUOUS
 62
     7
100
AcDbLine
 10
-244.33519
 20
-144.0
 30
0.0
 11
-239.46745
 21
-144.0
 31
0.0
  0
LINE
  5
64F
100
AcDbEntity
  8
0
  6
CONTINUOUS
 62
     7
100
AcDbLine
 10
-236.96745
 20
-149.1
 30
0.0
 11
-236.96745
 21
-144.0
 31
0.0
  0
LINE
  5
650
100
AcDbEntity
  8
0
  6
CONTINUOUS
 62
     7
100
AcDbLine
 10
-239.46745
 20
-149.1
 30
0.0
 11
-239.46745
 21
-144.0
 31
0.0
  0
LINE
  5
651
100
AcDbEntity
  8
0
  6
CONTINUOUS
 62
     7
100
AcDbLine
 10
-234.86274
 20
-150.0
 30
0.0
 11
-234.86274
 21
-147.0
 31
0.0
  0
LINE
  5
652
100
AcDbEntity
  8
0
  6
CONTINUOUS
 62
     7
100
AcDbLine
 10
-244.33519
 20
-150.0
 30
0.0
 11
-244.33519
 21
-144.0
 31
0.0
  0
LINE
  5
653
100
AcDbEntity
  8
0
  6
CONTINUOUS
 62
     7
100
AcDbLine
 10
-239.46745
 20
-149.1
 30
0.0
 11
-236.96745
 21
-149.1
 31
0.0
  0
LINE
  5
654
100
AcDbEntity
  8
0
  6
CONTINUOUS
 62
     7
100
AcDbLine
 10
-239.46745
 20
-148.5
 30
0.0
 11
-236.96745
 21
-148.5
 31
0.0
  0
LINE
  5
655
100
AcDbEntity
  8
0
  6
CONTINUOUS
 62
     7
100
AcDbLine
 10
-211.99845
 20
-144.0
 30
0.0
 11
-190.5
 21
-144.0
 31
0.0
  0
LINE
  5
656
100
AcDbEntity
  8
0
  6
CONTINUOUS
 62
     7
100
AcDbLine
 10
-207.16565
 20
-147.0
 30
0.0
 11
-195.55132
 21
-147.0
 31
0.0
  0
LINE
  5
657
100
AcDbEntity
  8
0
  6
CONTINUOUS
 62
     7
100
AcDbLine
 10
-236.96745
 20
-144.0
 30
0.0
 11
-217.7389
 21
-144.0
 31
0.0
  0
LINE
  5
658
100
AcDbEntity
  8
0
  6
CONTINUOUS
 62
     7
100
AcDbLine
 10
-234.86274
 20
-147.0
 30
0.0
 11
-222.5717
 21
-147.0
 31
0.0
  0
LINE
  5
659
100
AcDbEntity
  8
0
  6
CONTINUOUS
 62
     7
100
AcDbLine
 10
-217.7389
 20
-149.1
 30
0.0
 11
-211.99845
 21
-149.1
 31
0.0
  0
LINE
  5
65A
100
AcDbEntity
  8
0
  6
CONTINUOUS
 62
     7
100
AcDbLine
 10
-217.7389
 20
-148.5
 30
0.0
 11
-211.99845
 21
-148.5
 31
0.0
  0
LINE
  5
65B
100
AcDbEntity
  8
0
  6
CENTER
 62
     7
100
AcDbLine
 10
-234.33519
 20
-113.0
 30
0.0
 11
-234.33519
 21
-155.0
 31
0.0
  0
POINT
  5
65C
100
AcDbEntity
  8
0
  6
CONTINUOUS
 62
     7
100
AcDbPoint
 10
-175.0
 20
-203.0
 30
0.0
  0
POINT
  5
65D
100
AcDbEntity
  8
0
  6
CONTINUOUS
 62
     7
100
AcDbPoint
 10
-155.0
 20
-203.0
 30
0.0
  0
LINE
  5
65E
100
AcDbEntity
  8
0
  6
CONTINUOUS
 62
     7
100
AcDbLine
 10
-202.74915
 20
-200.83385
 30
0.0
 11
-201.07782
 21
-206.32991
 31
0.0
  0
LINE
  5
65F
100
AcDbEntity
  8
0
  6
CONTINUOUS
 62
     7
100
AcDbLine
 10
-202.67864
 20
-213.7495
 30
0.0
 11
-205.65488
 21
-211.84716
 31
0.0
  0
LINE
  5
660
100
AcDbEntity
  8
0
  6
CONTINUOUS
 62
     7
100
AcDbLine
 10
-221.00912
 20
-219.84093
 30
0.0
 11
-198.51313
 21
-213.0
 31
0.0
  0
LINE
  5
661
100
AcDbEntity
  8
0
  6
CENTER
 62
     7
100
AcDbLine
 10
-200.0
 20
-257.5
 30
0.0
 11
-200.0
 21
-268.5
 31
0.0
  0
LINE
  5
662
100
AcDbEntity
  8
0
  6
CONTINUOUS
 62
     7
100
AcDbLine
 10
-200.0
 20
-213.0
 30
0.0
 11
-175.0
 21
-213.0
 31
0.0
  0
LINE
  5
663
100
AcDbEntity
  8
0
  6
CONTINUOUS
 62
     7
100
AcDbLine
 10
-180.69024
 20
-212.50517
 30
0.0
 11
-182.98426
 21
-209.8192
 31
0.0
  0
LINE
  5
664
100
AcDbEntity
  8
0
  6
CONTINUOUS
 62
     7
100
AcDbLine
 10
-177.0
 20
-200.12772
 30
0.0
 11
-177.0
 21
-205.87228
 31
0.0
  0
LINE
  5
665
100
AcDbEntity
  8
0
  6
CENTER
 62
     7
100
AcDbLine
 10
-175.0
 20
-196.96
 30
0.0
 11
-175.0
 21
-209.04
 31
0.0
  0
LINE
  5
666
100
AcDbEntity
  8
0
  6
CONTINUOUS
 62
     7
100
AcDbLine
 10
-200.0
 20
-193.0
 30
0.0
 11
-175.0
 21
-193.0
 31
0.0
  0
LINE
  5
667
100
AcDbEntity
  8
0
  6
CENTER
 62
     7
100
AcDbLine
 10
-204.33519
 20
-263.0
 30
0.0
 11
-155.0
 21
-263.0
 31
0.0
  0
LINE
  5
668
100
AcDbEntity
  8
0
  6
CENTER
 62
     7
100
AcDbLine
 10
-204.33519
 20
-183.0
 30
0.0
 11
-204.33519
 21
-283.0
 31
0.0
  0
LINE
  5
669
100
AcDbEntity
  8
0
  6
CENTER
 62
     7
100
AcDbLine
 10
-254.33519
 20
-233.0
 30
0.0
 11
-155.0
 21
-233.0
 31
0.0
  0
LINE
  5
66A
100
AcDbEntity
  8
0
  6
CENTER
 62
     7
100
AcDbLine
 10
-204.33519
 20
-203.0
 30
0.0
 11
-155.0
 21
-203.0
 31
0.0
  0
LINE
  5
66B
100
AcDbEntity
  8
0
  6
CONTINUOUS
 62
     7
100
AcDbLine
 10
-226.82793
 20
-200.70612
 30
0.0
 11
-202.90941
 21
-193.43259
 31
0.0
  0
LINE
  5
66C
100
AcDbEntity
  8
0
  6
CONTINUOUS
 62
     7
100
AcDbLine
 10
-243.42578
 20
-228.83334
 30
0.0
 11
-233.00912
 21
-206.10685
 31
0.0
  0
LINE
  5
66D
100
AcDbEntity
  8
0
  6
CENTER
 62
     7
100
AcDbLine
 10
-223.91853
 20
-250.22648
 30
0.0
 11
-223.91853
 21
-261.22648
 31
0.0
  0
LINE
  5
66E
100
AcDbEntity
  8
0
  6
CONTINUOUS
 62
     7
100
AcDbLine
 10
-227.36294
 20
-210.89485
 30
0.0
 11
-222.14079
 21
-213.28842
 31
0.0
  0
LINE
  5
66F
100
AcDbEntity
  8
0
  6
CONTINUOUS
 62
     7
100
AcDbLine
 10
-217.6487
 20
-219.40676
 30
0.0
 11
-221.04624
 21
-220.37302
 31
0.0
  0
LINE
  5
670
100
AcDbEntity
  8
0
  6
CONTINUOUS
 62
     7
100
AcDbLine
 10
-225.24459
 20
-237.16667
 30
0.0
 11
-216.70319
 21
-218.53152
 31
0.0
  0
LINE
  5
671
100
AcDbEntity
  8
0
  6
CENTER
 62
     7
100
AcDbLine
 10
-229.41853
 20
-255.72648
 30
0.0
 11
-218.41853
 21
-255.72648
 31
0.0
  0
LINE
  5
672
100
AcDbEntity
  8
0
  6
CONTINUOUS
 62
     7
100
AcDbLine
 10
-233.00927
 20
-259.89316
 30
0.0
 11
-243.42581
 21
-237.16662
 31
0.0
  0
LINE
  5
673
100
AcDbEntity
  8
0
  6
CONTINUOUS
 62
     7
100
AcDbLine
 10
-236.11295
 20
-236.01489
 30
0.0
 11
-230.89079
 21
-233.62135
 31
0.0
  0
LINE
  5
674
100
AcDbEntity
  8
0
  6
CONTINUOUS
 62
     7
100
AcDbLine
 10
-223.32351
 20
-234.21234
 30
0.0
 11
-224.80938
 21
-237.41689
 31
0.0
  0
LINE
  5
675
100
AcDbEntity
  8
0
  6
CONTINUOUS
 62
     7
100
AcDbLine
 10
-214.82804
 20
-251.55993
 30
0.0
 11
-223.33482
 21
-233.00004
 31
0.0
  0
LINE
  5
676
100
AcDbEntity
  8
0
  6
CONTINUOUS
 62
     7
100
AcDbLine
 10
-202.90932
 20
-272.56731
 30
0.0
 11
-226.82789
 21
-265.29391
 31
0.0
  0
LINE
  5
677
100
AcDbEntity
  8
0
  6
CONTINUOUS
 62
     7
100
AcDbLine
 10
-222.84069
 20
-259.05639
 30
0.0
 11
-221.16939
 21
-253.56032
 31
0.0
  0
LINE
  5
678
100
AcDbEntity
  8
0
  6
CONTINUOUS
 62
     7
100
AcDbLine
 10
-215.70904
 20
-248.28798
 30
0.0
 11
-214.29569
 21
-251.52517
 31
0.0
  0
LINE
  5
679
100
AcDbEntity
  8
0
  6
CONTINUOUS
 62
     7
100
AcDbLine
 10
-197.0906
 20
-253.43246
 30
0.0
 11
-216.70335
 21
-247.46841
 31
0.0
  0
LINE
  5
67A
100
AcDbEntity
  8
0
  6
CENTER
 62
     7
100
AcDbLine
 10
-200.0
 20
-197.5
 30
0.0
 11
-200.0
 21
-208.5
 31
0.0
  0
LINE
  5
67B
100
AcDbEntity
  8
0
  6
CENTER
 62
     7
100
AcDbLine
 10
-175.0
 20
-268.5
 30
0.0
 11
-175.0
 21
-256.96
 31
0.0
  0
LINE
  5
67C
100
AcDbEntity
  8
0
  6
CENTER
 62
     7
100
AcDbLine
 10
-229.41853
 20
-210.27352
 30
0.0
 11
-218.41853
 21
-210.27352
 31
0.0
  0
LINE
  5
67D
100
AcDbEntity
  8
0
  6
CONTINUOUS
 62
     7
100
AcDbLine
 10
-175.0
 20
-273.0
 30
0.0
 11
-200.0
 21
-273.0
 31
0.0
  0
LINE
  5
67E
100
AcDbEntity
  8
0
  6
CENTER
 62
     7
100
AcDbLine
 10
-223.91853
 20
-204.77352
 30
0.0
 11
-223.91853
 21
-215.77352
 31
0.0
  0
LINE
  5
67F
100
AcDbEntity
  8
0
  6
CONTINUOUS
 62
     7
100
AcDbLine
 10
-198.0
 20
-265.87228
 30
0.0
 11
-198.0
 21
-260.12772
 31
0.0
  0
LINE
  5
680
100
AcDbEntity
  8
0
  6
CONTINUOUS
 62
     7
100
AcDbLine
 10
-194.30976
 20
-253.49483
 30
0.0
 11
-192.01574
 21
-256.18079
 31
0.0
  0
LINE
  5
681
100
AcDbEntity
  8
0
  6
CONTINUOUS
 62
     7
100
AcDbLine
 10
-175.0
 20
-253.0
 30
0.0
 11
-198.51274
 21
-253.0
 31
0.0
  0
LINE
  5
682
100
AcDbEntity
  8
0
  6
CENTER
 62
     7
100
AcDbLine
 10
-234.33519
 20
-227.5
 30
0.0
 11
-234.33519
 21
-238.5
 31
0.0
  0
ARC
  5
683
100
AcDbEntity
  8
0
  6
CONTINUOUS
 62
     7
100
AcDbCircle
 10
-202.84021
 20
-214.00228
 30
0.0
 40
0.3
100
AcDbArc
 50
286.9143
 51
57.414297
  0
ARC
  5
684
100
AcDbEntity
  8
0
  6
CONTINUOUS
 62
     7
100
AcDbCircle
 10
-207.36539
 20
-195.1012
 30
0.0
 40
0.3
100
AcDbArc
 50
312.99859
 51
106.9143
  0
ARC
  5
685
100
AcDbEntity
  8
0
  6
CONTINUOUS
 62
     7
100
AcDbCircle
 10
-200.0
 20
-203.0
 30
0.0
 40
10.5
100
AcDbArc
 50
132.99859
 51
237.41429
  0
ARC
  5
686
100
AcDbEntity
  8
0
  6
CONTINUOUS
 62
     7
100
AcDbCircle
 10
-175.0
 20
-203.0
 30
0.0
 40
10.5
100
AcDbArc
 50
116.0843
 51
220.49999
  0
ARC
  5
687
100
AcDbEntity
  8
0
  6
CONTINUOUS
 62
     7
100
AcDbCircle
 10
-179.74868
 20
-193.3
 30
0.0
 40
0.3
100
AcDbArc
 50
296.08429
 51
90.000003
  0
ARC
  5
688
100
AcDbEntity
  8
0
  6
CONTINUOUS
 62
     7
100
AcDbCircle
 10
-180.91836
 20
-212.7
 30
0.0
 40
0.3
100
AcDbArc
 50
270.0
 51
40.499999
  0
CIRCLE
  5
689
100
AcDbEntity
  8
0
  6
CONTINUOUS
 62
     7
100
AcDbCircle
 10
-175.0
 20
-203.0
 30
0.0
 40
3.5
  0
ARC
  5
68A
100
AcDbEntity
  8
0
  6
CONTINUOUS
 62
     7
100
AcDbCircle
 10
-200.0
 20
-203.0
 30
0.0
 40
10.0
100
AcDbArc
 50
90.000003
 51
270.0
  0
ARC
  5
68B
100
AcDbEntity
  8
0
  6
CENTER
 62
     7
100
AcDbCircle
 10
-204.33519
 20
-233.0
 30
0.0
 40
30.0
100
AcDbArc
 50
90.000003
 51
270.0
  0
CIRCLE
  5
68C
100
AcDbEntity
  8
0
  6
CONTINUOUS
 62
     7
100
AcDbCircle
 10
-200.0
 20
-203.0
 30
0.0
 40
3.5
  0
ARC
  5
68D
100
AcDbEntity
  8
0
  6
CONTINUOUS
 62
     7
100
AcDbCircle
 10
-223.91853
 20
-210.27352
 30
0.0
 40
10.0
100
AcDbArc
 50
106.9143
 51
286.91431
  0
ARC
  5
68E
100
AcDbEntity
  8
0
  6
CONTINUOUS
 62
     7
100
AcDbCircle
 10
-234.33519
 20
-233.0
 30
0.0
 40
10.0
100
AcDbArc
 50
155.3757
 51
335.3757
  0
CIRCLE
  5
68F
100
AcDbEntity
  8
0
  6
CONTINUOUS
 62
     7
100
AcDbCircle
 10
-223.91853
 20
-210.27352
 30
0.0
 40
3.5
  0
ARC
  5
690
100
AcDbEntity
  8
0
  6
CONTINUOUS
 62
     7
100
AcDbCircle
 10
-217.56663
 20
-219.69532
 30
0.0
 40
0.3
100
AcDbArc
 50
335.3757
 51
105.8757
  0
ARC
  5
691
100
AcDbEntity
  8
0
  6
CONTINUOUS
 62
     7
100
AcDbCircle
 10
-234.71502
 20
-210.54869
 30
0.0
 40
0.3
100
AcDbArc
 50
1.459993
 51
155.3757
  0
ARC
  5
692
100
AcDbEntity
  8
0
  6
CONTINUOUS
 62
     7
100
AcDbCircle
 10
-223.91853
 20
-210.27352
 30
0.0
 40
10.5
100
AcDbArc
 50
181.45999
 51
285.8757
  0
ARC
  5
693
100
AcDbEntity
  8
0
  6
CONTINUOUS
 62
     7
100
AcDbCircle
 10
-223.91866
 20
-255.72654
 30
0.0
 40
10.0
100
AcDbArc
 50
204.624
 51
24.624
  0
CIRCLE
  5
694
100
AcDbEntity
  8
0
  6
CONTINUOUS
 62
     7
100
AcDbCircle
 10
-234.33519
 20
-233.0
 30
0.0
 40
3.5
  0
ARC
  5
695
100
AcDbEntity
  8
0
  6
CONTINUOUS
 62
     7
100
AcDbCircle
 10
-223.05135
 20
-234.33853
 30
0.0
 40
0.3
100
AcDbArc
 50
24.624
 51
155.12401
  0
ARC
  5
696
100
AcDbEntity
  8
0
  6
CONTINUOUS
 62
     7
100
AcDbCircle
 10
-241.1745
 20
-241.35846
 30
0.0
 40
0.3
100
AcDbArc
 50
50.708294
 51
204.624
  0
ARC
  5
697
100
AcDbEntity
  8
0
  6
CONTINUOUS
 62
     7
100
AcDbCircle
 10
-234.33519
 20
-233.0
 30
0.0
 40
10.5
100
AcDbArc
 50
230.70829
 51
335.124
  0
ARC
  5
698
100
AcDbEntity
  8
0
  6
CONTINUOUS
 62
     7
100
AcDbCircle
 10
-199.99996
 20
-262.99988
 30
0.0
 40
10.0
100
AcDbArc
 50
253.086
 51
73.086002
  0
CIRCLE
  5
699
100
AcDbEntity
  8
0
  6
CONTINUOUS
 62
     7
100
AcDbCircle
 10
-223.91853
 20
-255.72648
 30
0.0
 40
3.5
  0
ARC
  5
69A
100
AcDbEntity
  8
0
  6
CONTINUOUS
 62
     7
100
AcDbCircle
 10
-215.4341
 20
-248.16795
 30
0.0
 40
0.3
100
AcDbArc
 50
73.086002
 51
203.586
  0
ARC
  5
69B
100
AcDbEntity
  8
0
  6
CONTINUOUS
 62
     7
100
AcDbCircle
 10
-222.19734
 20
-266.38845
 30
0.0
 40
0.3
100
AcDbArc
 50
99.17029
 51
253.08599
  0
ARC
  5
69C
100
AcDbEntity
  8
0
  6
CONTINUOUS
 62
     7
100
AcDbCircle
 10
-223.91853
 20
-255.72648
 30
0.0
 40
10.5
100
AcDbArc
 50
279.17029
 51
23.586001
  0
ARC
  5
69D
100
AcDbEntity
  8
0
  6
CONTINUOUS
 62
     7
100
AcDbCircle
 10
-175.0
 20
-263.0
 30
0.0
 40
10.0
100
AcDbArc
 50
270.0
 51
90.000003
  0
CIRCLE
  5
69E
100
AcDbEntity
  8
0
  6
CONTINUOUS
 62
     7
100
AcDbCircle
 10
-200.0
 20
-263.0
 30
0.0
 40
3.5
  0
ARC
  5
69F
100
AcDbEntity
  8
0
  6
CONTINUOUS
 62
     7
100
AcDbCircle
 10
-194.08164
 20
-253.3
 30
0.0
 40
0.3
100
AcDbArc
 50
90.000003
 51
220.49999
  0
ARC
  5
6A0
100
AcDbEntity
  8
0
  6
CONTINUOUS
 62
     7
100
AcDbCircle
 10
-195.25132
 20
-272.7
 30
0.0
 40
0.3
100
AcDbArc
 50
116.0843
 51
270.0
  0
ARC
  5
6A1
100
AcDbEntity
  8
0
  6
CONTINUOUS
 62
     7
100
AcDbCircle
 10
-200.0
 20
-263.0
 30
0.0
 40
10.5
100
AcDbArc
 50
296.08429
 51
40.499999
  0
POINT
  5
6A2
100
AcDbEntity
  8
0
  6
CONTINUOUS
 62
     7
100
AcDbPoint
 10
-175.0
 20
-334.0
 30
0.0
  0
POINT
  5
6A3
100
AcDbEntity
  8
0
  6
CONTINUOUS
 62
     7
100
AcDbPoint
 10
-160.0
 20
-334.0
 30
0.0
  0
LINE
  5
6A4
100
AcDbEntity
  8
0
  6
CENTER
 62
     7
100
AcDbLine
 10
-175.0
 20
-355.0
 30
0.0
 11
-175.0
 21
-313.0
 31
0.0
  0
LINE
  5
6A5
100
AcDbEntity
  8
0
  6
CONTINUOUS
 62
     7
100
AcDbLine
 10
-179.44868
 20
-347.0
 30
0.0
 11
-179.44868
 21
-344.0
 31
0.0
  0
LINE
  5
6A6
100
AcDbEntity
  8
0
  6
CONTINUOUS
 62
     7
100
AcDbLine
 10
-170.55132
 20
-347.0
 30
0.0
 11
-179.44868
 21
-347.0
 31
0.0
  0
LINE
  5
6A7
100
AcDbEntity
  8
0
  6
CONTINUOUS
 62
     7
100
AcDbLine
 10
-170.55132
 20
-350.0
 30
0.0
 11
-244.33519
 21
-350.0
 31
0.0
  0
LINE
  5
6A8
100
AcDbEntity
  8
0
  6
CENTER
 62
     7
100
AcDbLine
 10
-160.0
 20
-334.0
 30
0.0
 11
-254.33519
 21
-334.0
 31
0.0
  0
LINE
  5
6A9
100
AcDbEntity
  8
0
  6
CONTINUOUS
 62
     7
100
AcDbLine
 10
-179.44868
 20
-344.0
 30
0.0
 11
-184.5
 21
-344.0
 31
0.0
  0
LINE
  5
6AA
100
AcDbEntity
  8
0
  6
CENTER
 62
     7
100
AcDbLine
 10
-223.91853
 20
-355.0
 30
0.0
 11
-223.91853
 21
-313.0
 31
0.0
  0
LINE
  5
6AB
100
AcDbEntity
  8
0
  6
CENTER
 62
     7
100
AcDbLine
 10
-200.0
 20
-355.0
 30
0.0
 11
-200.0
 21
-313.0
 31
0.0
  0
LINE
  5
6AC
100
AcDbEntity
  8
0
  6
CONTINUOUS
 62
     7
100
AcDbLine
 10
-181.5
 20
-344.0
 30
0.0
 11
-181.5
 21
-324.0
 31
0.0
  0
LINE
  5
6AD
100
AcDbEntity
  8
0
  6
CONTINUOUS
 62
     7
100
AcDbLine
 10
-184.5
 20
-318.9
 30
0.0
 11
-190.5
 21
-318.9
 31
0.0
  0
LINE
  5
6AE
100
AcDbEntity
  8
0
  6
CONTINUOUS
 62
     7
100
AcDbLine
 10
-184.5
 20
-349.1
 30
0.0
 11
-190.5
 21
-349.1
 31
0.0
  0
LINE
  5
6AF
100
AcDbEntity
  8
0
  6
CONTINUOUS
 62
     7
100
AcDbLine
 10
-170.55132
 20
-321.0
 30
0.0
 11
-179.44868
 21
-321.0
 31
0.0
  0
LINE
  5
6B0
100
AcDbEntity
  8
0
  6
CONTINUOUS
 62
     7
100
AcDbLine
 10
-179.44868
 20
-324.0
 30
0.0
 11
-184.5
 21
-324.0
 31
0.0
  0
LINE
  5
6B1
100
AcDbEntity
  8
0
  6
CONTINUOUS
 62
     7
100
AcDbLine
 10
-184.5
 20
-318.9
 30
0.0
 11
-184.5
 21
-324.0
 31
0.0
  0
LINE
  5
6B2
100
AcDbEntity
  8
0
  6
CONTINUOUS
 62
     7
100
AcDbLine
 10
-179.44868
 20
-321.0
 30
0.0
 11
-179.44868
 21
-324.0
 31
0.0
  0
LINE
  5
6B3
100
AcDbEntity
  8
0
  6
CONTINUOUS
 62
     7
100
AcDbLine
 10
-195.55132
 20
-347.0
 30
0.0
 11
-207.16557
 21
-347.0
 31
0.0
  0
LINE
  5
6B4
100
AcDbEntity
  8
0
  6
CONTINUOUS
 62
     7
100
AcDbLine
 10
-193.5
 20
-344.0
 30
0.0
 11
-193.5
 21
-324.0
 31
0.0
  0
LINE
  5
6B5
100
AcDbEntity
  8
0
  6
CONTINUOUS
 62
     7
100
AcDbLine
 10
-195.55132
 20
-350.0
 30
0.0
 11
-195.55132
 21
-347.0
 31
0.0
  0
LINE
  5
6B6
100
AcDbEntity
  8
0
  6
CONTINUOUS
 62
     7
100
AcDbLine
 10
-195.55132
 20
-318.0
 30
0.0
 11
-195.55132
 21
-321.0
 31
0.0
  0
LINE
  5
6B7
100
AcDbEntity
  8
0
  6
CONTINUOUS
 62
     7
100
AcDbLine
 10
-184.5
 20
-319.5
 30
0.0
 11
-190.5
 21
-319.5
 31
0.0
  0
LINE
  5
6B8
100
AcDbEntity
  8
0
  6
CONTINUOUS
 62
     7
100
AcDbLine
 10
-190.5
 20
-318.9
 30
0.0
 11
-190.5
 21
-324.0
 31
0.0
  0
LINE
  5
6B9
100
AcDbEntity
  8
0
  6
CONTINUOUS
 62
     7
100
AcDbLine
 10
-184.5
 20
-349.1
 30
0.0
 11
-184.5
 21
-344.0
 31
0.0
  0
LINE
  5
6BA
100
AcDbEntity
  8
0
  6
CONTINUOUS
 62
     7
100
AcDbLine
 10
-192.5
 20
-344.0
 30
0.0
 11
-192.5
 21
-324.0
 31
0.0
  0
LINE
  5
6BB
100
AcDbEntity
  8
0
  6
CONTINUOUS
 62
     7
100
AcDbLine
 10
-190.5
 20
-349.1
 30
0.0
 11
-190.5
 21
-344.0
 31
0.0
  0
LINE
  5
6BC
100
AcDbEntity
  8
0
  6
CONTINUOUS
 62
     7
100
AcDbLine
 10
-184.5
 20
-348.5
 30
0.0
 11
-190.5
 21
-348.5
 31
0.0
  0
LINE
  5
6BD
100
AcDbEntity
  8
0
  6
CONTINUOUS
 62
     7
100
AcDbLine
 10
-182.5
 20
-344.0
 30
0.0
 11
-182.5
 21
-324.0
 31
0.0
  0
LINE
  5
6BE
100
AcDbEntity
  8
0
  6
CONTINUOUS
 62
     7
100
AcDbLine
 10
-170.55132
 20
-318.0
 30
0.0
 11
-244.33519
 21
-318.0
 31
0.0
  0
LINE
  5
6BF
100
AcDbEntity
  8
0
  6
CENTER
 62
     7
100
AcDbLine
 10
-182.5
 20
-321.2
 30
0.0
 11
-192.5
 21
-321.2
 31
0.0
  0
LINE
  5
6C0
100
AcDbEntity
  8
0
  6
CENTER
 62
     7
100
AcDbLine
 10
-182.5
 20
-346.8
 30
0.0
 11
-192.5
 21
-346.8
 31
0.0
  0
LINE
  5
6C1
100
AcDbEntity
  8
0
  6
CONTINUOUS
 62
     7
100
AcDbLine
 10
-190.5
 20
-324.0
 30
0.0
 11
-211.99838
 21
-324.0
 31
0.0
  0
LINE
  5
6C2
100
AcDbEntity
  8
0
  6
CONTINUOUS
 62
     7
100
AcDbLine
 10
-190.5
 20
-344.0
 30
0.0
 11
-211.99838
 21
-344.0
 31
0.0
  0
LINE
  5
6C3
100
AcDbEntity
  8
0
  6
CONTINUOUS
 62
     7
100
AcDbLine
 10
-195.55132
 20
-321.0
 30
0.0
 11
-207.16557
 21
-321.0
 31
0.0
  0
LINE
  5
6C4
100
AcDbEntity
  8
0
  6
CONTINUOUS
 62
     7
100
AcDbLine
 10
-207.16557
 20
-321.0
 30
0.0
 11
-207.16557
 21
-324.0
 31
0.0
  0
LINE
  5
6C5
100
AcDbEntity
  8
0
  6
CONTINUOUS
 62
     7
100
AcDbLine
 10
-210.08489
 20
-324.0
 30
0.0
 11
-210.08489
 21
-344.0
 31
0.0
  0
LINE
  5
6C6
100
AcDbEntity
  8
0
  6
CONTINUOUS
 62
     7
100
AcDbLine
 10
-211.99838
 20
-318.9
 30
0.0
 11
-211.99838
 21
-324.0
 31
0.0
  0
LINE
  5
6C7
100
AcDbEntity
  8
0
  6
CONTINUOUS
 62
     7
100
AcDbLine
 10
-217.73883
 20
-318.9
 30
0.0
 11
-217.73883
 21
-324.0
 31
0.0
  0
LINE
  5
6C8
100
AcDbEntity
  8
0
  6
CONTINUOUS
 62
     7
100
AcDbLine
 10
-219.65232
 20
-324.0
 30
0.0
 11
-219.65232
 21
-344.0
 31
0.0
  0
LINE
  5
6C9
100
AcDbEntity
  8
0
  6
CONTINUOUS
 62
     7
100
AcDbLine
 10
-222.57164
 20
-318.0
 30
0.0
 11
-222.57164
 21
-321.0
 31
0.0
  0
LINE
  5
6CA
100
AcDbEntity
  8
0
  6
CONTINUOUS
 62
     7
100
AcDbLine
 10
-234.86287
 20
-321.0
 30
0.0
 11
-234.86287
 21
-324.0
 31
0.0
  0
LINE
  5
6CB
100
AcDbEntity
  8
0
  6
CONTINUOUS
 62
     7
100
AcDbLine
 10
-236.13423
 20
-324.0
 30
0.0
 11
-236.13423
 21
-344.0
 31
0.0
  0
LINE
  5
6CC
100
AcDbEntity
  8
0
  6
CONTINUOUS
 62
     7
100
AcDbLine
 10
-236.96756
 20
-318.9
 30
0.0
 11
-236.96756
 21
-324.0
 31
0.0
  0
LINE
  5
6CD
100
AcDbEntity
  8
0
  6
CONTINUOUS
 62
     7
100
AcDbLine
 10
-239.46752
 20
-318.9
 30
0.0
 11
-239.46752
 21
-324.0
 31
0.0
  0
LINE
  5
6CE
100
AcDbEntity
  8
0
  6
CONTINUOUS
 62
     7
100
AcDbLine
 10
-240.30085
 20
-324.0
 30
0.0
 11
-240.30085
 21
-344.0
 31
0.0
  0
LINE
  5
6CF
100
AcDbEntity
  8
0
  6
CONTINUOUS
 62
     7
100
AcDbLine
 10
-241.57221
 20
-318.0
 30
0.0
 11
-241.57221
 21
-321.0
 31
0.0
  0
LINE
  5
6D0
100
AcDbEntity
  8
0
  6
CONTINUOUS
 62
     7
100
AcDbLine
 10
-244.33519
 20
-318.0
 30
0.0
 11
-244.33519
 21
-324.0
 31
0.0
  0
LINE
  5
6D1
100
AcDbEntity
  8
0
  6
CONTINUOUS
 62
     7
100
AcDbLine
 10
-241.57221
 20
-321.0
 30
0.0
 11
-244.33519
 21
-321.0
 31
0.0
  0
LINE
  5
6D2
100
AcDbEntity
  8
0
  6
CONTINUOUS
 62
     7
100
AcDbLine
 10
-217.73883
 20
-324.0
 30
0.0
 11
-236.96756
 21
-324.0
 31
0.0
  0
LINE
  5
6D3
100
AcDbEntity
  8
0
  6
CONTINUOUS
 62
     7
100
AcDbLine
 10
-222.57164
 20
-321.0
 30
0.0
 11
-234.86287
 21
-321.0
 31
0.0
  0
LINE
  5
6D4
100
AcDbEntity
  8
0
  6
CONTINUOUS
 62
     7
100
AcDbLine
 10
-239.46752
 20
-324.0
 30
0.0
 11
-244.33519
 21
-324.0
 31
0.0
  0
LINE
  5
6D5
100
AcDbEntity
  8
0
  6
CONTINUOUS
 62
     7
100
AcDbLine
 10
-239.46752
 20
-318.9
 30
0.0
 11
-236.96756
 21
-318.9
 31
0.0
  0
LINE
  5
6D6
100
AcDbEntity
  8
0
  6
CONTINUOUS
 62
     7
100
AcDbLine
 10
-239.46752
 20
-319.5
 30
0.0
 11
-236.96756
 21
-319.5
 31
0.0
  0
LINE
  5
6D7
100
AcDbEntity
  8
0
  6
CONTINUOUS
 62
     7
100
AcDbLine
 10
-217.73883
 20
-319.5
 30
0.0
 11
-211.99838
 21
-319.5
 31
0.0
  0
LINE
  5
6D8
100
AcDbEntity
  8
0
  6
CONTINUOUS
 62
     7
100
AcDbLine
 10
-217.73883
 20
-318.9
 30
0.0
 11
-211.99838
 21
-318.9
 31
0.0
  0
LINE
  5
6D9
100
AcDbEntity
  8
0
  6
CONTINUOUS
 62
     7
100
AcDbLine
 10
-241.57221
 20
-350.0
 30
0.0
 11
-241.57221
 21
-347.0
 31
0.0
  0
LINE
  5
6DA
100
AcDbEntity
  8
0
  6
CONTINUOUS
 62
     7
100
AcDbLine
 10
-239.46752
 20
-349.1
 30
0.0
 11
-239.46752
 21
-344.0
 31
0.0
  0
LINE
  5
6DB
100
AcDbEntity
  8
0
  6
CONTINUOUS
 62
     7
100
AcDbLine
 10
-236.96756
 20
-349.1
 30
0.0
 11
-236.96756
 21
-344.0
 31
0.0
  0
LINE
  5
6DC
100
AcDbEntity
  8
0
  6
CONTINUOUS
 62
     7
100
AcDbLine
 10
-234.86287
 20
-347.0
 30
0.0
 11
-234.86287
 21
-344.0
 31
0.0
  0
LINE
  5
6DD
100
AcDbEntity
  8
0
  6
CONTINUOUS
 62
     7
100
AcDbLine
 10
-222.57164
 20
-350.0
 30
0.0
 11
-222.57164
 21
-347.0
 31
0.0
  0
LINE
  5
6DE
100
AcDbEntity
  8
0
  6
CONTINUOUS
 62
     7
100
AcDbLine
 10
-217.73883
 20
-349.1
 30
0.0
 11
-217.73883
 21
-344.0
 31
0.0
  0
LINE
  5
6DF
100
AcDbEntity
  8
0
  6
CONTINUOUS
 62
     7
100
AcDbLine
 10
-211.99838
 20
-349.1
 30
0.0
 11
-211.99838
 21
-344.0
 31
0.0
  0
LINE
  5
6E0
100
AcDbEntity
  8
0
  6
CONTINUOUS
 62
     7
100
AcDbLine
 10
-207.16557
 20
-347.0
 30
0.0
 11
-207.16557
 21
-344.0
 31
0.0
  0
LINE
  5
6E1
100
AcDbEntity
  8
0
  6
CONTINUOUS
 62
     7
100
AcDbLine
 10
-244.33519
 20
-350.0
 30
0.0
 11
-244.33519
 21
-344.0
 31
0.0
  0
LINE
  5
6E2
100
AcDbEntity
  8
0
  6
CONTINUOUS
 62
     7
100
AcDbLine
 10
-241.57221
 20
-347.0
 30
0.0
 11
-244.33519
 21
-347.0
 31
0.0
  0
LINE
  5
6E3
100
AcDbEntity
  8
0
  6
CONTINUOUS
 62
     7
100
AcDbLine
 10
-217.73883
 20
-344.0
 30
0.0
 11
-236.96756
 21
-344.0
 31
0.0
  0
LINE
  5
6E4
100
AcDbEntity
  8
0
  6
CONTINUOUS
 62
     7
100
AcDbLine
 10
-222.57164
 20
-347.0
 30
0.0
 11
-234.86287
 21
-347.0
 31
0.0
  0
LINE
  5
6E5
100
AcDbEntity
  8
0
  6
CONTINUOUS
 62
     7
100
AcDbLine
 10
-239.46752
 20
-344.0
 30
0.0
 11
-244.33519
 21
-344.0
 31
0.0
  0
LINE
  5
6E6
100
AcDbEntity
  8
0
  6
CONTINUOUS
 62
     7
100
AcDbLine
 10
-239.46752
 20
-349.1
 30
0.0
 11
-236.96756
 21
-349.1
 31
0.0
  0
LINE
  5
6E7
100
AcDbEntity
  8
0
  6
CONTINUOUS
 62
     7
100
AcDbLine
 10
-239.46752
 20
-348.5
 30
0.0
 11
-236.96756
 21
-348.5
 31
0.0
  0
LINE
  5
6E8
100
AcDbEntity
  8
0
  6
CONTINUOUS
 62
     7
100
AcDbLine
 10
-217.73883
 20
-348.5
 30
0.0
 11
-211.99838
 21
-348.5
 31
0.0
  0
LINE
  5
6E9
100
AcDbEntity
  8
0
  6
CONTINUOUS
 62
     7
100
AcDbLine
 10
-217.73883
 20
-349.1
 30
0.0
 11
-211.99838
 21
-349.1
 31
0.0
  0
LINE
  5
6EA
100
AcDbEntity
  8
0
  6
CENTER
 62
     7
100
AcDbLine
 10
-234.33519
 20
-355.0
 30
0.0
 11
-234.33519
 21
-313.0
 31
0.0
  0
POINT
  5
6EB
100
AcDbEntity
  8
0
  6
CONTINUOUS
 62
     7
100
AcDbPoint
 10
-40.0
 20
-233.0
 30
0.0
  0
POINT
  5
6EC
100
AcDbEntity
  8
0
  6
CONTINUOUS
 62
     7
100
AcDbPoint
 10
-19.0
 20
-233.0
 30
0.0
  0
LINE
  5
6ED
100
AcDbEntity
  8
0
  6
CONTINUOUS
 62
     7
100
AcDbLine
 10
-30.0
 20
-244.90395
 30
0.0
 11
-30.0
 21
-221.0961
 31
0.0
  0
LINE
  5
6EE
100
AcDbEntity
  8
0
  6
CONTINUOUS
 62
     7
100
AcDbLine
 10
-50.0
 20
-244.90395
 30
0.0
 11
-50.0
 21
-221.0961
 31
0.0
  0
LINE
  5
6EF
100
AcDbEntity
  8
0
  6
CONTINUOUS
 62
     7
100
AcDbLine
 10
-55.1
 20
-250.66782
 30
0.0
 11
-55.1
 21
-244.90395
 31
0.0
  0
LINE
  5
6F0
100
AcDbEntity
  8
0
  6
CONTINUOUS
 62
     7
100
AcDbLine
 10
-30.0
 20
-250.66782
 30
0.0
 11
-24.9
 21
-250.66782
 31
0.0
  0
LINE
  5
6F1
100
AcDbEntity
  8
0
  6
CONTINUOUS
 62
     7
100
AcDbLine
 10
-56.0
 20
-288.0
 30
0.0
 11
-56.0
 21
-178.0
 31
0.0
  0
LINE
  5
6F2
100
AcDbEntity
  8
0
  6
CENTER
 62
     7
100
AcDbLine
 10
-40.0
 20
-298.0
 30
0.0
 11
-40.0
 21
-168.0
 31
0.0
  0
LINE
  5
6F3
100
AcDbEntity
  8
0
  6
CONTINUOUS
 62
     7
100
AcDbLine
 10
-53.0
 20
-288.0
 30
0.0
 11
-53.0
 21
-287.06603
 31
0.0
  0
LINE
  5
6F4
100
AcDbEntity
  8
0
  6
CONTINUOUS
 62
     7
100
AcDbLine
 10
-50.0
 20
-288.0
 30
0.0
 11
-50.0
 21
-286.18098
 31
0.0
  0
LINE
  5
6F5
100
AcDbEntity
  8
0
  6
CENTER
 62
     7
100
AcDbLine
 10
-61.0
 20
-233.0
 30
0.0
 11
-19.0
 21
-233.0
 31
0.0
  0
LINE
  5
6F6
100
AcDbEntity
  8
0
  6
CONTINUOUS
 62
     7
100
AcDbLine
 10
-30.0
 20
-244.90395
 30
0.0
 11
-24.9
 21
-244.90395
 31
0.0
  0
LINE
  5
6F7
100
AcDbEntity
  8
0
  6
CENTER
 62
     7
100
AcDbLine
 10
-61.0
 20
-273.61988
 30
0.0
 11
-19.0
 21
-273.61988
 31
0.0
  0
LINE
  5
6F8
100
AcDbEntity
  8
0
  6
CONTINUOUS
 62
     7
100
AcDbLine
 10
-25.5
 20
-250.66782
 30
0.0
 11
-25.5
 21
-244.90395
 31
0.0
  0
LINE
  5
6F9
100
AcDbEntity
  8
0
  6
CONTINUOUS
 62
     7
100
AcDbLine
 10
-54.5
 20
-250.66782
 30
0.0
 11
-54.5
 21
-244.90395
 31
0.0
  0
LINE
  5
6FA
100
AcDbEntity
  8
0
  6
CONTINUOUS
 62
     7
100
AcDbLine
 10
-24.0
 20
-288.0
 30
0.0
 11
-24.0
 21
-178.0
 31
0.0
  0
LINE
  5
6FB
100
AcDbEntity
  8
0
  6
CONTINUOUS
 62
     7
100
AcDbLine
 10
-53.0
 20
-240.05144
 30
0.0
 11
-53.0
 21
-225.94862
 31
0.0
  0
LINE
  5
6FC
100
AcDbEntity
  8
0
  6
CONTINUOUS
 62
     7
100
AcDbLine
 10
-30.0
 20
-288.0
 30
0.0
 11
-30.0
 21
-286.18098
 31
0.0
  0
LINE
  5
6FD
100
AcDbEntity
  8
0
  6
CONTINUOUS
 62
     7
100
AcDbLine
 10
-27.0
 20
-240.05144
 30
0.0
 11
-27.0
 21
-225.94862
 31
0.0
  0
LINE
  5
6FE
100
AcDbEntity
  8
0
  6
CONTINUOUS
 62
     7
100
AcDbLine
 10
-30.0
 20
-255.52033
 30
0.0
 11
-27.0
 21
-255.52033
 31
0.0
  0
LINE
  5
6FF
100
AcDbEntity
  8
0
  6
CONTINUOUS
 62
     7
100
AcDbLine
 10
-24.9
 20
-250.66782
 30
0.0
 11
-24.9
 21
-244.90395
 31
0.0
  0
LINE
  5
700
100
AcDbEntity
  8
0
  6
CONTINUOUS
 62
     7
100
AcDbLine
 10
-27.0
 20
-240.05144
 30
0.0
 11
-24.0
 21
-240.05144
 31
0.0
  0
LINE
  5
701
100
AcDbEntity
  8
0
  6
CONTINUOUS
 62
     7
100
AcDbLine
 10
-27.0
 20
-288.0
 30
0.0
 11
-27.0
 21
-287.06603
 31
0.0
  0
LINE
  5
702
100
AcDbEntity
  8
0
  6
CONTINUOUS
 62
     7
100
AcDbLine
 10
-50.0
 20
-242.98267
 30
0.0
 11
-30.0
 21
-242.98267
 31
0.0
  0
LINE
  5
703
100
AcDbEntity
  8
0
  6
CONTINUOUS
 62
     7
100
AcDbLine
 10
-56.0
 20
-240.05144
 30
0.0
 11
-53.0
 21
-240.05144
 31
0.0
  0
LINE
  5
704
100
AcDbEntity
  8
0
  6
CONTINUOUS
 62
     7
100
AcDbLine
 10
-55.1
 20
-244.90395
 30
0.0
 11
-50.0
 21
-244.90395
 31
0.0
  0
LINE
  5
705
100
AcDbEntity
  8
0
  6
CONTINUOUS
 62
     7
100
AcDbLine
 10
-55.1
 20
-250.66782
 30
0.0
 11
-50.0
 21
-250.66782
 31
0.0
  0
LINE
  5
706
100
AcDbEntity
  8
0
  6
CONTINUOUS
 62
     7
100
AcDbLine
 10
-50.0
 20
-252.5891
 30
0.0
 11
-30.0
 21
-252.5891
 31
0.0
  0
LINE
  5
707
100
AcDbEntity
  8
0
  6
CONTINUOUS
 62
     7
100
AcDbLine
 10
-53.0
 20
-255.52033
 30
0.0
 11
-50.0
 21
-255.52033
 31
0.0
  0
LINE
  5
708
100
AcDbEntity
  8
0
  6
CONTINUOUS
 62
     7
100
AcDbLine
 10
-56.0
 20
-267.44673
 30
0.0
 11
-53.0
 21
-267.44673
 31
0.0
  0
LINE
  5
709
100
AcDbEntity
  8
0
  6
CONTINUOUS
 62
     7
100
AcDbLine
 10
-50.0
 20
-269.47326
 30
0.0
 11
-30.0
 21
-269.47326
 31
0.0
  0
LINE
  5
70A
100
AcDbEntity
  8
0
  6
CONTINUOUS
 62
     7
100
AcDbLine
 10
-55.1
 20
-270.80155
 30
0.0
 11
-50.0
 21
-270.80155
 31
0.0
  0
LINE
  5
70B
100
AcDbEntity
  8
0
  6
CONTINUOUS
 62
     7
100
AcDbLine
 10
-55.1
 20
-274.78644
 30
0.0
 11
-50.0
 21
-274.78644
 31
0.0
  0
LINE
  5
70C
100
AcDbEntity
  8
0
  6
CONTINUOUS
 62
     7
100
AcDbLine
 10
-50.0
 20
-276.11473
 30
0.0
 11
-30.0
 21
-276.11473
 31
0.0
  0
LINE
  5
70D
100
AcDbEntity
  8
0
  6
CONTINUOUS
 62
     7
100
AcDbLine
 10
-53.0
 20
-278.14126
 30
0.0
 11
-50.0
 21
-278.14126
 31
0.0
  0
LINE
  5
70E
100
AcDbEntity
  8
0
  6
CONTINUOUS
 62
     7
100
AcDbLine
 10
-56.0
 20
-284.24465
 30
0.0
 11
-53.0
 21
-284.24465
 31
0.0
  0
LINE
  5
70F
100
AcDbEntity
  8
0
  6
CONTINUOUS
 62
     7
100
AcDbLine
 10
-50.0
 20
-284.77928
 30
0.0
 11
-30.0
 21
-284.77928
 31
0.0
  0
LINE
  5
710
100
AcDbEntity
  8
0
  6
CONTINUOUS
 62
     7
100
AcDbLine
 10
-55.1
 20
-285.1297
 30
0.0
 11
-50.0
 21
-285.1297
 31
0.0
  0
LINE
  5
711
100
AcDbEntity
  8
0
  6
CONTINUOUS
 62
     7
100
AcDbLine
 10
-55.1
 20
-286.18098
 30
0.0
 11
-50.0
 21
-286.18098
 31
0.0
  0
LINE
  5
712
100
AcDbEntity
  8
0
  6
CONTINUOUS
 62
     7
100
AcDbLine
 10
-50.0
 20
-286.5314
 30
0.0
 11
-30.0
 21
-286.5314
 31
0.0
  0
LINE
  5
713
100
AcDbEntity
  8
0
  6
CONTINUOUS
 62
     7
100
AcDbLine
 10
-53.0
 20
-287.06603
 30
0.0
 11
-50.0
 21
-287.06603
 31
0.0
  0
LINE
  5
714
100
AcDbEntity
  8
0
  6
CONTINUOUS
 62
     7
100
AcDbLine
 10
-25.5
 20
-270.80155
 30
0.0
 11
-25.5
 21
-274.78644
 31
0.0
  0
LINE
  5
715
100
AcDbEntity
  8
0
  6
CONTINUOUS
 62
     7
100
AcDbLine
 10
-24.9
 20
-270.80155
 30
0.0
 11
-24.9
 21
-274.78644
 31
0.0
  0
LINE
  5
716
100
AcDbEntity
  8
0
  6
CONTINUOUS
 62
     7
100
AcDbLine
 10
-25.5
 20
-285.1297
 30
0.0
 11
-25.5
 21
-286.18098
 31
0.0
  0
LINE
  5
717
100
AcDbEntity
  8
0
  6
CONTINUOUS
 62
     7
100
AcDbLine
 10
-24.9
 20
-285.1297
 30
0.0
 11
-24.9
 21
-286.18098
 31
0.0
  0
LINE
  5
718
100
AcDbEntity
  8
0
  6
CONTINUOUS
 62
     7
100
AcDbLine
 10
-24.0
 20
-267.44673
 30
0.0
 11
-27.0
 21
-267.44673
 31
0.0
  0
LINE
  5
719
100
AcDbEntity
  8
0
  6
CONTINUOUS
 62
     7
100
AcDbLine
 10
-55.1
 20
-285.1297
 30
0.0
 11
-55.1
 21
-286.18098
 31
0.0
  0
LINE
  5
71A
100
AcDbEntity
  8
0
  6
CONTINUOUS
 62
     7
100
AcDbLine
 10
-54.5
 20
-285.1297
 30
0.0
 11
-54.5
 21
-286.18098
 31
0.0
  0
LINE
  5
71B
100
AcDbEntity
  8
0
  6
CONTINUOUS
 62
     7
100
AcDbLine
 10
-24.9
 20
-270.80155
 30
0.0
 11
-30.0
 21
-270.80155
 31
0.0
  0
LINE
  5
71C
100
AcDbEntity
  8
0
  6
CONTINUOUS
 62
     7
100
AcDbLine
 10
-24.9
 20
-274.78644
 30
0.0
 11
-30.0
 21
-274.78644
 31
0.0
  0
LINE
  5
71D
100
AcDbEntity
  8
0
  6
CONTINUOUS
 62
     7
100
AcDbLine
 10
-27.0
 20
-278.14126
 30
0.0
 11
-30.0
 21
-278.14126
 31
0.0
  0
LINE
  5
71E
100
AcDbEntity
  8
0
  6
CONTINUOUS
 62
     7
100
AcDbLine
 10
-24.0
 20
-284.24465
 30
0.0
 11
-27.0
 21
-284.24465
 31
0.0
  0
LINE
  5
71F
100
AcDbEntity
  8
0
  6
CONTINUOUS
 62
     7
100
AcDbLine
 10
-24.9
 20
-285.1297
 30
0.0
 11
-30.0
 21
-285.1297
 31
0.0
  0
LINE
  5
720
100
AcDbEntity
  8
0
  6
CONTINUOUS
 62
     7
100
AcDbLine
 10
-24.9
 20
-286.18098
 30
0.0
 11
-30.0
 21
-286.18098
 31
0.0
  0
LINE
  5
721
100
AcDbEntity
  8
0
  6
CONTINUOUS
 62
     7
100
AcDbLine
 10
-27.0
 20
-287.06603
 30
0.0
 11
-30.0
 21
-287.06603
 31
0.0
  0
LINE
  5
722
100
AcDbEntity
  8
0
  6
CONTINUOUS
 62
     7
100
AcDbLine
 10
-24.0
 20
-288.0
 30
0.0
 11
-56.0
 21
-288.0
 31
0.0
  0
LINE
  5
723
100
AcDbEntity
  8
0
  6
CONTINUOUS
 62
     7
100
AcDbLine
 10
-55.1
 20
-270.80155
 30
0.0
 11
-55.1
 21
-274.78644
 31
0.0
  0
LINE
  5
724
100
AcDbEntity
  8
0
  6
CONTINUOUS
 62
     7
100
AcDbLine
 10
-54.5
 20
-270.80155
 30
0.0
 11
-54.5
 21
-274.78644
 31
0.0
  0
LINE
  5
725
100
AcDbEntity
  8
0
  6
CONTINUOUS
 62
     7
100
AcDbLine
 10
-53.0
 20
-267.44673
 30
0.0
 11
-53.0
 21
-255.52033
 31
0.0
  0
LINE
  5
726
100
AcDbEntity
  8
0
  6
CONTINUOUS
 62
     7
100
AcDbLine
 10
-50.0
 20
-270.80155
 30
0.0
 11
-50.0
 21
-250.66782
 31
0.0
  0
LINE
  5
727
100
AcDbEntity
  8
0
  6
CONTINUOUS
 62
     7
100
AcDbLine
 10
-53.0
 20
-284.24465
 30
0.0
 11
-53.0
 21
-278.14126
 31
0.0
  0
LINE
  5
728
100
AcDbEntity
  8
0
  6
CONTINUOUS
 62
     7
100
AcDbLine
 10
-50.0
 20
-285.1297
 30
0.0
 11
-50.0
 21
-274.78644
 31
0.0
  0
LINE
  5
729
100
AcDbEntity
  8
0
  6
CONTINUOUS
 62
     7
100
AcDbLine
 10
-27.0
 20
-267.44673
 30
0.0
 11
-27.0
 21
-255.52033
 31
0.0
  0
LINE
  5
72A
100
AcDbEntity
  8
0
  6
CONTINUOUS
 62
     7
100
AcDbLine
 10
-30.0
 20
-270.80155
 30
0.0
 11
-30.0
 21
-250.66782
 31
0.0
  0
LINE
  5
72B
100
AcDbEntity
  8
0
  6
CONTINUOUS
 62
     7
100
AcDbLine
 10
-27.0
 20
-284.24465
 30
0.0
 11
-27.0
 21
-278.14126
 31
0.0
  0
LINE
  5
72C
100
AcDbEntity
  8
0
  6
CONTINUOUS
 62
     7
100
AcDbLine
 10
-30.0
 20
-285.1297
 30
0.0
 11
-30.0
 21
-274.78644
 31
0.0
  0
LINE
  5
72D
100
AcDbEntity
  8
0
  6
CONTINUOUS
 62
     7
100
AcDbLine
 10
-53.0
 20
-225.94862
 30
0.0
 11
-50.0
 21
-225.94862
 31
0.0
  0
LINE
  5
72E
100
AcDbEntity
  8
0
  6
CONTINUOUS
 62
     7
100
AcDbLine
 10
-50.0
 20
-223.01739
 30
0.0
 11
-30.0
 21
-223.01739
 31
0.0
  0
LINE
  5
72F
100
AcDbEntity
  8
0
  6
CONTINUOUS
 62
     7
100
AcDbLine
 10
-55.1
 20
-221.0961
 30
0.0
 11
-50.0
 21
-221.0961
 31
0.0
  0
LINE
  5
730
100
AcDbEntity
  8
0
  6
CONTINUOUS
 62
     7
100
AcDbLine
 10
-55.1
 20
-215.33222
 30
0.0
 11
-50.0
 21
-215.33222
 31
0.0
  0
LINE
  5
731
100
AcDbEntity
  8
0
  6
CONTINUOUS
 62
     7
100
AcDbLine
 10
-50.0
 20
-213.41093
 30
0.0
 11
-30.0
 21
-213.41093
 31
0.0
  0
LINE
  5
732
100
AcDbEntity
  8
0
  6
CONTINUOUS
 62
     7
100
AcDbLine
 10
-56.0
 20
-210.4797
 30
0.0
 11
-53.0
 21
-210.4797
 31
0.0
  0
LINE
  5
733
100
AcDbEntity
  8
0
  6
CONTINUOUS
 62
     7
100
AcDbLine
 10
-53.0
 20
-198.55326
 30
0.0
 11
-50.0
 21
-198.55326
 31
0.0
  0
LINE
  5
734
100
AcDbEntity
  8
0
  6
CONTINUOUS
 62
     7
100
AcDbLine
 10
-50.0
 20
-196.52673
 30
0.0
 11
-30.0
 21
-196.52673
 31
0.0
  0
LINE
  5
735
100
AcDbEntity
  8
0
  6
CONTINUOUS
 62
     7
100
AcDbLine
 10
-55.1
 20
-195.19844
 30
0.0
 11
-50.0
 21
-195.19844
 31
0.0
  0
LINE
  5
736
100
AcDbEntity
  8
0
  6
CONTINUOUS
 62
     7
100
AcDbLine
 10
-55.1
 20
-191.21354
 30
0.0
 11
-50.0
 21
-191.21354
 31
0.0
  0
LINE
  5
737
100
AcDbEntity
  8
0
  6
CONTINUOUS
 62
     7
100
AcDbLine
 10
-50.0
 20
-189.88524
 30
0.0
 11
-30.0
 21
-189.88524
 31
0.0
  0
LINE
  5
738
100
AcDbEntity
  8
0
  6
CONTINUOUS
 62
     7
100
AcDbLine
 10
-56.0
 20
-187.85871
 30
0.0
 11
-53.0
 21
-187.85871
 31
0.0
  0
LINE
  5
739
100
AcDbEntity
  8
0
  6
CONTINUOUS
 62
     7
100
AcDbLine
 10
-53.0
 20
-181.75538
 30
0.0
 11
-50.0
 21
-181.75538
 31
0.0
  0
LINE
  5
73A
100
AcDbEntity
  8
0
  6
CONTINUOUS
 62
     7
100
AcDbLine
 10
-50.0
 20
-181.22077
 30
0.0
 11
-30.0
 21
-181.22077
 31
0.0
  0
LINE
  5
73B
100
AcDbEntity
  8
0
  6
CONTINUOUS
 62
     7
100
AcDbLine
 10
-55.1
 20
-180.87036
 30
0.0
 11
-50.0
 21
-180.87036
 31
0.0
  0
LINE
  5
73C
100
AcDbEntity
  8
0
  6
CONTINUOUS
 62
     7
100
AcDbLine
 10
-55.1
 20
-179.81913
 30
0.0
 11
-50.0
 21
-179.81913
 31
0.0
  0
LINE
  5
73D
100
AcDbEntity
  8
0
  6
CONTINUOUS
 62
     7
100
AcDbLine
 10
-50.0
 20
-179.46872
 30
0.0
 11
-30.0
 21
-179.46872
 31
0.0
  0
LINE
  5
73E
100
AcDbEntity
  8
0
  6
CONTINUOUS
 62
     7
100
AcDbLine
 10
-56.0
 20
-178.93411
 30
0.0
 11
-53.0
 21
-178.93411
 31
0.0
  0
LINE
  5
73F
100
AcDbEntity
  8
0
  6
CONTINUOUS
 62
     7
100
AcDbLine
 10
-50.0
 20
-191.21354
 30
0.0
 11
-50.0
 21
-180.87036
 31
0.0
  0
LINE
  5
740
100
AcDbEntity
  8
0
  6
CONTINUOUS
 62
     7
100
AcDbLine
 10
-50.0
 20
-215.33222
 30
0.0
 11
-50.0
 21
-195.19844
 31
0.0
  0
LINE
  5
741
100
AcDbEntity
  8
0
  6
CONTINUOUS
 62
     7
100
AcDbLine
 10
-53.0
 20
-210.4797
 30
0.0
 11
-53.0
 21
-198.55326
 31
0.0
  0
LINE
  5
742
100
AcDbEntity
  8
0
  6
CONTINUOUS
 62
     7
100
AcDbLine
 10
-53.0
 20
-187.85871
 30
0.0
 11
-53.0
 21
-181.75538
 31
0.0
  0
LINE
  5
743
100
AcDbEntity
  8
0
  6
CONTINUOUS
 62
     7
100
AcDbLine
 10
-50.0
 20
-179.81913
 30
0.0
 11
-50.0
 21
-178.0
 31
0.0
  0
LINE
  5
744
100
AcDbEntity
  8
0
  6
CONTINUOUS
 62
     7
100
AcDbLine
 10
-53.0
 20
-178.93411
 30
0.0
 11
-53.0
 21
-178.0
 31
0.0
  0
LINE
  5
745
100
AcDbEntity
  8
0
  6
CONTINUOUS
 62
     7
100
AcDbLine
 10
-55.1
 20
-179.81913
 30
0.0
 11
-55.1
 21
-180.87036
 31
0.0
  0
LINE
  5
746
100
AcDbEntity
  8
0
  6
CONTINUOUS
 62
     7
100
AcDbLine
 10
-54.5
 20
-179.81913
 30
0.0
 11
-54.5
 21
-180.87036
 31
0.0
  0
LINE
  5
747
100
AcDbEntity
  8
0
  6
CONTINUOUS
 62
     7
100
AcDbLine
 10
-54.5
 20
-215.33222
 30
0.0
 11
-54.5
 21
-221.0961
 31
0.0
  0
LINE
  5
748
100
AcDbEntity
  8
0
  6
CONTINUOUS
 62
     7
100
AcDbLine
 10
-55.1
 20
-215.33222
 30
0.0
 11
-55.1
 21
-221.0961
 31
0.0
  0
LINE
  5
749
100
AcDbEntity
  8
0
  6
CONTINUOUS
 62
     7
100
AcDbLine
 10
-54.5
 20
-191.21354
 30
0.0
 11
-54.5
 21
-195.19844
 31
0.0
  0
LINE
  5
74A
100
AcDbEntity
  8
0
  6
CONTINUOUS
 62
     7
100
AcDbLine
 10
-55.1
 20
-191.21354
 30
0.0
 11
-55.1
 21
-195.19844
 31
0.0
  0
LINE
  5
74B
100
AcDbEntity
  8
0
  6
CONTINUOUS
 62
     7
100
AcDbLine
 10
-24.0
 20
-178.0
 30
0.0
 11
-56.0
 21
-178.0
 31
0.0
  0
LINE
  5
74C
100
AcDbEntity
  8
0
  6
CONTINUOUS
 62
     7
100
AcDbLine
 10
-24.0
 20
-178.93411
 30
0.0
 11
-27.0
 21
-178.93411
 31
0.0
  0
LINE
  5
74D
100
AcDbEntity
  8
0
  6
CONTINUOUS
 62
     7
100
AcDbLine
 10
-24.9
 20
-179.81913
 30
0.0
 11
-30.0
 21
-179.81913
 31
0.0
  0
LINE
  5
74E
100
AcDbEntity
  8
0
  6
CONTINUOUS
 62
     7
100
AcDbLine
 10
-24.9
 20
-180.87036
 30
0.0
 11
-30.0
 21
-180.87036
 31
0.0
  0
LINE
  5
74F
100
AcDbEntity
  8
0
  6
CONTINUOUS
 62
     7
100
AcDbLine
 10
-27.0
 20
-181.75538
 30
0.0
 11
-30.0
 21
-181.75538
 31
0.0
  0
LINE
  5
750
100
AcDbEntity
  8
0
  6
CONTINUOUS
 62
     7
100
AcDbLine
 10
-24.0
 20
-187.85871
 30
0.0
 11
-27.0
 21
-187.85871
 31
0.0
  0
LINE
  5
751
100
AcDbEntity
  8
0
  6
CONTINUOUS
 62
     7
100
AcDbLine
 10
-24.9
 20
-191.21354
 30
0.0
 11
-30.0
 21
-191.21354
 31
0.0
  0
LINE
  5
752
100
AcDbEntity
  8
0
  6
CONTINUOUS
 62
     7
100
AcDbLine
 10
-24.9
 20
-195.19844
 30
0.0
 11
-30.0
 21
-195.19844
 31
0.0
  0
LINE
  5
753
100
AcDbEntity
  8
0
  6
CONTINUOUS
 62
     7
100
AcDbLine
 10
-27.0
 20
-198.55326
 30
0.0
 11
-30.0
 21
-198.55326
 31
0.0
  0
LINE
  5
754
100
AcDbEntity
  8
0
  6
CONTINUOUS
 62
     7
100
AcDbLine
 10
-24.0
 20
-210.4797
 30
0.0
 11
-27.0
 21
-210.4797
 31
0.0
  0
LINE
  5
755
100
AcDbEntity
  8
0
  6
CONTINUOUS
 62
     7
100
AcDbLine
 10
-24.9
 20
-215.33222
 30
0.0
 11
-30.0
 21
-215.33222
 31
0.0
  0
LINE
  5
756
100
AcDbEntity
  8
0
  6
CONTINUOUS
 62
     7
100
AcDbLine
 10
-24.9
 20
-221.0961
 30
0.0
 11
-30.0
 21
-221.0961
 31
0.0
  0
LINE
  5
757
100
AcDbEntity
  8
0
  6
CONTINUOUS
 62
     7
100
AcDbLine
 10
-27.0
 20
-225.94862
 30
0.0
 11
-30.0
 21
-225.94862
 31
0.0
  0
LINE
  5
758
100
AcDbEntity
  8
0
  6
CONTINUOUS
 62
     7
100
AcDbLine
 10
-30.0
 20
-191.21354
 30
0.0
 11
-30.0
 21
-180.87036
 31
0.0
  0
LINE
  5
759
100
AcDbEntity
  8
0
  6
CONTINUOUS
 62
     7
100
AcDbLine
 10
-30.0
 20
-215.33222
 30
0.0
 11
-30.0
 21
-195.19844
 31
0.0
  0
LINE
  5
75A
100
AcDbEntity
  8
0
  6
CONTINUOUS
 62
     7
100
AcDbLine
 10
-27.0
 20
-210.4797
 30
0.0
 11
-27.0
 21
-198.55326
 31
0.0
  0
LINE
  5
75B
100
AcDbEntity
  8
0
  6
CONTINUOUS
 62
     7
100
AcDbLine
 10
-27.0
 20
-187.85871
 30
0.0
 11
-27.0
 21
-181.75538
 31
0.0
  0
LINE
  5
75C
100
AcDbEntity
  8
0
  6
CONTINUOUS
 62
     7
100
AcDbLine
 10
-30.0
 20
-179.81913
 30
0.0
 11
-30.0
 21
-178.0
 31
0.0
  0
LINE
  5
75D
100
AcDbEntity
  8
0
  6
CONTINUOUS
 62
     7
100
AcDbLine
 10
-27.0
 20
-178.93411
 30
0.0
 11
-27.0
 21
-178.0
 31
0.0
  0
LINE
  5
75E
100
AcDbEntity
  8
0
  6
CONTINUOUS
 62
     7
100
AcDbLine
 10
-24.9
 20
-179.81913
 30
0.0
 11
-24.9
 21
-180.87036
 31
0.0
  0
LINE
  5
75F
100
AcDbEntity
  8
0
  6
CONTINUOUS
 62
     7
100
AcDbLine
 10
-25.5
 20
-179.81913
 30
0.0
 11
-25.5
 21
-180.87036
 31
0.0
  0
LINE
  5
760
100
AcDbEntity
  8
0
  6
CONTINUOUS
 62
     7
100
AcDbLine
 10
-25.5
 20
-215.33222
 30
0.0
 11
-25.5
 21
-221.0961
 31
0.0
  0
LINE
  5
761
100
AcDbEntity
  8
0
  6
CONTINUOUS
 62
     7
100
AcDbLine
 10
-24.9
 20
-215.33222
 30
0.0
 11
-24.9
 21
-221.0961
 31
0.0
  0
LINE
  5
762
100
AcDbEntity
  8
0
  6
CONTINUOUS
 62
     7
100
AcDbLine
 10
-25.5
 20
-191.21354
 30
0.0
 11
-25.5
 21
-195.19844
 31
0.0
  0
LINE
  5
763
100
AcDbEntity
  8
0
  6
CONTINUOUS
 62
     7
100
AcDbLine
 10
-24.9
 20
-191.21354
 30
0.0
 11
-24.9
 21
-195.19844
 31
0.0
  0
LINE
  5
764
100
AcDbEntity
  8
0
  6
CENTER
 62
     7
100
AcDbLine
 10
-61.0
 20
-257.01613
 30
0.0
 11
-19.0
 21
-257.01613
 31
0.0
  0
LINE
  5
765
100
AcDbEntity
  8
0
  6
CENTER
 62
     7
100
AcDbLine
 10
-61.0
 20
-278.0
 30
0.0
 11
-19.0
 21
-278.0
 31
0.0
  0
LINE
  5
766
100
AcDbEntity
  8
0
  6
CENTER
 62
     7
100
AcDbLine
 10
-61.0
 20
-208.98387
 30
0.0
 11
-19.0
 21
-208.98387
 31
0.0
  0
LINE
  5
767
100
AcDbEntity
  8
0
  6
CENTER
 62
     7
100
AcDbLine
 10
-61.0
 20
-192.38012
 30
0.0
 11
-19.0
 21
-192.38012
 31
0.0
  0
LINE
  5
768
100
AcDbEntity
  8
0
  6
CENTER
 62
     7
100
AcDbLine
 10
-61.0
 20
-188.0
 30
0.0
 11
-19.0
 21
-188.0
 31
0.0
  0
POINT
  5
769
100
AcDbEntity
  8
0
  6
CONTINUOUS
 62
     7
100
AcDbPoint
 10
95.0
 20
-134.0
 30
0.0
  0
POINT
  5
76A
100
AcDbEntity
  8
0
  6
CONTINUOUS
 62
     7
100
AcDbPoint
 10
115.0
 20
-134.0
 30
0.0
  0
LINE
  5
76B
100
AcDbEntity
  8
0
  6
CONTINUOUS
 62
     7
100
AcDbLine
 10
87.5
 20
-124.0
 30
0.0
 11
87.5
 21
-144.0
 31
0.0
  0
LINE
  5
76C
100
AcDbEntity
  8
0
  6
CONTINUOUS
 62
     7
100
AcDbLine
 10
77.5
 20
-124.0
 30
0.0
 11
77.5
 21
-144.0
 31
0.0
  0
LINE
  5
76D
100
AcDbEntity
  8
0
  6
CONTINUOUS
 62
     7
100
AcDbLine
 10
85.5
 20
-118.9
 30
0.0
 11
85.5
 21
-124.0
 31
0.0
  0
LINE
  5
76E
100
AcDbEntity
  8
0
  6
CONTINUOUS
 62
     7
100
AcDbLine
 10
79.5
 20
-118.9
 30
0.0
 11
79.5
 21
-124.0
 31
0.0
  0
LINE
  5
76F
100
AcDbEntity
  8
0
  6
CONTINUOUS
 62
     7
100
AcDbLine
 10
79.5
 20
-118.9
 30
0.0
 11
85.5
 21
-118.9
 31
0.0
  0
LINE
  5
770
100
AcDbEntity
  8
0
  6
CONTINUOUS
 62
     7
100
AcDbLine
 10
85.5
 20
-124.0
 30
0.0
 11
99.44868
 21
-124.0
 31
0.0
  0
LINE
  5
771
100
AcDbEntity
  8
0
  6
CONTINUOUS
 62
     7
100
AcDbLine
 10
74.448685
 20
-121.0
 30
0.0
 11
74.448685
 21
-124.0
 31
0.0
  0
LINE
  5
772
100
AcDbEntity
  8
0
  6
CONTINUOUS
 62
     7
100
AcDbLine
 10
9.752274
 20
-118.0
 30
0.0
 11
90.551316
 21
-118.0
 31
0.0
  0
LINE
  5
773
100
AcDbEntity
  8
0
  6
CENTER
 62
     7
100
AcDbLine
 10
-0.247726
 20
-134.0
 30
0.0
 11
115.0
 21
-134.0
 31
0.0
  0
LINE
  5
774
100
AcDbEntity
  8
0
  6
CONTINUOUS
 62
     7
100
AcDbLine
 10
9.752274
 20
-121.0
 30
0.0
 11
11.381569
 21
-121.0
 31
0.0
  0
LINE
  5
775
100
AcDbEntity
  8
0
  6
CONTINUOUS
 62
     7
100
AcDbLine
 10
9.752274
 20
-124.0
 30
0.0
 11
12.784706
 21
-124.0
 31
0.0
  0
LINE
  5
776
100
AcDbEntity
  8
0
  6
CENTER
 62
     7
100
AcDbLine
 10
95.0
 20
-113.0
 30
0.0
 11
95.0
 21
-155.0
 31
0.0
  0
LINE
  5
777
100
AcDbEntity
  8
0
  6
CENTER
 62
     7
100
AcDbLine
 10
70.0
 20
-113.0
 30
0.0
 11
70.0
 21
-155.0
 31
0.0
  0
LINE
  5
778
100
AcDbEntity
  8
0
  6
CONTINUOUS
 62
     7
100
AcDbLine
 10
88.5
 20
-124.0
 30
0.0
 11
88.5
 21
-144.0
 31
0.0
  0
LINE
  5
779
100
AcDbEntity
  8
0
  6
CONTINUOUS
 62
     7
100
AcDbLine
 10
76.5
 20
-124.0
 30
0.0
 11
76.5
 21
-144.0
 31
0.0
  0
LINE
  5
77A
100
AcDbEntity
  8
0
  6
CONTINUOUS
 62
     7
100
AcDbLine
 10
90.551316
 20
-118.0
 30
0.0
 11
90.551316
 21
-121.0
 31
0.0
  0
LINE
  5
77B
100
AcDbEntity
  8
0
  6
CENTER
 62
     7
100
AcDbLine
 10
45.3867
 20
-113.0
 30
0.0
 11
45.3867
 21
-155.0
 31
0.0
  0
LINE
  5
77C
100
AcDbEntity
  8
0
  6
CONTINUOUS
 62
     7
100
AcDbLine
 10
63.868076
 20
-118.0
 30
0.0
 11
63.868076
 21
-121.0
 31
0.0
  0
LINE
  5
77D
100
AcDbEntity
  8
0
  6
CONTINUOUS
 62
     7
100
AcDbLine
 10
79.5
 20
-149.1
 30
0.0
 11
79.5
 21
-144.0
 31
0.0
  0
LINE
  5
77E
100
AcDbEntity
  8
0
  6
CONTINUOUS
 62
     7
100
AcDbLine
 10
79.5
 20
-148.5
 30
0.0
 11
85.5
 21
-148.5
 31
0.0
  0
LINE
  5
77F
100
AcDbEntity
  8
0
  6
CONTINUOUS
 62
     7
100
AcDbLine
 10
85.5
 20
-149.1
 30
0.0
 11
85.5
 21
-144.0
 31
0.0
  0
LINE
  5
780
100
AcDbEntity
  8
0
  6
CONTINUOUS
 62
     7
100
AcDbLine
 10
79.5
 20
-119.5
 30
0.0
 11
85.5
 21
-119.5
 31
0.0
  0
LINE
  5
781
100
AcDbEntity
  8
0
  6
CONTINUOUS
 62
     7
100
AcDbLine
 10
90.551316
 20
-147.0
 30
0.0
 11
99.44868
 21
-147.0
 31
0.0
  0
LINE
  5
782
100
AcDbEntity
  8
0
  6
CONTINUOUS
 62
     7
100
AcDbLine
 10
90.551316
 20
-121.0
 30
0.0
 11
99.44868
 21
-121.0
 31
0.0
  0
LINE
  5
783
100
AcDbEntity
  8
0
  6
CENTER
 62
     7
100
AcDbLine
 10
77.5
 20
-146.8
 30
0.0
 11
87.5
 21
-146.8
 31
0.0
  0
LINE
  5
784
100
AcDbEntity
  8
0
  6
CENTER
 62
     7
100
AcDbLine
 10
77.5
 20
-121.2
 30
0.0
 11
87.5
 21
-121.2
 31
0.0
  0
LINE
  5
785
100
AcDbEntity
  8
0
  6
CONTINUOUS
 62
     7
100
AcDbLine
 10
9.752274
 20
-147.0
 30
0.0
 11
11.381569
 21
-147.0
 31
0.0
  0
LINE
  5
786
100
AcDbEntity
  8
0
  6
CONTINUOUS
 62
     7
100
AcDbLine
 10
85.5
 20
-144.0
 30
0.0
 11
99.44868
 21
-144.0
 31
0.0
  0
LINE
  5
787
100
AcDbEntity
  8
0
  6
CONTINUOUS
 62
     7
100
AcDbLine
 10
74.448685
 20
-147.0
 30
0.0
 11
74.448685
 21
-144.0
 31
0.0
  0
LINE
  5
788
100
AcDbEntity
  8
0
  6
CONTINUOUS
 62
     7
100
AcDbLine
 10
79.5
 20
-149.1
 30
0.0
 11
85.5
 21
-149.1
 31
0.0
  0
LINE
  5
789
100
AcDbEntity
  8
0
  6
CONTINUOUS
 62
     7
100
AcDbLine
 10
90.551316
 20
-150.0
 30
0.0
 11
90.551316
 21
-147.0
 31
0.0
  0
LINE
  5
78A
100
AcDbEntity
  8
0
  6
CONTINUOUS
 62
     7
100
AcDbLine
 10
60.86396
 20
-124.0
 30
0.0
 11
60.86396
 21
-144.0
 31
0.0
  0
LINE
  5
78B
100
AcDbEntity
  8
0
  6
CONTINUOUS
 62
     7
100
AcDbLine
 10
9.752274
 20
-150.0
 30
0.0
 11
90.551316
 21
-150.0
 31
0.0
  0
LINE
  5
78C
100
AcDbEntity
  8
0
  6
CONTINUOUS
 62
     7
100
AcDbLine
 10
52.987701
 20
-118.9
 30
0.0
 11
52.987701
 21
-124.0
 31
0.0
  0
LINE
  5
78D
100
AcDbEntity
  8
0
  6
CONTINUOUS
 62
     7
100
AcDbLine
 10
51.018639
 20
-124.0
 30
0.0
 11
51.018639
 21
-144.0
 31
0.0
  0
LINE
  5
78E
100
AcDbEntity
  8
0
  6
CONTINUOUS
 62
     7
100
AcDbLine
 10
48.014523
 20
-121.0
 30
0.0
 11
48.014523
 21
-124.0
 31
0.0
  0
LINE
  5
78F
100
AcDbEntity
  8
0
  6
CONTINUOUS
 62
     7
100
AcDbLine
 10
58.894894
 20
-118.9
 30
0.0
 11
58.894894
 21
-124.0
 31
0.0
  0
LINE
  5
790
100
AcDbEntity
  8
0
  6
CONTINUOUS
 62
     7
100
AcDbLine
 10
23.381042
 20
-121.0
 30
0.0
 11
23.381042
 21
-124.0
 31
0.0
  0
LINE
  5
791
100
AcDbEntity
  8
0
  6
CONTINUOUS
 62
     7
100
AcDbLine
 10
25.662209
 20
-124.0
 30
0.0
 11
25.662209
 21
-144.0
 31
0.0
  0
LINE
  5
792
100
AcDbEntity
  8
0
  6
CONTINUOUS
 62
     7
100
AcDbLine
 10
27.15741
 20
-118.9
 30
0.0
 11
27.15741
 21
-124.0
 31
0.0
  0
LINE
  5
793
100
AcDbEntity
  8
0
  6
CONTINUOUS
 62
     7
100
AcDbLine
 10
31.643005
 20
-118.9
 30
0.0
 11
31.643005
 21
-124.0
 31
0.0
  0
LINE
  5
794
100
AcDbEntity
  8
0
  6
CONTINUOUS
 62
     7
100
AcDbLine
 10
33.138206
 20
-124.0
 30
0.0
 11
33.138206
 21
-144.0
 31
0.0
  0
LINE
  5
795
100
AcDbEntity
  8
0
  6
CONTINUOUS
 62
     7
100
AcDbLine
 10
35.419369
 20
-118.0
 30
0.0
 11
35.419369
 21
-121.0
 31
0.0
  0
LINE
  5
796
100
AcDbEntity
  8
0
  6
CONTINUOUS
 62
     7
100
AcDbLine
 10
15.854515
 20
-118.0
 30
0.0
 11
15.854515
 21
-121.0
 31
0.0
  0
LINE
  5
797
100
AcDbEntity
  8
0
  6
CONTINUOUS
 62
     7
100
AcDbLine
 10
15.006927
 20
-124.0
 30
0.0
 11
15.006927
 21
-144.0
 31
0.0
  0
LINE
  5
798
100
AcDbEntity
  8
0
  6
CONTINUOUS
 62
     7
100
AcDbLine
 10
14.45137
 20
-118.9
 30
0.0
 11
14.45137
 21
-124.0
 31
0.0
  0
LINE
  5
799
100
AcDbEntity
  8
0
  6
CONTINUOUS
 62
     7
100
AcDbLine
 10
12.784706
 20
-118.9
 30
0.0
 11
12.784706
 21
-124.0
 31
0.0
  0
LINE
  5
79A
100
AcDbEntity
  8
0
  6
CONTINUOUS
 62
     7
100
AcDbLine
 10
12.229156
 20
-124.0
 30
0.0
 11
12.229156
 21
-144.0
 31
0.0
  0
LINE
  5
79B
100
AcDbEntity
  8
0
  6
CONTINUOUS
 62
     7
100
AcDbLine
 10
11.381569
 20
-121.0
 30
0.0
 11
11.381569
 21
-124.0
 31
0.0
  0
LINE
  5
79C
100
AcDbEntity
  8
0
  6
CONTINUOUS
 62
     7
100
AcDbLine
 10
9.752274
 20
-118.0
 30
0.0
 11
9.752274
 21
-124.0
 31
0.0
  0
LINE
  5
79D
100
AcDbEntity
  8
0
  6
CONTINUOUS
 62
     7
100
AcDbLine
 10
35.419369
 20
-121.0
 30
0.0
 11
48.014523
 21
-121.0
 31
0.0
  0
LINE
  5
79E
100
AcDbEntity
  8
0
  6
CONTINUOUS
 62
     7
100
AcDbLine
 10
58.894894
 20
-124.0
 30
0.0
 11
79.5
 21
-124.0
 31
0.0
  0
LINE
  5
79F
100
AcDbEntity
  8
0
  6
CONTINUOUS
 62
     7
100
AcDbLine
 10
63.868076
 20
-121.0
 30
0.0
 11
74.448685
 21
-121.0
 31
0.0
  0
LINE
  5
7A0
100
AcDbEntity
  8
0
  6
CONTINUOUS
 62
     7
100
AcDbLine
 10
31.643005
 20
-124.0
 30
0.0
 11
52.987701
 21
-124.0
 31
0.0
  0
LINE
  5
7A1
100
AcDbEntity
  8
0
  6
CONTINUOUS
 62
     7
100
AcDbLine
 10
15.854515
 20
-121.0
 30
0.0
 11
23.381042
 21
-121.0
 31
0.0
  0
LINE
  5
7A2
100
AcDbEntity
  8
0
  6
CONTINUOUS
 62
     7
100
AcDbLine
 10
14.45137
 20
-124.0
 30
0.0
 11
27.15741
 21
-124.0
 31
0.0
  0
LINE
  5
7A3
100
AcDbEntity
  8
0
  6
CONTINUOUS
 62
     7
100
AcDbLine
 10
12.784706
 20
-118.9
 30
0.0
 11
14.45137
 21
-118.9
 31
0.0
  0
LINE
  5
7A4
100
AcDbEntity
  8
0
  6
CONTINUOUS
 62
     7
100
AcDbLine
 10
12.784706
 20
-119.5
 30
0.0
 11
14.45137
 21
-119.5
 31
0.0
  0
LINE
  5
7A5
100
AcDbEntity
  8
0
  6
CONTINUOUS
 62
     7
100
AcDbLine
 10
52.987701
 20
-119.5
 30
0.0
 11
58.894894
 21
-119.5
 31
0.0
  0
LINE
  5
7A6
100
AcDbEntity
  8
0
  6
CONTINUOUS
 62
     7
100
AcDbLine
 10
52.987701
 20
-118.9
 30
0.0
 11
58.894894
 21
-118.9
 31
0.0
  0
LINE
  5
7A7
100
AcDbEntity
  8
0
  6
CONTINUOUS
 62
     7
100
AcDbLine
 10
27.15741
 20
-119.5
 30
0.0
 11
31.643005
 21
-119.5
 31
0.0
  0
LINE
  5
7A8
100
AcDbEntity
  8
0
  6
CONTINUOUS
 62
     7
100
AcDbLine
 10
27.15741
 20
-118.9
 30
0.0
 11
31.643005
 21
-118.9
 31
0.0
  0
LINE
  5
7A9
100
AcDbEntity
  8
0
  6
CONTINUOUS
 62
     7
100
AcDbLine
 10
11.381569
 20
-147.0
 30
0.0
 11
11.381569
 21
-144.0
 31
0.0
  0
LINE
  5
7AA
100
AcDbEntity
  8
0
  6
CONTINUOUS
 62
     7
100
AcDbLine
 10
12.784706
 20
-149.1
 30
0.0
 11
12.784706
 21
-144.0
 31
0.0
  0
LINE
  5
7AB
100
AcDbEntity
  8
0
  6
CONTINUOUS
 62
     7
100
AcDbLine
 10
14.45137
 20
-149.1
 30
0.0
 11
14.45137
 21
-144.0
 31
0.0
  0
LINE
  5
7AC
100
AcDbEntity
  8
0
  6
CONTINUOUS
 62
     7
100
AcDbLine
 10
15.854515
 20
-150.0
 30
0.0
 11
15.854515
 21
-147.0
 31
0.0
  0
LINE
  5
7AD
100
AcDbEntity
  8
0
  6
CONTINUOUS
 62
     7
100
AcDbLine
 10
35.419369
 20
-150.0
 30
0.0
 11
35.419369
 21
-147.0
 31
0.0
  0
LINE
  5
7AE
100
AcDbEntity
  8
0
  6
CONTINUOUS
 62
     7
100
AcDbLine
 10
31.643005
 20
-149.1
 30
0.0
 11
31.643005
 21
-144.0
 31
0.0
  0
LINE
  5
7AF
100
AcDbEntity
  8
0
  6
CONTINUOUS
 62
     7
100
AcDbLine
 10
27.15741
 20
-149.1
 30
0.0
 11
27.15741
 21
-144.0
 31
0.0
  0
LINE
  5
7B0
100
AcDbEntity
  8
0
  6
CONTINUOUS
 62
     7
100
AcDbLine
 10
23.381042
 20
-147.0
 30
0.0
 11
23.381042
 21
-144.0
 31
0.0
  0
LINE
  5
7B1
100
AcDbEntity
  8
0
  6
CONTINUOUS
 62
     7
100
AcDbLine
 10
58.894894
 20
-149.1
 30
0.0
 11
58.894894
 21
-144.0
 31
0.0
  0
LINE
  5
7B2
100
AcDbEntity
  8
0
  6
CONTINUOUS
 62
     7
100
AcDbLine
 10
48.014523
 20
-147.0
 30
0.0
 11
48.014523
 21
-144.0
 31
0.0
  0
LINE
  5
7B3
100
AcDbEntity
  8
0
  6
CONTINUOUS
 62
     7
100
AcDbLine
 10
52.987701
 20
-149.1
 30
0.0
 11
52.987701
 21
-144.0
 31
0.0
  0
LINE
  5
7B4
100
AcDbEntity
  8
0
  6
CONTINUOUS
 62
     7
100
AcDbLine
 10
63.868076
 20
-150.0
 30
0.0
 11
63.868076
 21
-147.0
 31
0.0
  0
LINE
  5
7B5
100
AcDbEntity
  8
0
  6
CONTINUOUS
 62
     7
100
AcDbLine
 10
9.752274
 20
-144.0
 30
0.0
 11
12.784706
 21
-144.0
 31
0.0
  0
LINE
  5
7B6
100
AcDbEntity
  8
0
  6
CONTINUOUS
 62
     7
100
AcDbLine
 10
9.752274
 20
-150.0
 30
0.0
 11
9.752274
 21
-144.0
 31
0.0
  0
LINE
  5
7B7
100
AcDbEntity
  8
0
  6
CONTINUOUS
 62
     7
100
AcDbLine
 10
35.419369
 20
-147.0
 30
0.0
 11
48.014523
 21
-147.0
 31
0.0
  0
LINE
  5
7B8
100
AcDbEntity
  8
0
  6
CONTINUOUS
 62
     7
100
AcDbLine
 10
58.894894
 20
-144.0
 30
0.0
 11
79.5
 21
-144.0
 31
0.0
  0
LINE
  5
7B9
100
AcDbEntity
  8
0
  6
CONTINUOUS
 62
     7
100
AcDbLine
 10
63.868076
 20
-147.0
 30
0.0
 11
74.448685
 21
-147.0
 31
0.0
  0
LINE
  5
7BA
100
AcDbEntity
  8
0
  6
CONTINUOUS
 62
     7
100
AcDbLine
 10
31.643005
 20
-144.0
 30
0.0
 11
52.987701
 21
-144.0
 31
0.0
  0
LINE
  5
7BB
100
AcDbEntity
  8
0
  6
CONTINUOUS
 62
     7
100
AcDbLine
 10
15.854515
 20
-147.0
 30
0.0
 11
23.381042
 21
-147.0
 31
0.0
  0
LINE
  5
7BC
100
AcDbEntity
  8
0
  6
CONTINUOUS
 62
     7
100
AcDbLine
 10
14.45137
 20
-144.0
 30
0.0
 11
27.15741
 21
-144.0
 31
0.0
  0
LINE
  5
7BD
100
AcDbEntity
  8
0
  6
CONTINUOUS
 62
     7
100
AcDbLine
 10
12.784706
 20
-149.1
 30
0.0
 11
14.45137
 21
-149.1
 31
0.0
  0
LINE
  5
7BE
100
AcDbEntity
  8
0
  6
CONTINUOUS
 62
     7
100
AcDbLine
 10
12.784706
 20
-148.5
 30
0.0
 11
14.45137
 21
-148.5
 31
0.0
  0
LINE
  5
7BF
100
AcDbEntity
  8
0
  6
CONTINUOUS
 62
     7
100
AcDbLine
 10
52.987701
 20
-148.5
 30
0.0
 11
58.894894
 21
-148.5
 31
0.0
  0
LINE
  5
7C0
100
AcDbEntity
  8
0
  6
CONTINUOUS
 62
     7
100
AcDbLine
 10
52.987701
 20
-149.1
 30
0.0
 11
58.894894
 21
-149.1
 31
0.0
  0
LINE
  5
7C1
100
AcDbEntity
  8
0
  6
CONTINUOUS
 62
     7
100
AcDbLine
 10
27.15741
 20
-148.5
 30
0.0
 11
31.643005
 21
-148.5
 31
0.0
  0
LINE
  5
7C2
100
AcDbEntity
  8
0
  6
CONTINUOUS
 62
     7
100
AcDbLine
 10
27.15741
 20
-149.1
 30
0.0
 11
31.643005
 21
-149.1
 31
0.0
  0
LINE
  5
7C3
100
AcDbEntity
  8
0
  6
CENTER
 62
     7
100
AcDbLine
 10
26.696716
 20
-113.0
 30
0.0
 11
26.696716
 21
-155.0
 31
0.0
  0
LINE
  5
7C4
100
AcDbEntity
  8
0
  6
CENTER
 62
     7
100
AcDbLine
 10
19.752266
 20
-113.0
 30
0.0
 11
19.752266
 21
-155.0
 31
0.0
  0
POINT
  5
7C5
100
AcDbEntity
  8
0
  6
CONTINUOUS
 62
     7
100
AcDbPoint
 10
95.0
 20
-188.0
 30
0.0
  0
POINT
  5
7C6
100
AcDbEntity
  8
0
  6
CONTINUOUS
 62
     7
100
AcDbPoint
 10
115.0
 20
-188.0
 30
0.0
  0
LINE
  5
7C7
100
AcDbEntity
  8
0
  6
CENTER
 62
     7
100
AcDbLine
 10
-0.247726
 20
-233.0
 30
0.0
 11
115.0
 21
-233.0
 31
0.0
  0
LINE
  5
7C8
100
AcDbEntity
  8
0
  6
CENTER
 62
     7
100
AcDbLine
 10
64.75227
 20
-168.0
 30
0.0
 11
64.75227
 21
-298.0
 31
0.0
  0
LINE
  5
7C9
100
AcDbEntity
  8
0
  6
CENTER
 62
     7
100
AcDbLine
 10
64.75227
 20
-188.0
 30
0.0
 11
115.0
 21
-188.0
 31
0.0
  0
LINE
  5
7CA
100
AcDbEntity
  8
0
  6
CENTER
 62
     7
100
AcDbLine
 10
64.75227
 20
-278.0
 30
0.0
 11
115.0
 21
-278.0
 31
0.0
  0
LINE
  5
7CB
100
AcDbEntity
  8
0
  6
CENTER
 62
     7
100
AcDbLine
 10
70.0
 20
-182.5
 30
0.0
 11
70.0
 21
-193.5
 31
0.0
  0
LINE
  5
7CC
100
AcDbEntity
  8
0
  6
CENTER
 62
     7
100
AcDbLine
 10
50.8867
 20
-273.61988
 30
0.0
 11
39.8867
 21
-273.61988
 31
0.0
  0
LINE
  5
7CD
100
AcDbEntity
  8
0
  6
CONTINUOUS
 62
     7
100
AcDbLine
 10
70.0
 20
-178.0
 30
0.0
 11
95.0
 21
-178.0
 31
0.0
  0
LINE
  5
7CE
100
AcDbEntity
  8
0
  6
CENTER
 62
     7
100
AcDbLine
 10
95.0
 20
-181.96
 30
0.0
 11
95.0
 21
-194.04
 31
0.0
  0
LINE
  5
7CF
100
AcDbEntity
  8
0
  6
CONTINUOUS
 62
     7
100
AcDbLine
 10
93.0
 20
-185.12772
 30
0.0
 11
93.0
 21
-190.87228
 31
0.0
  0
LINE
  5
7D0
100
AcDbEntity
  8
0
  6
CONTINUOUS
 62
     7
100
AcDbLine
 10
89.309765
 20
-197.50517
 30
0.0
 11
87.015738
 21
-194.8192
 31
0.0
  0
LINE
  5
7D1
100
AcDbEntity
  8
0
  6
CONTINUOUS
 62
     7
100
AcDbLine
 10
70.0
 20
-198.0
 30
0.0
 11
95.0
 21
-198.0
 31
0.0
  0
LINE
  5
7D2
100
AcDbEntity
  8
0
  6
CONTINUOUS
 62
     7
100
AcDbLine
 10
43.634647
 20
-182.53481
 30
0.0
 11
68.247948
 21
-178.15468
 31
0.0
  0
LINE
  5
7D3
100
AcDbEntity
  8
0
  6
CONTINUOUS
 62
     7
100
AcDbLine
 10
67.527697
 20
-185.52256
 30
0.0
 11
68.534174
 21
-191.17826
 31
0.0
  0
LINE
  5
7D4
100
AcDbEntity
  8
0
  6
CONTINUOUS
 62
     7
100
AcDbLine
 10
66.063137
 20
-198.3551
 30
0.0
 11
63.334
 21
-196.11261
 31
0.0
  0
LINE
  5
7D5
100
AcDbEntity
  8
0
  6
CONTINUOUS
 62
     7
100
AcDbLine
 10
47.138752
 20
-202.22545
 30
0.0
 11
70.882854
 21
-198.0
 31
0.0
  0
LINE
  5
7D6
100
AcDbEntity
  8
0
  6
CONTINUOUS
 62
     7
100
AcDbLine
 10
20.055206
 20
-201.50786
 30
0.0
 11
38.745209
 21
-184.90412
 31
0.0
  0
LINE
  5
7D7
100
AcDbEntity
  8
0
  6
CONTINUOUS
 62
     7
100
AcDbLine
 10
41.983875
 20
-191.5611
 30
0.0
 11
45.799126
 21
-195.85573
 31
0.0
  0
LINE
  5
7D8
100
AcDbEntity
  8
0
  6
CONTINUOUS
 62
     7
100
AcDbLine
 10
47.44553
 20
-203.26535
 30
0.0
 11
43.946636
 21
-202.7809
 31
0.0
  0
LINE
  5
7D9
100
AcDbEntity
  8
0
  6
CONTINUOUS
 62
     7
100
AcDbLine
 10
33.338192
 20
-216.45985
 30
0.0
 11
49.917862
 21
-201.73088
 31
0.0
  0
LINE
  5
7DA
100
AcDbEntity
  8
0
  6
CONTINUOUS
 62
     7
100
AcDbLine
 10
10.145821
 20
-230.22223
 30
0.0
 11
17.090256
 21
-206.20609
 31
0.0
  0
LINE
  5
7DB
100
AcDbEntity
  8
0
  6
CONTINUOUS
 62
     7
100
AcDbLine
 10
23.381912
 20
-210.1073
 30
0.0
 11
28.900406
 21
-211.70301
 31
0.0
  0
LINE
  5
7DC
100
AcDbEntity
  8
0
  6
CONTINUOUS
 62
     7
100
AcDbLine
 10
34.247189
 20
-217.09049
 30
0.0
 11
31.029701
 21
-218.54813
 31
0.0
  0
LINE
  5
7DD
100
AcDbEntity
  8
0
  6
CONTINUOUS
 62
     7
100
AcDbLine
 10
29.358734
 20
-235.77777
 30
0.0
 11
35.499962
 21
-214.53939
 31
0.0
  0
LINE
  5
7DE
100
AcDbEntity
  8
0
  6
CONTINUOUS
 62
     7
100
AcDbLine
 10
17.090439
 20
-259.79393
 30
0.0
 11
10.145836
 21
-235.77784
 31
0.0
  0
LINE
  5
7DF
100
AcDbEntity
  8
0
  6
CONTINUOUS
 62
     7
100
AcDbLine
 10
17.548599
 20
-235.71916
 30
0.0
 11
23.06707
 21
-234.12341
 31
0.0
  0
LINE
  5
7E0
100
AcDbEntity
  8
0
  6
CONTINUOUS
 62
     7
100
AcDbLine
 10
30.464005
 20
-235.8259
 30
0.0
 11
28.520996
 21
-238.77576
 31
0.0
  0
LINE
  5
7E1
100
AcDbEntity
  8
0
  6
CONTINUOUS
 62
     7
100
AcDbLine
 10
36.30331
 20
-254.23824
 30
0.0
 11
30.161957
 21
-232.99998
 31
0.0
  0
LINE
  5
7E2
100
AcDbEntity
  8
0
  6
CENTER
 62
     7
100
AcDbLine
 10
95.0
 20
-283.5
 30
0.0
 11
95.0
 21
-271.96
 31
0.0
  0
LINE
  5
7E3
100
AcDbEntity
  8
0
  6
CONTINUOUS
 62
     7
100
AcDbLine
 10
38.745262
 20
-281.09585
 30
0.0
 11
20.055237
 21
-264.49215
 31
0.0
  0
LINE
  5
7E4
100
AcDbEntity
  8
0
  6
CENTER
 62
     7
100
AcDbLine
 10
70.0
 20
-272.5
 30
0.0
 11
70.0
 21
-283.5
 31
0.0
  0
LINE
  5
7E5
100
AcDbEntity
  8
0
  6
CONTINUOUS
 62
     7
100
AcDbLine
 10
26.284294
 20
-260.49175
 30
0.0
 11
30.099541
 21
-256.19711
 31
0.0
  0
LINE
  5
7E6
100
AcDbEntity
  8
0
  6
CONTINUOUS
 62
     7
100
AcDbLine
 10
37.263577
 20
-253.68922
 30
0.0
 11
37.194717
 21
-257.22082
 31
0.0
  0
LINE
  5
7E7
100
AcDbEntity
  8
0
  6
CONTINUOUS
 62
     7
100
AcDbLine
 10
52.028225
 20
-266.14382
 30
0.0
 11
35.500156
 21
-251.46075
 31
0.0
  0
LINE
  5
7E8
100
AcDbEntity
  8
0
  6
CENTER
 62
     7
100
AcDbLine
 10
32.196712
 20
-257.01614
 30
0.0
 11
21.196716
 21
-257.01614
 31
0.0
  0
LINE
  5
7E9
100
AcDbEntity
  8
0
  6
CENTER
 62
     7
100
AcDbLine
 10
45.3867
 20
-268.11988
 30
0.0
 11
45.3867
 21
-279.11988
 31
0.0
  0
LINE
  5
7EA
100
AcDbEntity
  8
0
  6
CENTER
 62
     7
100
AcDbLine
 10
19.752266
 20
-227.5
 30
0.0
 11
19.752266
 21
-238.5
 31
0.0
  0
LINE
  5
7EB
100
AcDbEntity
  8
0
  6
CONTINUOUS
 62
     7
100
AcDbLine
 10
68.247845
 20
-287.84549
 30
0.0
 11
43.634579
 21
-283.46519
 31
0.0
  0
LINE
  5
7EC
100
AcDbEntity
  8
0
  6
CENTER
 62
     7
100
AcDbLine
 10
26.696716
 20
-251.51613
 30
0.0
 11
26.696716
 21
-262.51614
 31
0.0
  0
LINE
  5
7ED
100
AcDbEntity
  8
0
  6
CONTINUOUS
 62
     7
100
AcDbLine
 10
46.852501
 20
-276.79816
 30
0.0
 11
47.859016
 21
-271.14246
 31
0.0
  0
LINE
  5
7EE
100
AcDbEntity
  8
0
  6
CONTINUOUS
 62
     7
100
AcDbLine
 10
52.654331
 20
-265.25875
 30
0.0
 11
54.442257
 21
-268.30511
 31
0.0
  0
LINE
  5
7EF
100
AcDbEntity
  8
0
  6
CONTINUOUS
 62
     7
100
AcDbLine
 10
71.752087
 20
-268.15488
 30
0.0
 11
49.918007
 21
-264.26917
 31
0.0
  0
LINE
  5
7F0
100
AcDbEntity
  8
0
  6
CENTER
 62
     7
100
AcDbLine
 10
50.8867
 20
-192.38012
 30
0.0
 11
39.8867
 21
-192.38012
 31
0.0
  0
LINE
  5
7F1
100
AcDbEntity
  8
0
  6
CENTER
 62
     7
100
AcDbLine
 10
32.196712
 20
-208.98387
 30
0.0
 11
21.196716
 21
-208.98387
 31
0.0
  0
LINE
  5
7F2
100
AcDbEntity
  8
0
  6
CONTINUOUS
 62
     7
100
AcDbLine
 10
95.0
 20
-288.0
 30
0.0
 11
70.0
 21
-288.0
 31
0.0
  0
LINE
  5
7F3
100
AcDbEntity
  8
0
  6
CENTER
 62
     7
100
AcDbLine
 10
45.3867
 20
-186.88012
 30
0.0
 11
45.3867
 21
-197.88012
 31
0.0
  0
LINE
  5
7F4
100
AcDbEntity
  8
0
  6
CONTINUOUS
 62
     7
100
AcDbLine
 10
72.0
 20
-280.87228
 30
0.0
 11
72.0
 21
-275.12772
 31
0.0
  0
LINE
  5
7F5
100
AcDbEntity
  8
0
  6
CONTINUOUS
 62
     7
100
AcDbLine
 10
75.690237
 20
-268.49483
 30
0.0
 11
77.984264
 21
-271.18079
 31
0.0
  0
LINE
  5
7F6
100
AcDbEntity
  8
0
  6
CONTINUOUS
 62
     7
100
AcDbLine
 10
95.0
 20
-268.0
 30
0.0
 11
70.881828
 21
-268.0
 31
0.0
  0
LINE
  5
7F7
100
AcDbEntity
  8
0
  6
CENTER
 62
     7
100
AcDbLine
 10
26.696716
 20
-203.48387
 30
0.0
 11
26.696716
 21
-214.48387
 31
0.0
  0
ARC
  5
7F8
100
AcDbEntity
  8
0
  6
CENTER
 62
     7
100
AcDbCircle
 10
64.75227
 20
-233.0
 30
0.0
 40
45.0
100
AcDbArc
 50
90.000003
 51
270.0
  0
ARC
  5
7F9
100
AcDbEntity
  8
0
  6
CONTINUOUS
 62
     7
100
AcDbCircle
 10
70.0
 20
-188.0
 30
0.0
 40
10.0
100
AcDbArc
 50
90.000003
 51
270.0
  0
CIRCLE
  5
7FA
100
AcDbEntity
  8
0
  6
CONTINUOUS
 62
     7
100
AcDbCircle
 10
95.0
 20
-188.0
 30
0.0
 40
3.5
  0
ARC
  5
7FB
100
AcDbEntity
  8
0
  6
CONTINUOUS
 62
     7
100
AcDbCircle
 10
89.081643
 20
-197.7
 30
0.0
 40
0.3
100
AcDbArc
 50
270.0
 51
40.499999
  0
ARC
  5
7FC
100
AcDbEntity
  8
0
  6
CONTINUOUS
 62
     7
100
AcDbCircle
 10
90.251316
 20
-178.3
 30
0.0
 40
0.3
100
AcDbArc
 50
296.08429
 51
90.000003
  0
ARC
  5
7FD
100
AcDbEntity
  8
0
  6
CONTINUOUS
 62
     7
100
AcDbCircle
 10
95.0
 20
-188.0
 30
0.0
 40
10.5
100
AcDbArc
 50
116.0843
 51
220.49999
  0
ARC
  5
7FE
100
AcDbEntity
  8
0
  6
CONTINUOUS
 62
     7
100
AcDbCircle
 10
45.3867
 20
-192.38013
 30
0.0
 40
10.0
100
AcDbArc
 50
100.0906
 51
280.09059
  0
CIRCLE
  5
7FF
100
AcDbEntity
  8
0
  6
CONTINUOUS
 62
     7
100
AcDbCircle
 10
70.0
 20
-188.0
 30
0.0
 40
3.5
  0
ARC
  5
800
100
AcDbEntity
  8
0
  6
CONTINUOUS
 62
     7
100
AcDbCircle
 10
65.872679
 20
-198.58689
 30
0.0
 40
0.3
100
AcDbArc
 50
280.0906
 51
50.5906
  0
ARC
  5
801
100
AcDbEntity
  8
0
  6
CONTINUOUS
 62
     7
100
AcDbCircle
 10
63.625278
 20
-179.28203
 30
0.0
 40
0.3
100
AcDbArc
 50
306.17489
 51
100.0906
  0
ARC
  5
802
100
AcDbEntity
  8
0
  6
CONTINUOUS
 62
     7
100
AcDbCircle
 10
70.0
 20
-188.0
 30
0.0
 40
10.5
100
AcDbArc
 50
126.17489
 51
230.5906
  0
ARC
  5
803
100
AcDbEntity
  8
0
  6
CONTINUOUS
 62
     7
100
AcDbCircle
 10
26.696701
 20
-208.98385
 30
0.0
 40
10.0
100
AcDbArc
 50
131.6171
 51
311.61711
  0
CIRCLE
  5
804
100
AcDbEntity
  8
0
  6
CONTINUOUS
 62
     7
100
AcDbCircle
 10
45.3867
 20
-192.38012
 30
0.0
 40
3.5
  0
ARC
  5
805
100
AcDbEntity
  8
0
  6
CONTINUOUS
 62
     7
100
AcDbCircle
 10
47.404385
 20
-203.56251
 30
0.0
 40
0.3
100
AcDbArc
 50
311.6171
 51
82.117097
  0
ARC
  5
806
100
AcDbEntity
  8
0
  6
CONTINUOUS
 62
     7
100
AcDbCircle
 10
35.394337
 20
-188.28224
 30
0.0
 40
0.3
100
AcDbArc
 50
337.70139
 51
131.6171
  0
ARC
  5
807
100
AcDbEntity
  8
0
  6
CONTINUOUS
 62
     7
100
AcDbCircle
 10
45.3867
 20
-192.38012
 30
0.0
 40
10.5
100
AcDbArc
 50
157.70139
 51
262.11709
  0
ARC
  5
808
100
AcDbEntity
  8
0
  6
CONTINUOUS
 62
     7
100
AcDbCircle
 10
19.752274
 20
-233.0
 30
0.0
 40
10.0
100
AcDbArc
 50
163.8724
 51
343.8724
  0
CIRCLE
  5
809
100
AcDbEntity
  8
0
  6
CONTINUOUS
 62
     7
100
AcDbCircle
 10
26.696716
 20
-208.98387
 30
0.0
 40
3.5
  0
ARC
  5
80A
100
AcDbEntity
  8
0
  6
CONTINUOUS
 62
     7
100
AcDbCircle
 10
34.370987
 20
-217.36375
 30
0.0
 40
0.3
100
AcDbArc
 50
343.8724
 51
114.3724
  0
ARC
  5
80B
100
AcDbEntity
  8
0
  6
CONTINUOUS
 62
     7
100
AcDbCircle
 10
16.059372
 20
-210.85123
 30
0.0
 40
0.3
100
AcDbArc
 50
9.956693
 51
163.8724
  0
ARC
  5
80C
100
AcDbEntity
  8
0
  6
CONTINUOUS
 62
     7
100
AcDbCircle
 10
26.696716
 20
-208.98387
 30
0.0
 40
10.5
100
AcDbArc
 50
189.95669
 51
294.3724
  0
ARC
  5
80D
100
AcDbEntity
  8
0
  6
CONTINUOUS
 62
     7
100
AcDbCircle
 10
26.696869
 20
-257.01609
 30
0.0
 40
10.0
100
AcDbArc
 50
196.128
 51
16.127999
  0
CIRCLE
  5
80E
100
AcDbEntity
  8
0
  6
CONTINUOUS
 62
     7
100
AcDbCircle
 10
19.752266
 20
-233.0
 30
0.0
 40
3.5
  0
ARC
  5
80F
100
AcDbEntity
  8
0
  6
CONTINUOUS
 62
     7
100
AcDbCircle
 10
30.714539
 20
-235.99092
 30
0.0
 40
0.3
100
AcDbArc
 50
16.127999
 51
146.628
  0
ARC
  5
810
100
AcDbEntity
  8
0
  6
CONTINUOUS
 62
     7
100
AcDbCircle
 10
11.753136
 20
-240.2563
 30
0.0
 40
0.3
100
AcDbArc
 50
42.212294
 51
196.12799
  0
ARC
  5
811
100
AcDbEntity
  8
0
  6
CONTINUOUS
 62
     7
100
AcDbCircle
 10
19.752266
 20
-233.0
 30
0.0
 40
10.5
100
AcDbArc
 50
222.2123
 51
326.628
  0
ARC
  5
812
100
AcDbEntity
  8
0
  6
CONTINUOUS
 62
     7
100
AcDbCircle
 10
45.386742
 20
-273.61983
 30
0.0
 40
10.0
100
AcDbArc
 50
228.38301
 51
48.383001
  0
CIRCLE
  5
813
100
AcDbEntity
  8
0
  6
CONTINUOUS
 62
     7
100
AcDbCircle
 10
26.696716
 20
-257.01614
 30
0.0
 40
3.5
  0
ARC
  5
814
100
AcDbEntity
  8
0
  6
CONTINUOUS
 62
     7
100
AcDbCircle
 10
37.563519
 20
-253.69507
 30
0.0
 40
0.3
100
AcDbArc
 50
48.383001
 51
178.883
  0
ARC
  5
815
100
AcDbEntity
  8
0
  6
CONTINUOUS
 62
     7
100
AcDbCircle
 10
23.804596
 20
-267.42169
 30
0.0
 40
0.3
100
AcDbArc
 50
74.467292
 51
228.383
  0
ARC
  5
816
100
AcDbEntity
  8
0
  6
CONTINUOUS
 62
     7
100
AcDbCircle
 10
26.696716
 20
-257.01614
 30
0.0
 40
10.5
100
AcDbArc
 50
254.46729
 51
358.883
  0
ARC
  5
817
100
AcDbEntity
  8
0
  6
CONTINUOUS
 62
     7
100
AcDbCircle
 10
69.999968
 20
-278.00018
 30
0.0
 40
10.0
100
AcDbArc
 50
259.909
 51
79.908999
  0
CIRCLE
  5
818
100
AcDbEntity
  8
0
  6
CONTINUOUS
 62
     7
100
AcDbCircle
 10
45.3867
 20
-273.61988
 30
0.0
 40
3.5
  0
ARC
  5
819
100
AcDbEntity
  8
0
  6
CONTINUOUS
 62
     7
100
AcDbCircle
 10
52.913059
 20
-265.1069
 30
0.0
 40
0.3
100
AcDbArc
 50
79.908999
 51
210.409
  0
ARC
  5
81A
100
AcDbEntity
  8
0
  6
CONTINUOUS
 62
     7
100
AcDbCircle
 10
48.36237
 20
-284.00185
 30
0.0
 40
0.3
100
AcDbArc
 50
105.99329
 51
259.909
  0
ARC
  5
81B
100
AcDbEntity
  8
0
  6
CONTINUOUS
 62
     7
100
AcDbCircle
 10
45.3867
 20
-273.61988
 30
0.0
 40
10.5
100
AcDbArc
 50
285.9933
 51
30.408999
  0
ARC
  5
81C
100
AcDbEntity
  8
0
  6
CONTINUOUS
 62
     7
100
AcDbCircle
 10
95.0
 20
-278.0
 30
0.0
 40
10.0
100
AcDbArc
 50
270.0
 51
90.000003
  0
CIRCLE
  5
81D
100
AcDbEntity
  8
0
  6
CONTINUOUS
 62
     7
100
AcDbCircle
 10
70.0
 20
-278.0
 30
0.0
 40
3.5
  0
ARC
  5
81E
100
AcDbEntity
  8
0
  6
CONTINUOUS
 62
     7
100
AcDbCircle
 10
75.918358
 20
-268.3
 30
0.0
 40
0.3
100
AcDbArc
 50
90.000003
 51
220.49999
  0
ARC
  5
81F
100
AcDbEntity
  8
0
  6
CONTINUOUS
 62
     7
100
AcDbCircle
 10
74.748684
 20
-287.7
 30
0.0
 40
0.3
100
AcDbArc
 50
116.0843
 51
270.0
  0
ARC
  5
820
100
AcDbEntity
  8
0
  6
CONTINUOUS
 62
     7
100
AcDbCircle
 10
70.0
 20
-278.0
 30
0.0
 40
10.5
100
AcDbArc
 50
296.08429
 51
40.499999
  0
POINT
  5
821
100
AcDbEntity
  8
0
  6
CONTINUOUS
 62
     7
100
AcDbPoint
 10
95.0
 20
-334.0
 30
0.0
  0
POINT
  5
822
100
AcDbEntity
  8
0
  6
CONTINUOUS
 62
     7
100
AcDbPoint
 10
110.0
 20
-334.0
 30
0.0
  0
LINE
  5
823
100
AcDbEntity
  8
0
  6
CENTER
 62
     7
100
AcDbLine
 10
95.0
 20
-355.0
 30
0.0
 11
95.0
 21
-313.0
 31
0.0
  0
LINE
  5
824
100
AcDbEntity
  8
0
  6
CONTINUOUS
 62
     7
100
AcDbLine
 10
99.44868
 20
-318.0
 30
0.0
 11
9.752274
 21
-318.0
 31
0.0
  0
LINE
  5
825
100
AcDbEntity
  8
0
  6
CONTINUOUS
 62
     7
100
AcDbLine
 10
74.448685
 20
-347.0
 30
0.0
 11
63.867981
 21
-347.0
 31
0.0
  0
LINE
  5
826
100
AcDbEntity
  8
0
  6
CONTINUOUS
 62
     7
100
AcDbLine
 10
85.5
 20
-349.1
 30
0.0
 11
79.5
 21
-349.1
 31
0.0
  0
LINE
  5
827
100
AcDbEntity
  8
0
  6
CONTINUOUS
 62
     7
100
AcDbLine
 10
87.5
 20
-344.0
 30
0.0
 11
87.5
 21
-324.0
 31
0.0
  0
LINE
  5
828
100
AcDbEntity
  8
0
  6
CONTINUOUS
 62
     7
100
AcDbLine
 10
85.5
 20
-349.1
 30
0.0
 11
85.5
 21
-344.0
 31
0.0
  0
LINE
  5
829
100
AcDbEntity
  8
0
  6
CONTINUOUS
 62
     7
100
AcDbLine
 10
77.5
 20
-344.0
 30
0.0
 11
77.5
 21
-324.0
 31
0.0
  0
LINE
  5
82A
100
AcDbEntity
  8
0
  6
CONTINUOUS
 62
     7
100
AcDbLine
 10
79.5
 20
-349.1
 30
0.0
 11
79.5
 21
-344.0
 31
0.0
  0
LINE
  5
82B
100
AcDbEntity
  8
0
  6
CONTINUOUS
 62
     7
100
AcDbLine
 10
90.551316
 20
-347.0
 30
0.0
 11
90.551316
 21
-344.0
 31
0.0
  0
LINE
  5
82C
100
AcDbEntity
  8
0
  6
CONTINUOUS
 62
     7
100
AcDbLine
 10
99.44868
 20
-350.0
 30
0.0
 11
9.752274
 21
-350.0
 31
0.0
  0
LINE
  5
82D
100
AcDbEntity
  8
0
  6
CENTER
 62
     7
100
AcDbLine
 10
110.0
 20
-334.0
 30
0.0
 11
-0.247726
 21
-334.0
 31
0.0
  0
LINE
  5
82E
100
AcDbEntity
  8
0
  6
CONTINUOUS
 62
     7
100
AcDbLine
 10
99.44868
 20
-347.0
 30
0.0
 11
90.551316
 21
-347.0
 31
0.0
  0
LINE
  5
82F
100
AcDbEntity
  8
0
  6
CONTINUOUS
 62
     7
100
AcDbLine
 10
90.551316
 20
-344.0
 30
0.0
 11
85.5
 21
-344.0
 31
0.0
  0
LINE
  5
830
100
AcDbEntity
  8
0
  6
CENTER
 62
     7
100
AcDbLine
 10
70.0
 20
-355.0
 30
0.0
 11
70.0
 21
-313.0
 31
0.0
  0
LINE
  5
831
100
AcDbEntity
  8
0
  6
CONTINUOUS
 62
     7
100
AcDbLine
 10
76.5
 20
-344.0
 30
0.0
 11
76.5
 21
-324.0
 31
0.0
  0
LINE
  5
832
100
AcDbEntity
  8
0
  6
CONTINUOUS
 62
     7
100
AcDbLine
 10
88.5
 20
-344.0
 30
0.0
 11
88.5
 21
-324.0
 31
0.0
  0
LINE
  5
833
100
AcDbEntity
  8
0
  6
CONTINUOUS
 62
     7
100
AcDbLine
 10
74.448685
 20
-350.0
 30
0.0
 11
74.448685
 21
-347.0
 31
0.0
  0
LINE
  5
834
100
AcDbEntity
  8
0
  6
CENTER
 62
     7
100
AcDbLine
 10
45.3867
 20
-355.0
 30
0.0
 11
45.3867
 21
-313.0
 31
0.0
  0
LINE
  5
835
100
AcDbEntity
  8
0
  6
CONTINUOUS
 62
     7
100
AcDbLine
 10
85.5
 20
-318.9
 30
0.0
 11
85.5
 21
-324.0
 31
0.0
  0
LINE
  5
836
100
AcDbEntity
  8
0
  6
CONTINUOUS
 62
     7
100
AcDbLine
 10
85.5
 20
-319.5
 30
0.0
 11
79.5
 21
-319.5
 31
0.0
  0
LINE
  5
837
100
AcDbEntity
  8
0
  6
CONTINUOUS
 62
     7
100
AcDbLine
 10
79.5
 20
-318.9
 30
0.0
 11
79.5
 21
-324.0
 31
0.0
  0
LINE
  5
838
100
AcDbEntity
  8
0
  6
CONTINUOUS
 62
     7
100
AcDbLine
 10
85.5
 20
-348.5
 30
0.0
 11
79.5
 21
-348.5
 31
0.0
  0
LINE
  5
839
100
AcDbEntity
  8
0
  6
CONTINUOUS
 62
     7
100
AcDbLine
 10
74.448685
 20
-321.0
 30
0.0
 11
63.867981
 21
-321.0
 31
0.0
  0
LINE
  5
83A
100
AcDbEntity
  8
0
  6
CENTER
 62
     7
100
AcDbLine
 10
87.5
 20
-321.2
 30
0.0
 11
77.5
 21
-321.2
 31
0.0
  0
LINE
  5
83B
100
AcDbEntity
  8
0
  6
CENTER
 62
     7
100
AcDbLine
 10
87.5
 20
-346.8
 30
0.0
 11
77.5
 21
-346.8
 31
0.0
  0
LINE
  5
83C
100
AcDbEntity
  8
0
  6
CONTINUOUS
 62
     7
100
AcDbLine
 10
90.551316
 20
-324.0
 30
0.0
 11
85.5
 21
-324.0
 31
0.0
  0
LINE
  5
83D
100
AcDbEntity
  8
0
  6
CONTINUOUS
 62
     7
100
AcDbLine
 10
79.5
 20
-324.0
 30
0.0
 11
58.894806
 21
-324.0
 31
0.0
  0
LINE
  5
83E
100
AcDbEntity
  8
0
  6
CONTINUOUS
 62
     7
100
AcDbLine
 10
90.551316
 20
-321.0
 30
0.0
 11
90.551316
 21
-324.0
 31
0.0
  0
LINE
  5
83F
100
AcDbEntity
  8
0
  6
CONTINUOUS
 62
     7
100
AcDbLine
 10
85.5
 20
-318.9
 30
0.0
 11
79.5
 21
-318.9
 31
0.0
  0
LINE
  5
840
100
AcDbEntity
  8
0
  6
CONTINUOUS
 62
     7
100
AcDbLine
 10
74.448685
 20
-318.0
 30
0.0
 11
74.448685
 21
-321.0
 31
0.0
  0
LINE
  5
841
100
AcDbEntity
  8
0
  6
CONTINUOUS
 62
     7
100
AcDbLine
 10
99.44868
 20
-321.0
 30
0.0
 11
90.551316
 21
-321.0
 31
0.0
  0
LINE
  5
842
100
AcDbEntity
  8
0
  6
CONTINUOUS
 62
     7
100
AcDbLine
 10
63.867981
 20
-321.0
 30
0.0
 11
63.867981
 21
-324.0
 31
0.0
  0
LINE
  5
843
100
AcDbEntity
  8
0
  6
CONTINUOUS
 62
     7
100
AcDbLine
 10
60.863865
 20
-324.0
 30
0.0
 11
60.863865
 21
-344.0
 31
0.0
  0
LINE
  5
844
100
AcDbEntity
  8
0
  6
CONTINUOUS
 62
     7
100
AcDbLine
 10
58.894806
 20
-318.9
 30
0.0
 11
58.894806
 21
-324.0
 31
0.0
  0
LINE
  5
845
100
AcDbEntity
  8
0
  6
CONTINUOUS
 62
     7
100
AcDbLine
 10
52.987621
 20
-318.9
 30
0.0
 11
52.987621
 21
-324.0
 31
0.0
  0
LINE
  5
846
100
AcDbEntity
  8
0
  6
CONTINUOUS
 62
     7
100
AcDbLine
 10
51.018559
 20
-324.0
 30
0.0
 11
51.018559
 21
-344.0
 31
0.0
  0
LINE
  5
847
100
AcDbEntity
  8
0
  6
CONTINUOUS
 62
     7
100
AcDbLine
 10
48.014446
 20
-318.0
 30
0.0
 11
48.014446
 21
-321.0
 31
0.0
  0
LINE
  5
848
100
AcDbEntity
  8
0
  6
CONTINUOUS
 62
     7
100
AcDbLine
 10
35.419418
 20
-321.0
 30
0.0
 11
35.419418
 21
-324.0
 31
0.0
  0
LINE
  5
849
100
AcDbEntity
  8
0
  6
CONTINUOUS
 62
     7
100
AcDbLine
 10
33.138252
 20
-324.0
 30
0.0
 11
33.138252
 21
-344.0
 31
0.0
  0
LINE
  5
84A
100
AcDbEntity
  8
0
  6
CONTINUOUS
 62
     7
100
AcDbLine
 10
31.643051
 20
-318.9
 30
0.0
 11
31.643051
 21
-324.0
 31
0.0
  0
LINE
  5
84B
100
AcDbEntity
  8
0
  6
CONTINUOUS
 62
     7
100
AcDbLine
 10
27.15744
 20
-318.9
 30
0.0
 11
27.15744
 21
-324.0
 31
0.0
  0
LINE
  5
84C
100
AcDbEntity
  8
0
  6
CONTINUOUS
 62
     7
100
AcDbLine
 10
25.662239
 20
-324.0
 30
0.0
 11
25.662239
 21
-344.0
 31
0.0
  0
LINE
  5
84D
100
AcDbEntity
  8
0
  6
CONTINUOUS
 62
     7
100
AcDbLine
 10
23.381073
 20
-318.0
 30
0.0
 11
23.381073
 21
-321.0
 31
0.0
  0
LINE
  5
84E
100
AcDbEntity
  8
0
  6
CONTINUOUS
 62
     7
100
AcDbLine
 10
15.85466
 20
-321.0
 30
0.0
 11
15.85466
 21
-324.0
 31
0.0
  0
LINE
  5
84F
100
AcDbEntity
  8
0
  6
CONTINUOUS
 62
     7
100
AcDbLine
 10
15.007057
 20
-324.0
 30
0.0
 11
15.007057
 21
-344.0
 31
0.0
  0
LINE
  5
850
100
AcDbEntity
  8
0
  6
CONTINUOUS
 62
     7
100
AcDbLine
 10
14.451485
 20
-318.9
 30
0.0
 11
14.451485
 21
-324.0
 31
0.0
  0
LINE
  5
851
100
AcDbEntity
  8
0
  6
CONTINUOUS
 62
     7
100
AcDbLine
 10
12.784782
 20
-318.9
 30
0.0
 11
12.784782
 21
-324.0
 31
0.0
  0
LINE
  5
852
100
AcDbEntity
  8
0
  6
CONTINUOUS
 62
     7
100
AcDbLine
 10
12.229218
 20
-324.0
 30
0.0
 11
12.229218
 21
-344.0
 31
0.0
  0
LINE
  5
853
100
AcDbEntity
  8
0
  6
CONTINUOUS
 62
     7
100
AcDbLine
 10
11.381607
 20
-318.0
 30
0.0
 11
11.381607
 21
-321.0
 31
0.0
  0
LINE
  5
854
100
AcDbEntity
  8
0
  6
CONTINUOUS
 62
     7
100
AcDbLine
 10
9.752274
 20
-318.0
 30
0.0
 11
9.752274
 21
-324.0
 31
0.0
  0
LINE
  5
855
100
AcDbEntity
  8
0
  6
CONTINUOUS
 62
     7
100
AcDbLine
 10
23.381073
 20
-321.0
 30
0.0
 11
15.85466
 21
-321.0
 31
0.0
  0
LINE
  5
856
100
AcDbEntity
  8
0
  6
CONTINUOUS
 62
     7
100
AcDbLine
 10
52.987621
 20
-324.0
 30
0.0
 11
31.643051
 21
-324.0
 31
0.0
  0
LINE
  5
857
100
AcDbEntity
  8
0
  6
CONTINUOUS
 62
     7
100
AcDbLine
 10
48.014446
 20
-321.0
 30
0.0
 11
35.419418
 21
-321.0
 31
0.0
  0
LINE
  5
858
100
AcDbEntity
  8
0
  6
CONTINUOUS
 62
     7
100
AcDbLine
 10
27.15744
 20
-324.0
 30
0.0
 11
14.451485
 21
-324.0
 31
0.0
  0
LINE
  5
859
100
AcDbEntity
  8
0
  6
CONTINUOUS
 62
     7
100
AcDbLine
 10
11.381607
 20
-321.0
 30
0.0
 11
9.752274
 21
-321.0
 31
0.0
  0
LINE
  5
85A
100
AcDbEntity
  8
0
  6
CONTINUOUS
 62
     7
100
AcDbLine
 10
12.784782
 20
-324.0
 30
0.0
 11
9.752274
 21
-324.0
 31
0.0
  0
LINE
  5
85B
100
AcDbEntity
  8
0
  6
CONTINUOUS
 62
     7
100
AcDbLine
 10
35.419418
 20
-347.0
 30
0.0
 11
35.419418
 21
-344.0
 31
0.0
  0
LINE
  5
85C
100
AcDbEntity
  8
0
  6
CONTINUOUS
 62
     7
100
AcDbLine
 10
48.014446
 20
-350.0
 30
0.0
 11
48.014446
 21
-347.0
 31
0.0
  0
LINE
  5
85D
100
AcDbEntity
  8
0
  6
CONTINUOUS
 62
     7
100
AcDbLine
 10
52.987621
 20
-349.1
 30
0.0
 11
52.987621
 21
-344.0
 31
0.0
  0
LINE
  5
85E
100
AcDbEntity
  8
0
  6
CONTINUOUS
 62
     7
100
AcDbLine
 10
58.894806
 20
-349.1
 30
0.0
 11
58.894806
 21
-344.0
 31
0.0
  0
LINE
  5
85F
100
AcDbEntity
  8
0
  6
CONTINUOUS
 62
     7
100
AcDbLine
 10
63.867981
 20
-347.0
 30
0.0
 11
63.867981
 21
-344.0
 31
0.0
  0
LINE
  5
860
100
AcDbEntity
  8
0
  6
CONTINUOUS
 62
     7
100
AcDbLine
 10
79.5
 20
-344.0
 30
0.0
 11
58.894806
 21
-344.0
 31
0.0
  0
LINE
  5
861
100
AcDbEntity
  8
0
  6
CONTINUOUS
 62
     7
100
AcDbLine
 10
27.15744
 20
-318.9
 30
0.0
 11
31.643051
 21
-318.9
 31
0.0
  0
LINE
  5
862
100
AcDbEntity
  8
0
  6
CONTINUOUS
 62
     7
100
AcDbLine
 10
27.15744
 20
-319.5
 30
0.0
 11
31.643051
 21
-319.5
 31
0.0
  0
LINE
  5
863
100
AcDbEntity
  8
0
  6
CONTINUOUS
 62
     7
100
AcDbLine
 10
52.987621
 20
-318.9
 30
0.0
 11
58.894806
 21
-318.9
 31
0.0
  0
LINE
  5
864
100
AcDbEntity
  8
0
  6
CONTINUOUS
 62
     7
100
AcDbLine
 10
52.987621
 20
-319.5
 30
0.0
 11
58.894806
 21
-319.5
 31
0.0
  0
LINE
  5
865
100
AcDbEntity
  8
0
  6
CONTINUOUS
 62
     7
100
AcDbLine
 10
12.784782
 20
-319.5
 30
0.0
 11
14.451485
 21
-319.5
 31
0.0
  0
LINE
  5
866
100
AcDbEntity
  8
0
  6
CONTINUOUS
 62
     7
100
AcDbLine
 10
12.784782
 20
-318.9
 30
0.0
 11
14.451485
 21
-318.9
 31
0.0
  0
LINE
  5
867
100
AcDbEntity
  8
0
  6
CONTINUOUS
 62
     7
100
AcDbLine
 10
31.643051
 20
-349.1
 30
0.0
 11
31.643051
 21
-344.0
 31
0.0
  0
LINE
  5
868
100
AcDbEntity
  8
0
  6
CONTINUOUS
 62
     7
100
AcDbLine
 10
27.15744
 20
-349.1
 30
0.0
 11
27.15744
 21
-344.0
 31
0.0
  0
LINE
  5
869
100
AcDbEntity
  8
0
  6
CONTINUOUS
 62
     7
100
AcDbLine
 10
23.381073
 20
-350.0
 30
0.0
 11
23.381073
 21
-347.0
 31
0.0
  0
LINE
  5
86A
100
AcDbEntity
  8
0
  6
CONTINUOUS
 62
     7
100
AcDbLine
 10
15.85466
 20
-347.0
 30
0.0
 11
15.85466
 21
-344.0
 31
0.0
  0
LINE
  5
86B
100
AcDbEntity
  8
0
  6
CONTINUOUS
 62
     7
100
AcDbLine
 10
14.451485
 20
-349.1
 30
0.0
 11
14.451485
 21
-344.0
 31
0.0
  0
LINE
  5
86C
100
AcDbEntity
  8
0
  6
CONTINUOUS
 62
     7
100
AcDbLine
 10
12.784782
 20
-349.1
 30
0.0
 11
12.784782
 21
-344.0
 31
0.0
  0
LINE
  5
86D
100
AcDbEntity
  8
0
  6
CONTINUOUS
 62
     7
100
AcDbLine
 10
11.381607
 20
-350.0
 30
0.0
 11
11.381607
 21
-347.0
 31
0.0
  0
LINE
  5
86E
100
AcDbEntity
  8
0
  6
CONTINUOUS
 62
     7
100
AcDbLine
 10
9.752274
 20
-350.0
 30
0.0
 11
9.752274
 21
-344.0
 31
0.0
  0
LINE
  5
86F
100
AcDbEntity
  8
0
  6
CONTINUOUS
 62
     7
100
AcDbLine
 10
23.381073
 20
-347.0
 30
0.0
 11
15.85466
 21
-347.0
 31
0.0
  0
LINE
  5
870
100
AcDbEntity
  8
0
  6
CONTINUOUS
 62
     7
100
AcDbLine
 10
52.987621
 20
-344.0
 30
0.0
 11
31.643051
 21
-344.0
 31
0.0
  0
LINE
  5
871
100
AcDbEntity
  8
0
  6
CONTINUOUS
 62
     7
100
AcDbLine
 10
48.014446
 20
-347.0
 30
0.0
 11
35.419418
 21
-347.0
 31
0.0
  0
LINE
  5
872
100
AcDbEntity
  8
0
  6
CONTINUOUS
 62
     7
100
AcDbLine
 10
27.15744
 20
-344.0
 30
0.0
 11
14.451485
 21
-344.0
 31
0.0
  0
LINE
  5
873
100
AcDbEntity
  8
0
  6
CONTINUOUS
 62
     7
100
AcDbLine
 10
11.381607
 20
-347.0
 30
0.0
 11
9.752274
 21
-347.0
 31
0.0
  0
LINE
  5
874
100
AcDbEntity
  8
0
  6
CONTINUOUS
 62
     7
100
AcDbLine
 10
12.784782
 20
-344.0
 30
0.0
 11
9.752274
 21
-344.0
 31
0.0
  0
LINE
  5
875
100
AcDbEntity
  8
0
  6
CONTINUOUS
 62
     7
100
AcDbLine
 10
27.15744
 20
-349.1
 30
0.0
 11
31.643051
 21
-349.1
 31
0.0
  0
LINE
  5
876
100
AcDbEntity
  8
0
  6
CONTINUOUS
 62
     7
100
AcDbLine
 10
27.15744
 20
-348.5
 30
0.0
 11
31.643051
 21
-348.5
 31
0.0
  0
LINE
  5
877
100
AcDbEntity
  8
0
  6
CONTINUOUS
 62
     7
100
AcDbLine
 10
52.987621
 20
-349.1
 30
0.0
 11
58.894806
 21
-349.1
 31
0.0
  0
LINE
  5
878
100
AcDbEntity
  8
0
  6
CONTINUOUS
 62
     7
100
AcDbLine
 10
52.987621
 20
-348.5
 30
0.0
 11
58.894806
 21
-348.5
 31
0.0
  0
LINE
  5
879
100
AcDbEntity
  8
0
  6
CONTINUOUS
 62
     7
100
AcDbLine
 10
12.784782
 20
-348.5
 30
0.0
 11
14.451485
 21
-348.5
 31
0.0
  0
LINE
  5
87A
100
AcDbEntity
  8
0
  6
CONTINUOUS
 62
     7
100
AcDbLine
 10
12.784782
 20
-349.1
 30
0.0
 11
14.451485
 21
-349.1
 31
0.0
  0
LINE
  5
87B
100
AcDbEntity
  8
0
  6
CENTER
 62
     7
100
AcDbLine
 10
26.696716
 20
-355.0
 30
0.0
 11
26.696716
 21
-313.0
 31
0.0
  0
LINE
  5
87C
100
AcDbEntity
  8
0
  6
CENTER
 62
     7
100
AcDbLine
 10
19.752266
 20
-355.0
 30
0.0
 11
19.752266
 21
-313.0
 31
0.0
  0
POINT
  5
87D
100
AcDbEntity
  8
0
  6
CONTINUOUS
 62
     7
100
AcDbPoint
 10
190.0
 20
-154.0
 30
0.0
  0
POINT
  5
87E
100
AcDbEntity
  8
0
  6
CONTINUOUS
 62
     7
100
AcDbPoint
 10
197.0
 20
-154.0
 30
0.0
  0
LINE
  5
87F
100
AcDbEntity
  8
0
  6
CONTINUOUS
 62
     7
100
AcDbLine
 10
180.0
 20
-170.0
 30
0.0
 11
180.0
 21
-138.0
 31
0.0
  0
LINE
  5
880
100
AcDbEntity
  8
0
  6
CONTINUOUS
 62
     7
100
AcDbLine
 10
200.0
 20
-170.0
 30
0.0
 11
180.0
 21
-170.0
 31
0.0
  0
LINE
  5
881
100
AcDbEntity
  8
0
  6
CONTINUOUS
 62
     7
100
AcDbLine
 10
200.0
 20
-170.0
 30
0.0
 11
200.0
 21
-164.0
 31
0.0
  0
LINE
  5
882
100
AcDbEntity
  8
0
  6
CONTINUOUS
 62
     7
100
AcDbLine
 10
183.0
 20
-163.5
 30
0.0
 11
183.0
 21
-144.5
 31
0.0
  0
LINE
  5
883
100
AcDbEntity
  8
0
  6
DASHED
 62
     4
100
AcDbLine
 10
200.3
 20
-141.5
 30
0.0
 11
200.3
 21
-141.7
 31
0.0
  0
LINE
  5
884
100
AcDbEntity
  8
0
  6
CONTINUOUS
 62
     7
100
AcDbLine
 10
200.0
 20
-164.0
 30
0.0
 11
180.0
 21
-164.0
 31
0.0
  0
LINE
  5
885
100
AcDbEntity
  8
0
  6
DASHED
 62
     4
100
AcDbLine
 10
200.3
 20
-139.0
 30
0.0
 11
200.3
 21
-139.27127
 31
0.0
  0
LINE
  5
886
100
AcDbEntity
  8
0
  6
DASHED
 62
     4
100
AcDbLine
 10
197.23322
 20
-142.00705
 30
0.0
 11
197.11136
 21
-143.4
 31
0.0
  0
LINE
  5
887
100
AcDbEntity
  8
0
  6
DASHED
 62
     4
100
AcDbLine
 10
224.8
 20
-139.80358
 30
0.0
 11
224.8
 21
-142.8
 31
0.0
  0
LINE
  5
888
100
AcDbEntity
  8
0
  6
DASHED
 62
     4
100
AcDbLine
 10
200.8
 20
-141.0
 30
0.0
 11
219.8
 21
-141.0
 31
0.0
  0
LINE
  5
889
100
AcDbEntity
  8
0
  6
DASHED
 62
     4
100
AcDbLine
 10
198.85
 20
-141.7
 30
0.0
 11
221.75
 21
-141.7
 31
0.0
  0
LINE
  5
88A
100
AcDbEntity
  8
0
  6
DASHED
 62
     4
100
AcDbLine
 10
197.5
 20
-139.0
 30
0.0
 11
223.10369
 21
-139.0
 31
0.0
  0
LINE
  5
88B
100
AcDbEntity
  8
0
  6
CENTER
 62
     7
100
AcDbLine
 10
210.3
 20
-137.0
 30
0.0
 11
210.3
 21
-143.7
 31
0.0
  0
LINE
  5
88C
100
AcDbEntity
  8
0
  6
DASHED
 62
     4
100
AcDbLine
 10
198.35
 20
-141.2
 30
0.0
 11
198.85
 21
-141.7
 31
0.0
  0
LINE
  5
88D
100
AcDbEntity
  8
0
  6
DASHED
 62
     4
100
AcDbLine
 10
196.4
 20
-143.4
 30
0.0
 11
197.11136
 21
-143.4
 31
0.0
  0
LINE
  5
88E
100
AcDbEntity
  8
0
  6
DASHED
 62
     4
100
AcDbLine
 10
195.8
 20
-139.80358
 30
0.0
 11
195.8
 21
-142.8
 31
0.0
  0
LINE
  5
88F
100
AcDbEntity
  8
0
  6
CENTER
 62
     7
100
AcDbLine
 10
203.308
 20
-154.0
 30
0.0
 11
175.94
 21
-154.0
 31
0.0
  0
LINE
  5
890
100
AcDbEntity
  8
0
  6
CONTINUOUS
 62
     7
100
AcDbLine
 10
200.0
 20
-141.0
 30
0.0
 11
180.0
 21
-141.0
 31
0.0
  0
LINE
  5
891
100
AcDbEntity
  8
0
  6
DASHED
 62
     4
100
AcDbLine
 10
224.2
 20
-143.4
 30
0.0
 11
223.48864
 21
-143.4
 31
0.0
  0
LINE
  5
892
100
AcDbEntity
  8
0
  6
DASHED
 62
     4
100
AcDbLine
 10
222.25
 20
-141.2
 30
0.0
 11
221.75
 21
-141.7
 31
0.0
  0
LINE
  5
893
100
AcDbEntity
  8
0
  6
CENTER
 62
     7
100
AcDbLine
 10
221.25
 20
-141.2
 30
0.0
 11
224.95
 21
-141.2
 31
0.0
  0
LINE
  5
894
100
AcDbEntity
  8
0
  6
CENTER
 62
     7
100
AcDbLine
 10
223.1
 20
-139.35
 30
0.0
 11
223.1
 21
-143.05
 31
0.0
  0
LINE
  5
895
100
AcDbEntity
  8
0
  6
DASHED
 62
     4
100
AcDbLine
 10
220.3
 20
-139.0
 30
0.0
 11
220.3
 21
-139.27127
 31
0.0
  0
LINE
  5
896
100
AcDbEntity
  8
0
  6
DASHED
 62
     4
100
AcDbLine
 10
223.36678
 20
-142.00705
 30
0.0
 11
223.48864
 21
-143.4
 31
0.0
  0
LINE
  5
897
100
AcDbEntity
  8
0
  6
DASHED
 62
     4
100
AcDbLine
 10
220.3
 20
-141.5
 30
0.0
 11
220.3
 21
-141.7
 31
0.0
  0
LINE
  5
898
100
AcDbEntity
  8
0
  6
CONTINUOUS
 62
     4
100
AcDbLine
 10
197.7
 20
-144.0
 30
0.0
 11
197.7
 21
-164.0
 31
0.0
  0
LINE
  5
899
100
AcDbEntity
  8
0
  6
CENTER
 62
     7
100
AcDbLine
 10
197.5
 20
-139.45
 30
0.0
 11
197.5
 21
-142.95
 31
0.0
  0
LINE
  5
89A
100
AcDbEntity
  8
0
  6
CONTINUOUS
 62
     7
100
AcDbLine
 10
200.0
 20
-138.0
 30
0.0
 11
200.0
 21
-144.0
 31
0.0
  0
LINE
  5
89B
100
AcDbEntity
  8
0
  6
CONTINUOUS
 62
     7
100
AcDbLine
 10
200.0
 20
-167.0
 30
0.0
 11
180.0
 21
-167.0
 31
0.0
  0
LINE
  5
89C
100
AcDbEntity
  8
0
  6
CONTINUOUS
 62
     7
100
AcDbLine
 10
200.0
 20
-144.0
 30
0.0
 11
180.0
 21
-144.0
 31
0.0
  0
LINE
  5
89D
100
AcDbEntity
  8
0
  6
CONTINUOUS
 62
     7
100
AcDbLine
 10
200.0
 20
-138.0
 30
0.0
 11
180.0
 21
-138.0
 31
0.0
  0
LINE
  5
89E
100
AcDbEntity
  8
0
  6
CENTER
 62
     7
100
AcDbLine
 10
199.25
 20
-141.2
 30
0.0
 11
195.75
 21
-141.2
 31
0.0
  0
LINE
  5
89F
100
AcDbEntity
  8
0
  6
CONTINUOUS
 62
     4
100
AcDbLine
 10
199.7
 20
-144.0
 30
0.0
 11
199.7
 21
-164.0
 31
0.0
  0
LINE
  5
8A0
100
AcDbEntity
  8
0
  6
CONTINUOUS
 62
     4
100
AcDbLine
 10
197.0
 20
-144.0
 30
0.0
 11
197.0
 21
-164.0
 31
0.0
  0
LINE
  5
8A1
100
AcDbEntity
  8
0
  6
CENTER
 62
     7
100
AcDbLine
 10
190.0
 20
-134.521
 30
0.0
 11
190.0
 21
-173.40201
 31
0.0
  0
ARC
  5
8A2
100
AcDbEntity
  8
0
  6
DASHED
 62
     4
100
AcDbCircle
 10
223.1
 20
-141.2
 30
0.0
 40
2.2
100
AcDbArc
 50
39.400571
 51
89.9996
  0
ARC
  5
8A3
100
AcDbEntity
  8
0
  6
CONTINUOUS
 62
     7
100
AcDbCircle
 10
183.5
 20
-163.5
 30
0.0
 40
0.5
100
AcDbArc
 50
179.99999
 51
270.0
  0
ARC
  5
8A4
100
AcDbEntity
  8
0
  6
DASHED
 62
     4
100
AcDbCircle
 10
219.8
 20
-141.5
 30
0.0
 40
0.5
100
AcDbArc
 50
0.0
 51
90.000003
  0
ARC
  5
8A5
100
AcDbEntity
  8
0
  6
DASHED
 62
     4
100
AcDbCircle
 10
224.2
 20
-142.8
 30
0.0
 40
0.6
100
AcDbArc
 50
270.0
 51
0.0
  0
ARC
  5
8A6
100
AcDbEntity
  8
0
  6
DASHED
 62
     4
100
AcDbCircle
 10
197.5
 20
-141.2
 30
0.0
 40
0.85
100
AcDbArc
 50
0.0
 51
251.70837
  0
ARC
  5
8A7
100
AcDbEntity
  8
0
  6
DASHED
 62
     4
100
AcDbCircle
 10
197.5
 20
-141.2
 30
0.0
 40
3.4
100
AcDbArc
 50
3.372235
 51
34.560323
  0
ARC
  5
8A8
100
AcDbEntity
  8
0
  6
DASHED
 62
     4
100
AcDbCircle
 10
197.5
 20
-141.2
 30
0.0
 40
2.2
100
AcDbArc
 50
90.000399
 51
140.59943
  0
ARC
  5
8A9
100
AcDbEntity
  8
0
  6
DASHED
 62
     4
100
AcDbCircle
 10
223.1
 20
-141.2
 30
0.0
 40
0.85
100
AcDbArc
 50
288.29161
 51
180.00001
  0
ARC
  5
8AA
100
AcDbEntity
  8
0
  6
DASHED
 62
     4
100
AcDbCircle
 10
200.8
 20
-141.5
 30
0.0
 40
0.5
100
AcDbArc
 50
90.000003
 51
180.00001
  0
ARC
  5
8AB
100
AcDbEntity
  8
0
  6
DASHED
 62
     4
100
AcDbCircle
 10
196.4
 20
-142.8
 30
0.0
 40
0.6
100
AcDbArc
 50
180.00001
 51
270.0
  0
ARC
  5
8AC
100
AcDbEntity
  8
0
  6
CONTINUOUS
 62
     7
100
AcDbCircle
 10
183.5
 20
-144.5
 30
0.0
 40
0.5
100
AcDbArc
 50
90.000003
 51
180.00001
  0
ARC
  5
8AD
100
AcDbEntity
  8
0
  6
DASHED
 62
     4
100
AcDbCircle
 10
223.1
 20
-141.2
 30
0.0
 40
3.4
100
AcDbArc
 50
145.43967
 51
176.62776
  0
POINT
  5
8AE
100
AcDbEntity
  8
0
  6
CONTINUOUS
 62
     7
100
AcDbPoint
 10
275.0
 20
-154.0
 30
0.0
  0
POINT
  5
8AF
100
AcDbEntity
  8
0
  6
CONTINUOUS
 62
     7
100
AcDbPoint
 10
290.0
 20
-154.0
 30
0.0
  0
LINE
  5
8B0
100
AcDbEntity
  8
0
  6
CONTINUOUS
 62
     7
100
AcDbLine
 10
265.5
 20
-144.0
 30
0.0
 11
285.0
 21
-144.0
 31
0.0
  0
LINE
  5
8B1
100
AcDbEntity
  8
0
  6
CONTINUOUS
 62
     7
100
AcDbLine
 10
273.0
 20
-138.0
 30
0.0
 11
278.5
 21
-139.32043
 31
0.0
  0
LINE
  5
8B2
100
AcDbEntity
  8
0
  6
CONTINUOUS
 62
     4
100
AcDbLine
 10
265.4
 20
-139.5
 30
0.0
 11
265.4
 21
-144.0
 31
0.0
  0
LINE
  5
8B3
100
AcDbEntity
  8
0
  6
CONTINUOUS
 62
     4
100
AcDbLine
 10
259.6
 20
-139.5
 30
0.0
 11
259.6
 21
-144.0
 31
0.0
  0
LINE
  5
8B4
100
AcDbEntity
  8
0
  6
CONTINUOUS
 62
     7
100
AcDbLine
 10
271.5
 20
-170.0
 30
0.0
 11
271.5
 21
-166.7
 31
0.0
  0
LINE
  5
8B5
100
AcDbEntity
  8
0
  6
CONTINUOUS
 62
     7
100
AcDbLine
 10
278.5
 20
-139.32043
 30
0.0
 11
278.5
 21
-141.3
 31
0.0
  0
LINE
  5
8B6
100
AcDbEntity
  8
0
  6
CONTINUOUS
 62
     7
100
AcDbLine
 10
271.5
 20
-170.0
 30
0.0
 11
273.0
 21
-170.0
 31
0.0
  0
LINE
  5
8B7
100
AcDbEntity
  8
0
  6
CONTINUOUS
 62
     4
100
AcDbLine
 10
259.6
 20
-168.5
 30
0.0
 11
259.6
 21
-164.0
 31
0.0
  0
LINE
  5
8B8
100
AcDbEntity
  8
0
  6
CONTINUOUS
 62
     7
100
AcDbLine
 10
265.5
 20
-164.0
 30
0.0
 11
285.0
 21
-164.0
 31
0.0
  0
LINE
  5
8B9
100
AcDbEntity
  8
0
  6
CONTINUOUS
 62
     7
100
AcDbLine
 10
240.0
 20
-138.0
 30
0.0
 11
240.0
 21
-141.0
 31
0.0
  0
LINE
  5
8BA
100
AcDbEntity
  8
0
  6
CONTINUOUS
 62
     7
100
AcDbLine
 10
285.0
 20
-141.3
 30
0.0
 11
285.0
 21
-144.0
 31
0.0
  0
LINE
  5
8BB
100
AcDbEntity
  8
0
  6
CONTINUOUS
 62
     7
100
AcDbLine
 10
240.0
 20
-138.0
 30
0.0
 11
270.55132
 21
-138.0
 31
0.0
  0
LINE
  5
8BC
100
AcDbEntity
  8
0
  6
CENTER
 62
     7
100
AcDbLine
 10
235.0
 20
-154.0
 30
0.0
 11
290.0
 21
-154.0
 31
0.0
  0
LINE
  5
8BD
100
AcDbEntity
  8
0
  6
CONTINUOUS
 62
     7
100
AcDbLine
 10
240.0
 20
-141.0
 30
0.0
 11
254.44868
 21
-141.0
 31
0.0
  0
LINE
  5
8BE
100
AcDbEntity
  8
0
  6
CONTINUOUS
 62
     7
100
AcDbLine
 10
270.55132
 20
-141.3
 30
0.0
 11
285.0
 21
-141.3
 31
0.0
  0
LINE
  5
8BF
100
AcDbEntity
  8
0
  6
CENTER
 62
     7
100
AcDbLine
 10
275.0
 20
-133.0
 30
0.0
 11
275.0
 21
-175.0
 31
0.0
  0
LINE
  5
8C0
100
AcDbEntity
  8
0
  6
CENTER
 62
     7
100
AcDbLine
 10
250.0
 20
-133.0
 30
0.0
 11
250.0
 21
-175.0
 31
0.0
  0
LINE
  5
8C1
100
AcDbEntity
  8
0
  6
CONTINUOUS
 62
     7
100
AcDbLine
 10
268.5
 20
-144.0
 30
0.0
 11
268.5
 21
-164.0
 31
0.0
  0
LINE
  5
8C2
100
AcDbEntity
  8
0
  6
CONTINUOUS
 62
     7
100
AcDbLine
 10
256.5
 20
-144.0
 30
0.0
 11
256.5
 21
-164.0
 31
0.0
  0
LINE
  5
8C3
100
AcDbEntity
  8
0
  6
CONTINUOUS
 62
     7
100
AcDbLine
 10
270.55132
 20
-138.0
 30
0.0
 11
270.55132
 21
-141.3
 31
0.0
  0
LINE
  5
8C4
100
AcDbEntity
  8
0
  6
CONTINUOUS
 62
     7
100
AcDbLine
 10
254.44868
 20
-141.0
 30
0.0
 11
254.44868
 21
-144.0
 31
0.0
  0
LINE
  5
8C5
100
AcDbEntity
  8
0
  6
CONTINUOUS
 62
     7
100
AcDbLine
 10
240.0
 20
-170.0
 30
0.0
 11
240.0
 21
-167.0
 31
0.0
  0
LINE
  5
8C6
100
AcDbEntity
  8
0
  6
CONTINUOUS
 62
     7
100
AcDbLine
 10
285.0
 20
-166.7
 30
0.0
 11
285.0
 21
-164.0
 31
0.0
  0
LINE
  5
8C7
100
AcDbEntity
  8
0
  6
CONTINUOUS
 62
     7
100
AcDbLine
 10
240.0
 20
-170.0
 30
0.0
 11
270.55132
 21
-170.0
 31
0.0
  0
LINE
  5
8C8
100
AcDbEntity
  8
0
  6
CONTINUOUS
 62
     7
100
AcDbLine
 10
259.5
 20
-138.9
 30
0.0
 11
265.5
 21
-138.9
 31
0.0
  0
LINE
  5
8C9
100
AcDbEntity
  8
0
  6
CONTINUOUS
 62
     7
100
AcDbLine
 10
259.5
 20
-138.9
 30
0.0
 11
259.5
 21
-144.0
 31
0.0
  0
LINE
  5
8CA
100
AcDbEntity
  8
0
  6
CONTINUOUS
 62
     7
100
AcDbLine
 10
265.5
 20
-138.9
 30
0.0
 11
265.5
 21
-144.0
 31
0.0
  0
LINE
  5
8CB
100
AcDbEntity
  8
0
  6
CONTINUOUS
 62
     4
100
AcDbLine
 10
257.5
 20
-144.0
 30
0.0
 11
257.5
 21
-164.0
 31
0.0
  0
LINE
  5
8CC
100
AcDbEntity
  8
0
  6
CONTINUOUS
 62
     4
100
AcDbLine
 10
267.5
 20
-144.0
 30
0.0
 11
267.5
 21
-164.0
 31
0.0
  0
LINE
  5
8CD
100
AcDbEntity
  8
0
  6
CONTINUOUS
 62
     4
100
AcDbLine
 10
259.6
 20
-139.5
 30
0.0
 11
265.4
 21
-139.5
 31
0.0
  0
LINE
  5
8CE
100
AcDbEntity
  8
0
  6
CONTINUOUS
 62
     7
100
AcDbLine
 10
240.0
 20
-167.0
 30
0.0
 11
254.44868
 21
-167.0
 31
0.0
  0
LINE
  5
8CF
100
AcDbEntity
  8
0
  6
CONTINUOUS
 62
     7
100
AcDbLine
 10
270.55132
 20
-166.7
 30
0.0
 11
285.0
 21
-166.7
 31
0.0
  0
LINE
  5
8D0
100
AcDbEntity
  8
0
  6
CONTINUOUS
 62
     7
100
AcDbLine
 10
270.55132
 20
-170.0
 30
0.0
 11
270.55132
 21
-166.7
 31
0.0
  0
LINE
  5
8D1
100
AcDbEntity
  8
0
  6
CONTINUOUS
 62
     7
100
AcDbLine
 10
254.44868
 20
-167.0
 30
0.0
 11
254.44868
 21
-164.0
 31
0.0
  0
LINE
  5
8D2
100
AcDbEntity
  8
0
  6
CONTINUOUS
 62
     7
100
AcDbLine
 10
259.5
 20
-169.1
 30
0.0
 11
265.5
 21
-169.1
 31
0.0
  0
LINE
  5
8D3
100
AcDbEntity
  8
0
  6
CONTINUOUS
 62
     7
100
AcDbLine
 10
259.5
 20
-169.1
 30
0.0
 11
259.5
 21
-164.0
 31
0.0
  0
LINE
  5
8D4
100
AcDbEntity
  8
0
  6
CONTINUOUS
 62
     7
100
AcDbLine
 10
265.5
 20
-169.1
 30
0.0
 11
265.5
 21
-164.0
 31
0.0
  0
LINE
  5
8D5
100
AcDbEntity
  8
0
  6
CONTINUOUS
 62
     4
100
AcDbLine
 10
259.6
 20
-168.5
 30
0.0
 11
265.4
 21
-168.5
 31
0.0
  0
LINE
  5
8D6
100
AcDbEntity
  8
0
  6
CENTER
 62
     7
100
AcDbLine
 10
257.5
 20
-166.8
 30
0.0
 11
267.5
 21
-166.8
 31
0.0
  0
LINE
  5
8D7
100
AcDbEntity
  8
0
  6
CENTER
 62
     7
100
AcDbLine
 10
257.5
 20
-141.2
 30
0.0
 11
267.5
 21
-141.2
 31
0.0
  0
LINE
  5
8D8
100
AcDbEntity
  8
0
  6
CONTINUOUS
 62
     7
100
AcDbLine
 10
278.5
 20
-168.67957
 30
0.0
 11
278.5
 21
-166.7
 31
0.0
  0
LINE
  5
8D9
100
AcDbEntity
  8
0
  6
CONTINUOUS
 62
     4
100
AcDbLine
 10
265.4
 20
-168.5
 30
0.0
 11
265.4
 21
-164.0
 31
0.0
  0
LINE
  5
8DA
100
AcDbEntity
  8
0
  6
CONTINUOUS
 62
     7
100
AcDbLine
 10
273.0
 20
-170.0
 30
0.0
 11
278.5
 21
-168.67957
 31
0.0
  0
LINE
  5
8DB
100
AcDbEntity
  8
0
  6
CONTINUOUS
 62
     7
100
AcDbLine
 10
271.5
 20
-138.0
 30
0.0
 11
271.5
 21
-141.3
 31
0.0
  0
LINE
  5
8DC
100
AcDbEntity
  8
0
  6
CONTINUOUS
 62
     7
100
AcDbLine
 10
271.5
 20
-138.0
 30
0.0
 11
273.0
 21
-138.0
 31
0.0
  0
LINE
  5
8DD
100
AcDbEntity
  8
0
  6
CONTINUOUS
 62
     7
100
AcDbLine
 10
254.44868
 20
-144.0
 30
0.0
 11
259.5
 21
-144.0
 31
0.0
  0
LINE
  5
8DE
100
AcDbEntity
  8
0
  6
CONTINUOUS
 62
     4
100
AcDbLine
 10
257.5
 20
-144.0
 30
0.0
 11
259.6
 21
-144.0
 31
0.0
  0
LINE
  5
8DF
100
AcDbEntity
  8
0
  6
CONTINUOUS
 62
     7
100
AcDbLine
 10
254.44868
 20
-164.0
 30
0.0
 11
259.5
 21
-164.0
 31
0.0
  0
LINE
  5
8E0
100
AcDbEntity
  8
0
  6
CONTINUOUS
 62
     4
100
AcDbLine
 10
257.5
 20
-164.0
 30
0.0
 11
259.6
 21
-164.0
 31
0.0
  0
LINE
  5
8E1
100
AcDbEntity
  8
0
  6
CONTINUOUS
 62
     4
100
AcDbLine
 10
265.4
 20
-144.0
 30
0.0
 11
267.5
 21
-144.0
 31
0.0
  0
LINE
  5
8E2
100
AcDbEntity
  8
0
  6
CONTINUOUS
 62
     4
100
AcDbLine
 10
265.4
 20
-164.0
 30
0.0
 11
267.5
 21
-164.0
 31
0.0
  0
POINT
  5
8E3
100
AcDbEntity
  8
0
  6
CONTINUOUS
 62
     7
100
AcDbPoint
 10
275.0
 20
-229.0
 30
0.0
  0
POINT
  5
8E4
100
AcDbEntity
  8
0
  6
CONTINUOUS
 62
     7
100
AcDbPoint
 10
287.54
 20
-229.0
 30
0.0
  0
LINE
  5
8E5
100
AcDbEntity
  8
0
  6
CONTINUOUS
 62
     7
100
AcDbLine
 10
250.0
 20
-219.0
 30
0.0
 11
275.0
 21
-219.0
 31
0.0
  0
LINE
  5
8E6
100
AcDbEntity
  8
0
  6
CONTINUOUS
 62
     7
100
AcDbLine
 10
250.0
 20
-239.0
 30
0.0
 11
275.0
 21
-239.0
 31
0.0
  0
LINE
  5
8E7
100
AcDbEntity
  8
0
  6
CONTINUOUS
 62
     7
100
AcDbLine
 10
269.30976
 20
-238.50517
 30
0.0
 11
267.01574
 21
-235.8192
 31
0.0
  0
LINE
  5
8E8
100
AcDbEntity
  8
0
  6
CONTINUOUS
 62
     7
100
AcDbLine
 10
273.0
 20
-226.12772
 30
0.0
 11
273.0
 21
-231.87228
 31
0.0
  0
LINE
  5
8E9
100
AcDbEntity
  8
0
  6
CENTER
 62
     7
100
AcDbLine
 10
250.0
 20
-216.46
 30
0.0
 11
250.0
 21
-241.54
 31
0.0
  0
LINE
  5
8EA
100
AcDbEntity
  8
0
  6
CENTER
 62
     7
100
AcDbLine
 10
237.46
 20
-229.0
 30
0.0
 11
262.54
 21
-229.0
 31
0.0
  0
LINE
  5
8EB
100
AcDbEntity
  8
0
  6
CENTER
 62
     7
100
AcDbLine
 10
275.0
 20
-216.46
 30
0.0
 11
275.0
 21
-241.54
 31
0.0
  0
LINE
  5
8EC
100
AcDbEntity
  8
0
  6
CENTER
 62
     7
100
AcDbLine
 10
262.46
 20
-229.0
 30
0.0
 11
287.54
 21
-229.0
 31
0.0
  0
ARC
  5
8ED
100
AcDbEntity
  8
0
  6
CONTINUOUS
 62
     7
100
AcDbCircle
 10
250.0
 20
-229.0
 30
0.0
 40
10.0
100
AcDbArc
 50
90.000003
 51
270.0
  0
ARC
  5
8EE
100
AcDbEntity
  8
0
  6
CONTINUOUS
 62
     7
100
AcDbCircle
 10
275.0
 20
-229.0
 30
0.0
 40
10.0
100
AcDbArc
 50
270.0
 51
90.000003
  0
ARC
  5
8EF
100
AcDbEntity
  8
0
  6
CONTINUOUS
 62
     7
100
AcDbCircle
 10
275.0
 20
-229.0
 30
0.0
 40
10.5
100
AcDbArc
 50
116.0843
 51
220.49999
  0
ARC
  5
8F0
100
AcDbEntity
  8
0
  6
CONTINUOUS
 62
     7
100
AcDbCircle
 10
270.25132
 20
-219.3
 30
0.0
 40
0.3
100
AcDbArc
 50
296.08429
 51
90.000003
  0
ARC
  5
8F1
100
AcDbEntity
  8
0
  6
CONTINUOUS
 62
     7
100
AcDbCircle
 10
269.08164
 20
-238.7
 30
0.0
 40
0.3
100
AcDbArc
 50
270.0
 51
40.499999
  0
CIRCLE
  5
8F2
100
AcDbEntity
  8
0
  6
CONTINUOUS
 62
     7
100
AcDbCircle
 10
275.0
 20
-229.0
 30
0.0
 40
3.5
  0
CIRCLE
  5
8F3
100
AcDbEntity
  8
0
  6
CONTINUOUS
 62
     7
100
AcDbCircle
 10
250.0
 20
-229.0
 30
0.0
 40
3.5
  0
POINT
  5
8F4
100
AcDbEntity
  8
0
  6
CONTINUOUS
 62
     7
100
AcDbPoint
 10
275.0
 20
-304.0
 30
0.0
  0
POINT
  5
8F5
100
AcDbEntity
  8
0
  6
CONTINUOUS
 62
     7
100
AcDbPoint
 10
290.0
 20
-304.0
 30
0.0
  0
LINE
  5
8F6
100
AcDbEntity
  8
0
  6
CONTINUOUS
 62
     7
100
AcDbLine
 10
255.61836
 20
-291.0
 30
0.0
 11
255.61836
 21
-294.0
 31
0.0
  0
LINE
  5
8F7
100
AcDbEntity
  8
0
  6
CONTINUOUS
 62
     7
100
AcDbLine
 10
240.0
 20
-291.0
 30
0.0
 11
255.61836
 21
-291.0
 31
0.0
  0
LINE
  5
8F8
100
AcDbEntity
  8
0
  6
CONTINUOUS
 62
     7
100
AcDbLine
 10
285.0
 20
-291.3
 30
0.0
 11
285.0
 21
-294.0
 31
0.0
  0
LINE
  5
8F9
100
AcDbEntity
  8
0
  6
CONTINUOUS
 62
     7
100
AcDbLine
 10
240.0
 20
-288.0
 30
0.0
 11
269.38164
 21
-288.0
 31
0.0
  0
LINE
  5
8FA
100
AcDbEntity
  8
0
  6
CONTINUOUS
 62
     7
100
AcDbLine
 10
240.0
 20
-288.0
 30
0.0
 11
240.0
 21
-291.0
 31
0.0
  0
LINE
  5
8FB
100
AcDbEntity
  8
0
  6
CENTER
 62
     7
100
AcDbLine
 10
235.0
 20
-304.0
 30
0.0
 11
290.0
 21
-304.0
 31
0.0
  0
LINE
  5
8FC
100
AcDbEntity
  8
0
  6
CONTINUOUS
 62
     7
100
AcDbLine
 10
255.61836
 20
-294.0
 30
0.0
 11
256.5
 21
-294.0
 31
0.0
  0
LINE
  5
8FD
100
AcDbEntity
  8
0
  6
CONTINUOUS
 62
     7
100
AcDbLine
 10
269.38164
 20
-291.3
 30
0.0
 11
285.0
 21
-291.3
 31
0.0
  0
LINE
  5
8FE
100
AcDbEntity
  8
0
  6
CENTER
 62
     7
100
AcDbLine
 10
275.0
 20
-283.0
 30
0.0
 11
275.0
 21
-325.0
 31
0.0
  0
LINE
  5
8FF
100
AcDbEntity
  8
0
  6
CENTER
 62
     7
100
AcDbLine
 10
250.0
 20
-283.0
 30
0.0
 11
250.0
 21
-325.0
 31
0.0
  0
LINE
  5
900
100
AcDbEntity
  8
0
  6
CONTINUOUS
 62
     7
100
AcDbLine
 10
268.5
 20
-294.0
 30
0.0
 11
268.5
 21
-314.0
 31
0.0
  0
LINE
  5
901
100
AcDbEntity
  8
0
  6
CONTINUOUS
 62
     7
100
AcDbLine
 10
256.5
 20
-294.0
 30
0.0
 11
256.5
 21
-314.0
 31
0.0
  0
LINE
  5
902
100
AcDbEntity
  8
0
  6
CONTINUOUS
 62
     7
100
AcDbLine
 10
255.61836
 20
-314.0
 30
0.0
 11
255.61836
 21
-317.0
 31
0.0
  0
LINE
  5
903
100
AcDbEntity
  8
0
  6
CONTINUOUS
 62
     7
100
AcDbLine
 10
269.38164
 20
-316.7
 30
0.0
 11
269.38164
 21
-320.0
 31
0.0
  0
LINE
  5
904
100
AcDbEntity
  8
0
  6
CONTINUOUS
 62
     7
100
AcDbLine
 10
240.0
 20
-320.0
 30
0.0
 11
240.0
 21
-317.0
 31
0.0
  0
LINE
  5
905
100
AcDbEntity
  8
0
  6
CONTINUOUS
 62
     7
100
AcDbLine
 10
268.5
 20
-294.0
 30
0.0
 11
285.0
 21
-294.0
 31
0.0
  0
LINE
  5
906
100
AcDbEntity
  8
0
  6
CONTINUOUS
 62
     7
100
AcDbLine
 10
285.0
 20
-316.7
 30
0.0
 11
285.0
 21
-314.0
 31
0.0
  0
LINE
  5
907
100
AcDbEntity
  8
0
  6
CONTINUOUS
 62
     7
100
AcDbLine
 10
240.0
 20
-320.0
 30
0.0
 11
269.38164
 21
-320.0
 31
0.0
  0
LINE
  5
908
100
AcDbEntity
  8
0
  6
CONTINUOUS
 62
     7
100
AcDbLine
 10
240.0
 20
-317.0
 30
0.0
 11
255.61836
 21
-317.0
 31
0.0
  0
LINE
  5
909
100
AcDbEntity
  8
0
  6
CONTINUOUS
 62
     7
100
AcDbLine
 10
255.61836
 20
-314.0
 30
0.0
 11
256.5
 21
-314.0
 31
0.0
  0
LINE
  5
90A
100
AcDbEntity
  8
0
  6
CONTINUOUS
 62
     7
100
AcDbLine
 10
269.38164
 20
-316.7
 30
0.0
 11
285.0
 21
-316.7
 31
0.0
  0
LINE
  5
90B
100
AcDbEntity
  8
0
  6
CONTINUOUS
 62
     7
100
AcDbLine
 10
268.5
 20
-314.0
 30
0.0
 11
285.0
 21
-314.0
 31
0.0
  0
LINE
  5
90C
100
AcDbEntity
  8
0
  6
CONTINUOUS
 62
     7
100
AcDbLine
 10
269.38164
 20
-288.0
 30
0.0
 11
269.38164
 21
-291.3
 31
0.0
  0
LINE
  5
90D
100
AcDbEntity
  8
0
  6
CONTINUOUS
 62
     7
100
AcDbLine
 10
278.5
 20
-289.32043
 30
0.0
 11
278.5
 21
-291.3
 31
0.0
  0
LINE
  5
90E
100
AcDbEntity
  8
0
  6
CONTINUOUS
 62
     7
100
AcDbLine
 10
271.5
 20
-288.0
 30
0.0
 11
271.5
 21
-291.3
 31
0.0
  0
LINE
  5
90F
100
AcDbEntity
  8
0
  6
CONTINUOUS
 62
     7
100
AcDbLine
 10
271.5
 20
-288.0
 30
0.0
 11
273.0
 21
-288.0
 31
0.0
  0
LINE
  5
910
100
AcDbEntity
  8
0
  6
CONTINUOUS
 62
     7
100
AcDbLine
 10
278.5
 20
-289.32043
 30
0.0
 11
273.0
 21
-288.0
 31
0.0
  0
LINE
  5
911
100
AcDbEntity
  8
0
  6
CONTINUOUS
 62
     7
100
AcDbLine
 10
278.5
 20
-318.67957
 30
0.0
 11
278.5
 21
-316.7
 31
0.0
  0
LINE
  5
912
100
AcDbEntity
  8
0
  6
CONTINUOUS
 62
     7
100
AcDbLine
 10
271.5
 20
-320.0
 30
0.0
 11
271.5
 21
-316.7
 31
0.0
  0
LINE
  5
913
100
AcDbEntity
  8
0
  6
CONTINUOUS
 62
     7
100
AcDbLine
 10
271.5
 20
-320.0
 30
0.0
 11
273.0
 21
-320.0
 31
0.0
  0
LINE
  5
914
100
AcDbEntity
  8
0
  6
CONTINUOUS
 62
     7
100
AcDbLine
 10
278.5
 20
-318.67957
 30
0.0
 11
273.0
 21
-320.0
 31
0.0
  0
POINT
  5
915
100
AcDbEntity
  8
0
  6
CONTINUOUS
 62
     7
100
AcDbPoint
 10
330.0
 20
-154.0
 30
0.0
  0
POINT
  5
916
100
AcDbEntity
  8
0
  6
CONTINUOUS
 62
     7
100
AcDbPoint
 10
337.0
 20
-154.0
 30
0.0
  0
LINE
  5
917
100
AcDbEntity
  8
0
  6
DASHED
 62
     4
100
AcDbLine
 10
319.7
 20
-166.5
 30
0.0
 11
319.7
 21
-166.3
 31
0.0
  0
LINE
  5
918
100
AcDbEntity
  8
0
  6
CENTER
 62
     7
100
AcDbLine
 10
330.0
 20
-173.479
 30
0.0
 11
330.0
 21
-134.59799
 31
0.0
  0
LINE
  5
919
100
AcDbEntity
  8
0
  6
CONTINUOUS
 62
     4
100
AcDbLine
 10
323.0
 20
-164.0
 30
0.0
 11
323.0
 21
-144.0
 31
0.0
  0
LINE
  5
91A
100
AcDbEntity
  8
0
  6
CONTINUOUS
 62
     7
100
AcDbLine
 10
333.5
 20
-166.7
 30
0.0
 11
333.5
 21
-170.0
 31
0.0
  0
LINE
  5
91B
100
AcDbEntity
  8
0
  6
CONTINUOUS
 62
     7
100
AcDbLine
 10
326.5
 20
-141.3
 30
0.0
 11
326.5
 21
-138.0
 31
0.0
  0
LINE
  5
91C
100
AcDbEntity
  8
0
  6
CONTINUOUS
 62
     7
100
AcDbLine
 10
326.5
 20
-166.7
 30
0.0
 11
326.5
 21
-170.0
 31
0.0
  0
LINE
  5
91D
100
AcDbEntity
  8
0
  6
DASHED
 62
     4
100
AcDbLine
 10
322.76678
 20
-165.99295
 30
0.0
 11
322.88864
 21
-164.6
 31
0.0
  0
LINE
  5
91E
100
AcDbEntity
  8
0
  6
CONTINUOUS
 62
     7
100
AcDbLine
 10
337.0
 20
-144.5
 30
0.0
 11
337.0
 21
-163.5
 31
0.0
  0
LINE
  5
91F
100
AcDbEntity
  8
0
  6
CONTINUOUS
 62
     7
100
AcDbLine
 10
320.0
 20
-144.0
 30
0.0
 11
340.0
 21
-144.0
 31
0.0
  0
LINE
  5
920
100
AcDbEntity
  8
0
  6
DASHED
 62
     4
100
AcDbLine
 10
319.7
 20
-169.0
 30
0.0
 11
319.7
 21
-168.72873
 31
0.0
  0
LINE
  5
921
100
AcDbEntity
  8
0
  6
CONTINUOUS
 62
     7
100
AcDbLine
 10
320.0
 20
-141.3
 30
0.0
 11
340.0
 21
-141.3
 31
0.0
  0
LINE
  5
922
100
AcDbEntity
  8
0
  6
CONTINUOUS
 62
     7
100
AcDbLine
 10
320.0
 20
-166.7
 30
0.0
 11
340.0
 21
-166.7
 31
0.0
  0
LINE
  5
923
100
AcDbEntity
  8
0
  6
CONTINUOUS
 62
     7
100
AcDbLine
 10
333.5
 20
-141.3
 30
0.0
 11
333.5
 21
-138.0
 31
0.0
  0
LINE
  5
924
100
AcDbEntity
  8
0
  6
CONTINUOUS
 62
     7
100
AcDbLine
 10
320.0
 20
-138.0
 30
0.0
 11
320.0
 21
-144.0
 31
0.0
  0
LINE
  5
925
100
AcDbEntity
  8
0
  6
CONTINUOUS
 62
     7
100
AcDbLine
 10
320.0
 20
-138.0
 30
0.0
 11
340.0
 21
-138.0
 31
0.0
  0
LINE
  5
926
100
AcDbEntity
  8
0
  6
CONTINUOUS
 62
     7
100
AcDbLine
 10
340.0
 20
-138.0
 30
0.0
 11
340.0
 21
-170.0
 31
0.0
  0
LINE
  5
927
100
AcDbEntity
  8
0
  6
CONTINUOUS
 62
     4
100
AcDbLine
 10
320.3
 20
-164.0
 30
0.0
 11
320.3
 21
-144.0
 31
0.0
  0
LINE
  5
928
100
AcDbEntity
  8
0
  6
CENTER
 62
     7
100
AcDbLine
 10
320.75
 20
-166.8
 30
0.0
 11
324.25
 21
-166.8
 31
0.0
  0
LINE
  5
929
100
AcDbEntity
  8
0
  6
CONTINUOUS
 62
     7
100
AcDbLine
 10
320.0
 20
-170.0
 30
0.0
 11
340.0
 21
-170.0
 31
0.0
  0
LINE
  5
92A
100
AcDbEntity
  8
0
  6
CONTINUOUS
 62
     7
100
AcDbLine
 10
320.0
 20
-164.0
 30
0.0
 11
340.0
 21
-164.0
 31
0.0
  0
LINE
  5
92B
100
AcDbEntity
  8
0
  6
CONTINUOUS
 62
     7
100
AcDbLine
 10
320.0
 20
-170.0
 30
0.0
 11
320.0
 21
-164.0
 31
0.0
  0
LINE
  5
92C
100
AcDbEntity
  8
0
  6
CENTER
 62
     7
100
AcDbLine
 10
322.5
 20
-168.55
 30
0.0
 11
322.5
 21
-165.05
 31
0.0
  0
LINE
  5
92D
100
AcDbEntity
  8
0
  6
CONTINUOUS
 62
     4
100
AcDbLine
 10
322.3
 20
-164.0
 30
0.0
 11
322.3
 21
-144.0
 31
0.0
  0
LINE
  5
92E
100
AcDbEntity
  8
0
  6
DASHED
 62
     4
100
AcDbLine
 10
299.7
 20
-166.5
 30
0.0
 11
299.7
 21
-166.3
 31
0.0
  0
LINE
  5
92F
100
AcDbEntity
  8
0
  6
DASHED
 62
     4
100
AcDbLine
 10
296.63322
 20
-165.99295
 30
0.0
 11
296.51136
 21
-164.6
 31
0.0
  0
LINE
  5
930
100
AcDbEntity
  8
0
  6
DASHED
 62
     4
100
AcDbLine
 10
299.7
 20
-169.0
 30
0.0
 11
299.7
 21
-168.72873
 31
0.0
  0
LINE
  5
931
100
AcDbEntity
  8
0
  6
CENTER
 62
     7
100
AcDbLine
 10
296.9
 20
-168.65
 30
0.0
 11
296.9
 21
-164.95
 31
0.0
  0
LINE
  5
932
100
AcDbEntity
  8
0
  6
CENTER
 62
     7
100
AcDbLine
 10
298.75
 20
-166.8
 30
0.0
 11
295.05
 21
-166.8
 31
0.0
  0
LINE
  5
933
100
AcDbEntity
  8
0
  6
DASHED
 62
     4
100
AcDbLine
 10
297.75
 20
-166.8
 30
0.0
 11
298.25
 21
-166.3
 31
0.0
  0
LINE
  5
934
100
AcDbEntity
  8
0
  6
DASHED
 62
     4
100
AcDbLine
 10
295.8
 20
-164.6
 30
0.0
 11
296.51136
 21
-164.6
 31
0.0
  0
LINE
  5
935
100
AcDbEntity
  8
0
  6
CENTER
 62
     7
100
AcDbLine
 10
316.692
 20
-154.0
 30
0.0
 11
344.06
 21
-154.0
 31
0.0
  0
LINE
  5
936
100
AcDbEntity
  8
0
  6
DASHED
 62
     4
100
AcDbLine
 10
324.2
 20
-168.19642
 30
0.0
 11
324.2
 21
-165.2
 31
0.0
  0
LINE
  5
937
100
AcDbEntity
  8
0
  6
DASHED
 62
     4
100
AcDbLine
 10
323.6
 20
-164.6
 30
0.0
 11
322.88864
 21
-164.6
 31
0.0
  0
LINE
  5
938
100
AcDbEntity
  8
0
  6
DASHED
 62
     4
100
AcDbLine
 10
321.65
 20
-166.8
 30
0.0
 11
321.15
 21
-166.3
 31
0.0
  0
LINE
  5
939
100
AcDbEntity
  8
0
  6
CENTER
 62
     7
100
AcDbLine
 10
309.7
 20
-171.0
 30
0.0
 11
309.7
 21
-164.3
 31
0.0
  0
LINE
  5
93A
100
AcDbEntity
  8
0
  6
DASHED
 62
     4
100
AcDbLine
 10
322.5
 20
-169.0
 30
0.0
 11
296.89631
 21
-169.0
 31
0.0
  0
LINE
  5
93B
100
AcDbEntity
  8
0
  6
DASHED
 62
     4
100
AcDbLine
 10
321.15
 20
-166.3
 30
0.0
 11
298.25
 21
-166.3
 31
0.0
  0
LINE
  5
93C
100
AcDbEntity
  8
0
  6
DASHED
 62
     4
100
AcDbLine
 10
319.2
 20
-167.0
 30
0.0
 11
300.2
 21
-167.0
 31
0.0
  0
LINE
  5
93D
100
AcDbEntity
  8
0
  6
DASHED
 62
     4
100
AcDbLine
 10
295.2
 20
-168.19642
 30
0.0
 11
295.2
 21
-165.2
 31
0.0
  0
ARC
  5
93E
100
AcDbEntity
  8
0
  6
DASHED
 62
     4
100
AcDbCircle
 10
296.9
 20
-166.8
 30
0.0
 40
3.4
100
AcDbArc
 50
325.43968
 51
356.62776
  0
ARC
  5
93F
100
AcDbEntity
  8
0
  6
CONTINUOUS
 62
     7
100
AcDbCircle
 10
330.0
 20
-134.02159
 30
0.0
 40
5.298846
100
AcDbArc
 50
228.66037
 51
311.33964
  0
ARC
  5
940
100
AcDbEntity
  8
0
  6
DASHED
 62
     4
100
AcDbCircle
 10
296.9
 20
-166.8
 30
0.0
 40
2.2
100
AcDbArc
 50
219.40057
 51
269.9996
  0
ARC
  5
941
100
AcDbEntity
  8
0
  6
CONTINUOUS
 62
     7
100
AcDbCircle
 10
336.5
 20
-144.5
 30
0.0
 40
0.5
100
AcDbArc
 50
0.0
 51
90.000003
  0
ARC
  5
942
100
AcDbEntity
  8
0
  6
DASHED
 62
     4
100
AcDbCircle
 10
300.2
 20
-166.5
 30
0.0
 40
0.5
100
AcDbArc
 50
180.00001
 51
270.0
  0
ARC
  5
943
100
AcDbEntity
  8
0
  6
CONTINUOUS
 62
     7
100
AcDbCircle
 10
336.5
 20
-163.5
 30
0.0
 40
0.5
100
AcDbArc
 50
270.0
 51
0.000001
  0
ARC
  5
944
100
AcDbEntity
  8
0
  6
DASHED
 62
     4
100
AcDbCircle
 10
323.6
 20
-165.2
 30
0.0
 40
0.6
100
AcDbArc
 50
0.0
 51
90.000003
  0
ARC
  5
945
100
AcDbEntity
  8
0
  6
DASHED
 62
     4
100
AcDbCircle
 10
319.2
 20
-166.5
 30
0.0
 40
0.5
100
AcDbArc
 50
270.0
 51
0.0
  0
ARC
  5
946
100
AcDbEntity
  8
0
  6
DASHED
 62
     4
100
AcDbCircle
 10
296.9
 20
-166.8
 30
0.0
 40
0.85
100
AcDbArc
 50
108.29162
 51
0.00001
  0
ARC
  5
947
100
AcDbEntity
  8
0
  6
CONTINUOUS
 62
     7
100
AcDbCircle
 10
330.0
 20
-173.97841
 30
0.0
 40
5.298846
100
AcDbArc
 50
48.660365
 51
131.33963
  0
ARC
  5
948
100
AcDbEntity
  8
0
  6
DASHED
 62
     4
100
AcDbCircle
 10
322.5
 20
-166.8
 30
0.0
 40
2.2
100
AcDbArc
 50
270.0004
 51
320.59943
  0
ARC
  5
949
100
AcDbEntity
  8
0
  6
DASHED
 62
     4
100
AcDbCircle
 10
322.5
 20
-166.8
 30
0.0
 40
3.4
100
AcDbArc
 50
183.37224
 51
214.56033
  0
ARC
  5
94A
100
AcDbEntity
  8
0
  6
DASHED
 62
     4
100
AcDbCircle
 10
322.5
 20
-166.8
 30
0.0
 40
0.85
100
AcDbArc
 50
180.00001
 51
71.70839
  0
ARC
  5
94B
100
AcDbEntity
  8
0
  6
DASHED
 62
     4
100
AcDbCircle
 10
295.8
 20
-165.2
 30
0.0
 40
0.6
100
AcDbArc
 50
90.000003
 51
180.00001
  0
ENDSEC
  0
SECTION
  2
OBJECTS
  0
DICTIONARY
  5
C
100
AcDbDictionary
  3
ACAD_GROUP
350
D
  3
ACAD_MLINESTYLE
350
E
  0
DICTIONARY
  5
D
102
{ACAD_REACTORS
330
C
102
}
100
AcDbDictionary
  0
DICTIONARY
  5
E
102
{ACAD_REACTORS
330
C
102
}
100
AcDbDictionary
  3
STANDARD
350
1C
  0
MLINESTYLE
  5
1C
102
{ACAD_REACTORS
330
E
102
}
100
AcDbMlineStyle
  2
STANDARD
 70
     0
  3

 62
     0
 51
90.0
 52
90.0
 71
     2
 49
0.5
 62
   256
  6
BYLAYER
 49
-0.5
 62
   256
  6
BYLAYER
  0
ENDSEC
  0
EOF
