  0
SECTION
  2
HEADER
  9
$ACADVER
  1
AC1012
  9
$DWGCODEPAGE
  3
dos932
  9
$INSBASE
 10
0.0
 20
0.0
 30
0.0
  9
$EXTMIN
 10
-138.39999389648437
 20
-94.800003051757812
 30
0.0
  9
$EXTMAX
 10
138.35000610351562
 20
94.5
 30
0.0
  9
$LIMMIN
 10
-138.39999389648437
 20
-94.800003051757812
  9
$LIMMAX
 10
138.35000610351562
 20
94.5
  9
$ORTHOMODE
 70
               0
  9
$REGENMODE
 70
               1
  9
$FILLMODE
 70
               1
  9
$QTEXTMODE
 70
               0
  9
$MIRRTEXT
 70
               1
  9
$DRAGMODE
 70
               2
  9
$LTSCALE
 40
1.0
  9
$OSMODE
 70
               0
  9
$ATTMODE
 70
               1
  9
$TEXTSIZE
 40
3.2000000476837158
  9
$TRACEWID
 40
0.05
  9
$TEXTSTYLE
  7
MX_NOTE_STANDARD
  9
$CLAYER
  8
0
  9
$CELTYPE
  6
CONTINUOUS
  9
$CECOLOR
 62
             256
  9
$CELTSCALE
 40
1.0
  9
$DELOBJ
 70
               1
  9
$DISPSILH
 70
               0
  9
$DIMSCALE
 40
1.0
  9
$DIMASZ
 40
2.5
  9
$DIMEXO
 40
1.5
  9
$DIMDLI
 40
3.75
  9
$DIMRND
 40
0.0
  9
$DIMDLE
 40
0.0
  9
$DIMEXE
 40
1.5
  9
$DIMTP
 40
0.0
  9
$DIMTM
 40
0.0
  9
$DIMTXT
 40
3.2000000476837158
  9
$DIMCEN
 40
2.5
  9
$DIMTSZ
 40
0.0
  9
$DIMTOL
 70
               0
  9
$DIMLIM
 70
               0
  9
$DIMTIH
 70
               0
  9
$DIMTOH
 70
               0
  9
$DIMSE1
 70
               0
  9
$DIMSE2
 70
               0
  9
$DIMTAD
 70
               1
  9
$DIMZIN
 70
               8
  9
$DIMBLK
  1

  9
$DIMASO
 70
               1
  9
$DIMSHO
 70
               1
  9
$DIMPOST
  1

  9
$DIMAPOST
  1

  9
$DIMALT
 70
               0
  9
$DIMALTD
 70
               4
  9
$DIMALTF
 40
0.03937007874016
  9
$DIMLFAC
 40
1.0
  9
$DIMTOFL
 70
               1
  9
$DIMTVP
 40
0.0
  9
$DIMTIX
 70
               0
  9
$DIMSOXD
 70
               0
  9
$DIMSAH
 70
               0
  9
$DIMBLK1
  1

  9
$DIMBLK2
  1

  9
$DIMSTYLE
  2
MXDIMSTYLE
  9
$DIMCLRD
 70
               0
  9
$DIMCLRE
 70
               0
  9
$DIMCLRT
 70
               0
  9
$DIMTFAC
 40
1.0
  9
$DIMGAP
 40
1.0
  9
$DIMJUST
 70
               0
  9
$DIMSD1
 70
               0
  9
$DIMSD2
 70
               0
  9
$DIMTOLJ
 70
               1
  9
$DIMTZIN
 70
               0
  9
$DIMALTZ
 70
               0
  9
$DIMALTTZ
 70
               0
  9
$DIMFIT
 70
               3
  9
$DIMUPT
 70
               1
  9
$DIMUNIT
 70
               2
  9
$DIMDEC
 70
               4
  9
$DIMTDEC
 70
               4
  9
$DIMALTU
 70
               2
  9
$DIMALTTD
 70
               4
  9
$DIMTXSTY
  7
MX_NOTE_STANDARD
  9
$DIMAUNIT
 70
               0
  9
$LUNITS
 70
               2
  9
$LUPREC
 70
               4
  9
$SKETCHINC
 40
0.1
  9
$FILLETRAD
 40
0.0
  9
$AUNITS
 70
               0
  9
$AUPREC
 70
               0
  9
$MENU
  1
acad
  9
$ELEVATION
 40
0.0
  9
$PELEVATION
 40
0.0
  9
$THICKNESS
 40
0.0
  9
$LIMCHECK
 70
               0
  9
$BLIPMODE
 70
               1
  9
$CHAMFERA
 40
0.0
  9
$CHAMFERB
 40
0.0
  9
$CHAMFERC
 40
0.0
  9
$CHAMFERD
 40
0.0
  9
$SKPOLY
 70
               0
  9
$TDCREATE
 40
2453425.611736111
  9
$TDUPDATE
 40
2453425.611736111
  9
$TDINDWG
 40
0.0000000000
  9
$TDUSRTIMER
 40
0.0000000000
  9
$USRTIMER
 70
               1
  9
$ANGBASE
 50
0.0
  9
$ANGDIR
 70
               0
  9
$PDMODE
 70
               0
  9
$PDSIZE
 40
0.0
  9
$PLINEWID
 40
0.0
  9
$COORDS
 70
               1
  9
$SPLFRAME
 70
               0
  9
$SPLINETYPE
 70
               6
  9
$SPLINESEGS
 70
               8
  9
$ATTDIA
 70
               0
  9
$ATTREQ
 70
               1
  9
$HANDLING
 70
               1
  9
$HANDSEED
  5
26C
  9
$SURFTAB1
 70
               6
  9
$SURFTAB2
 70
               6
  9
$SURFTYPE
 70
               6
  9
$SURFU
 70
               6
  9
$SURFV
 70
               6
  9
$UCSNAME
  2

  9
$UCSORG
 10
0.0
 20
0.0
 30
0.0
  9
$UCSXDIR
 10
1.0
 20
0.0
 30
0.0
  9
$UCSYDIR
 10
0.0
 20
1.0
 30
0.0
  9
$PUCSNAME
  2

  9
$PUCSORG
 10
0.0
 20
0.0
 30
0.0
  9
$PUCSXDIR
 10
1.0
 20
0.0
 30
0.0
  9
$PUCSYDIR
 10
0.0
 20
1.0
 30
0.0
  9
$USERI1
 70
               0
  9
$USERI2
 70
               0
  9
$USERI3
 70
               0
  9
$USERI4
 70
               0
  9
$USERI5
 70
               0
  9
$USERR1
 40
0.0
  9
$USERR2
 40
0.0
  9
$USERR3
 40
0.0
  9
$USERR4
 40
0.0
  9
$USERR5
 40
0.0
  9
$WORLDVIEW
 70
               1
  9
$SHADEDGE
 70
               3
  9
$SHADEDIF
 70
              70
  9
$TILEMODE
 70
               1
  9
$MAXACTVP
 70
              16
  9
$PINSBASE
 10
0.0
 20
0.0
 30
0.0
  9
$PLIMCHECK
 70
               0
  9
$PEXTMIN
 10
1.0000000000000000E+20
 20
1.0000000000000000E+20
 30
1.0000000000000000E+20
  9
$PEXTMAX
 10
-1.0000000000000000E+20
 20
-1.0000000000000000E+20
 30
-1.0000000000000000E+20
  9
$PLIMMIN
 10
0.0
 20
0.0
  9
$PLIMMAX
 10
12.0
 20
9.0
  9
$UNITMODE
 70
               0
  9
$VISRETAIN
 70
               0
  9
$PLINEGEN
 70
               1
  9
$PSLTSCALE
 70
               0
  9
$TREEDEPTH
 70
            3020
  9
$PICKSTYLE
 70
               1
  9
$CMLSTYLE
  2
Standard
  9
$CMLJUST
 70
               0
  9
$CMLSCALE
 40
1.0
  9
$SAVEIMAGES
 70
               0
  0
ENDSEC
  0
SECTION
  2
CLASSES
  0
CLASS
  1
LWPOLYLINE
  2
AcDbPolyline
  3
"AutoCAD"
 90
        0
280
               0
281
               1
  0
CLASS
  1
IMAGE
  2
AcDbRasterImage
  3
ISM
 90
      127
280
               0
281
               1
  0
CLASS
  1
OLE2FRAME
  2
AcDbOle2Frame
  3
""
 90
        0
280
               0
281
               1
  0
CLASS
  1
HATCH
  2
AcDbHatch
  3
"ACAD_SEDONA"
 90
        0
280
               0
281
               1
  0
CLASS
  1
DICTIONARYVAR
  2
AcDbDictionaryVar
  3
"AutoCAD"
 90
        0
280
               0
281
               0
  0
CLASS
  1
RASTERVARIABLES
  2
AcDbRasterVariables
  3
ISM
 90
        0
280
               0
281
               0
  0
CLASS
  1
IMAGEDEF
  2
AcDbRasterImageDef
  3
ISM
 90
        0
280
               0
281
               0
  0
CLASS
  1
IMAGEDEF_REACTOR
  2
AcDbRasterImageDefReactor
  3
ISM
 90
        1
280
               0
281
               0
  0
CLASS
  1
IDBUFFER
  2
AcDbIdBuffer
  3
"Acad"
 90
        0
280
               0
281
               0
  0
CLASS
  1
SPATIAL_FILTER
  2
AcDbSpatialFilter
  3
"Acad"
 90
        0
280
               0
281
               0
  0
CLASS
  1
XRECORD
  2
AcDbXrecord
  3
"<Built In>"
 90
        0
280
               0
281
               0
  0
CLASS
  1
SORTENTSTABLE
  2
AcDbSortentsTable
  3
"AutoCAD"
 90
        0
280
               0
281
               0
  0
CLASS
  1
LAYER_INDEX
  2
AcDbLayerIndex
  3
"Acad"
 90
        0
280
               0
281
               0
  0
CLASS
  1
SPATIAL_INDEX
  2
AcDbSpatialIndex
  3
"Acad"
 90
        0
280
               0
281
               0
  0
CLASS
  1
OBJECT_PTR
  2
CAseDLPNTableRecord
  3
"ASE-LPNTableRecord"
 90
        1
280
               0
281
               0
  0
CLASS
  1
LAYOUT
  2
AcDbLayout
  3
"AutoCAD 2000"
 90
        1
280
               0
281
               0
  0
CLASS
  1
PLOTSETTINGS
  2
AcDbPlotSettings
  3
"AutoCAD 2000"
 90
        1
280
               0
281
               0
  0
CLASS
  1
ACDBDICTIONARYWDFLT
  2
AcDbDictionaryWithDefault
  3
"AutoCAD 2000"
 90
        1
280
               0
281
               0
  0
CLASS
  1
ACDBPLACEHOLDER
  2
AcDbPlaceHolder
  3
"AutoCAD 2000"
 90
        1
280
               0
281
               0
  0
ENDSEC
  0
SECTION
  2
TABLES
  0
TABLE
  2
VPORT
  5
7
100
AcDbSymbolTable
 70
               1
  0
VPORT
  5
15
100
AcDbSymbolTableRecord
100
AcDbViewportTableRecord
  2
*ACTIVE
 70
               0
 10
0.0
 20
0.0
 11
1.0
 21
1.0
 12
-0.024993896484375
 22
-0.1500015258789063
 13
0.0
 23
0.0
 14
1.0
 24
1.0
 15
0.0
 25
0.0
 16
0.0
 26
0.0
 36
1.0
 17
0.0
 27
0.0
 37
0.0
 40
191.1930030822754
 41
1.7320508075688772
 42
50.0
 43
0.0
 44
0.0
 50
0.0
 51
0.0
 71
               0
 72
             100
 73
               1
 74
               1
 75
               0
 76
               0
 77
               0
 78
               0
  0
ENDTAB
  0
TABLE
  2
LTYPE
  5
4
100
AcDbSymbolTable
 70
               4
  0
LTYPE
  5
11
100
AcDbSymbolTableRecord
100
AcDbLinetypeTableRecord
  2
BYBLOCK
 70
              64
  3

 72
              65
 73
               0
 40
0.0
  0
LTYPE
  5
12
100
AcDbSymbolTableRecord
100
AcDbLinetypeTableRecord
  2
BYLAYER
 70
              64
  3

 72
              65
 73
               0
 40
0.0
  0
LTYPE
  5
13
100
AcDbSymbolTableRecord
100
AcDbLinetypeTableRecord
  2
CONTINUOUS
 70
              64
  3
Solid line
 72
              65
 73
               0
 40
0.0
  0
LTYPE
  5
23
100
AcDbSymbolTableRecord
100
AcDbLinetypeTableRecord
  2
DASHED
 70
              64
  3
Dashed __ __ __ __ __ __ __ __ __ __ __ __ __ _
 72
              65
 73
               2
 40
4.0
 49
2.0
 74
               0
 49
-2.0
 74
               0
  0
ENDTAB
  0
TABLE
  2
LAYER
  5
2
100
AcDbSymbolTable
 70
               2
  0
LAYER
  5
14
100
AcDbSymbolTableRecord
100
AcDbLayerTableRecord
  2
0
 70
               0
 62
               7
  6
CONTINUOUS
  0
LAYER
  5
1D
100
AcDbSymbolTableRecord
100
AcDbLayerTableRecord
  2
DEFPOINTS
 70
               0
 62
               7
  6
CONTINUOUS
  0
ENDTAB
  0
TABLE
  2
STYLE
  5
3
100
AcDbSymbolTable
 70
               1
  0
STYLE
  5
17
100
AcDbSymbolTableRecord
100
AcDbTextStyleTableRecord
  2
MX_NOTE_STANDARD
 70
               0
 40
0.0
 41
1.0
 50
0.0
 71
               0
 42
3.2000000476837158
  3
txt.shx
  4
extfont.shx
  0
ENDTAB
  0
TABLE
  2
VIEW
  5
5
100
AcDbSymbolTable
 70
               0
  0
ENDTAB
  0
TABLE
  2
UCS
  5
6
100
AcDbSymbolTable
 70
               0
  0
ENDTAB
  0
TABLE
  2
APPID
  5
8
100
AcDbSymbolTable
 70
               1
  0
APPID
  5
16
100
AcDbSymbolTableRecord
100
AcDbRegAppTableRecord
  2
ACAD
 70
               0
  0
ENDTAB
  0
TABLE
  2
DIMSTYLE
  5
9
100
AcDbSymbolTable
 70
               1
  0
DIMSTYLE
105
18
100
AcDbSymbolTableRecord
100
AcDbDimStyleTableRecord
  2
MXDIMSTYLE
 70
               0
  3

  4

  5

  6

  7

 40
1.0
 41
2.5
 42
1.5
 43
3.75
 44
1.5
 45
0.0
 46
0.0
 47
0.0
 48
0.0
 71
               0
 72
               0
 73
               0
 74
               0
 75
               0
 76
               0
 77
               1
 78
               8
140
3.2000000476837158
141
2.5
142
0.0
143
0.03937007874016
144
1.0
145
0.0
146
1.0
147
1.0
170
               0
171
               4
172
               1
173
               0
174
               0
175
               0
176
               0
177
               0
178
               0
270
               2
271
               4
272
               4
273
               2
274
               4
275
               0
280
               0
281
               0
282
               0
283
               1
284
               0
285
               0
286
               0
287
               3
288
               1
340
17
  0
ENDTAB
  0
TABLE
  2
BLOCK_RECORD
  5
1
100
AcDbSymbolTable
 70
               4
  0
BLOCK_RECORD
  5
A
100
AcDbSymbolTableRecord
100
AcDbBlockTableRecord
  2
*MODEL_SPACE
  0
BLOCK_RECORD
  5
B
100
AcDbSymbolTableRecord
100
AcDbBlockTableRecord
  2
*PAPER_SPACE
  0
BLOCK_RECORD
  5
1E
100
AcDbSymbolTableRecord
100
AcDbBlockTableRecord
  2
PSU-1
  0
BLOCK_RECORD
  5
1F
100
AcDbSymbolTableRecord
100
AcDbBlockTableRecord
  2
PSU-2
  0
BLOCK_RECORD
  5
20
100
AcDbSymbolTableRecord
100
AcDbBlockTableRecord
  2
PSU-3
  0
BLOCK_RECORD
  5
21
100
AcDbSymbolTableRecord
100
AcDbBlockTableRecord
  2
PSU-4
  0
ENDTAB
  0
ENDSEC
  0
SECTION
  2
BLOCKS
  0
BLOCK
  5
D
100
AcDbEntity
  8
0
100
AcDbBlockBegin
  2
*MODEL_SPACE
 70
               0
 10
0.0
 20
0.0
 30
0.0
  3
*MODEL_SPACE
  1

  0
ENDBLK
  5
E
100
AcDbEntity
  8
0
100
AcDbBlockEnd
  0
BLOCK
  5
F
100
AcDbEntity
 67
               1
  8
0
100
AcDbBlockBegin
  2
*PAPER_SPACE
 70
               0
 10
0.0
 20
0.0
 30
0.0
  3
*PAPER_SPACE
  1

  0
ENDBLK
  5
10
100
AcDbEntity
 67
               1
  8
0
100
AcDbBlockEnd
  0
BLOCK
  5
22
100
AcDbEntity
  8
0
100
AcDbBlockBegin
  2
PSU-1
 70
               0
 10
0.0
 20
0.0
 30
0.0
  3
PSU-1
  1

  0
LINE
  5
24
100
AcDbEntity
  8
0
  6
DASHED
 62
               2
100
AcDbLine
 10
-3.0
 20
0.0
 30
0.0
 11
3.0
 21
0.0
 31
0.0
  0
LINE
  5
25
100
AcDbEntity
  8
0
  6
DASHED
 62
               2
100
AcDbLine
 10
0.0
 20
-3.0
 30
0.0
 11
0.0
 21
2.9999999999999858
 31
0.0
  0
CIRCLE
  5
26
100
AcDbEntity
  8
0
  6
DASHED
 62
               7
100
AcDbCircle
 10
0.0
 20
0.0
 30
0.0
 40
1.1000000000000001
  0
CIRCLE
  5
27
100
AcDbEntity
  8
0
  6
DASHED
 62
               2
100
AcDbCircle
 10
0.0
 20
0.0
 30
0.0
 40
1.3
  0
LINE
  5
28
100
AcDbEntity
  8
0
  6
DASHED
 62
               2
100
AcDbLine
 10
30.0
 20
-3.0
 30
0.0
 11
30.0
 21
3.0
 31
0.0
  0
CIRCLE
  5
29
100
AcDbEntity
  8
0
  6
DASHED
 62
               7
100
AcDbCircle
 10
30.0
 20
0.0
 30
0.0
 40
1.1000000000000001
  0
CIRCLE
  5
2A
100
AcDbEntity
  8
0
  6
DASHED
 62
               2
100
AcDbCircle
 10
30.0
 20
0.0
 30
0.0
 40
1.3
  0
LINE
  5
2B
100
AcDbEntity
  8
0
  6
DASHED
 62
               2
100
AcDbLine
 10
27.0
 20
0.0
 30
0.0
 11
33.0
 21
0.0
 31
0.0
  0
ARC
  5
2C
100
AcDbEntity
  8
0
  6
CONTINUOUS
 62
               7
100
AcDbCircle
 10
-4.0
 20
36.349999999999994
 30
0.0
 40
1.0
100
AcDbArc
 50
90.0
 51
180.0
  0
ARC
  5
2D
100
AcDbEntity
  8
0
  6
CONTINUOUS
 62
               7
100
AcDbCircle
 10
34.0
 20
-1.6500000000000092
 30
0.0
 40
1.0
100
AcDbArc
 50
270.0
 51
0.0
  0
ARC
  5
2E
100
AcDbEntity
  8
0
  6
CONTINUOUS
 62
               7
100
AcDbCircle
 10
-4.0
 20
-1.6500000000000092
 30
0.0
 40
1.0
100
AcDbArc
 50
180.0
 51
270.0
  0
ARC
  5
2F
100
AcDbEntity
  8
0
  6
CONTINUOUS
 62
               7
100
AcDbCircle
 10
34.0
 20
36.349999999999994
 30
0.0
 40
1.0
100
AcDbArc
 50
0.0
 51
90.0
  0
LINE
  5
30
100
AcDbEntity
  8
0
  6
CONTINUOUS
 62
               7
100
AcDbLine
 10
34.0
 20
37.349999999999994
 30
0.0
 11
-4.0
 21
37.349999999999994
 31
0.0
  0
LINE
  5
31
100
AcDbEntity
  8
0
  6
CONTINUOUS
 62
               7
100
AcDbLine
 10
34.0
 20
-2.6500000000000092
 30
0.0
 11
-4.0
 21
-2.6500000000000092
 31
0.0
  0
LINE
  5
32
100
AcDbEntity
  8
0
  6
CONTINUOUS
 62
               7
100
AcDbLine
 10
-5.0
 20
36.349999999999994
 30
0.0
 11
-5.0
 21
-1.6500000000000092
 31
0.0
  0
LINE
  5
33
100
AcDbEntity
  8
0
  6
CONTINUOUS
 62
               7
100
AcDbLine
 10
35.0
 20
-1.6500000000000092
 30
0.0
 11
35.0
 21
36.349999999999994
 31
0.0
  0
LINE
  5
34
100
AcDbEntity
  8
0
  6
CONTINUOUS
 62
               7
100
AcDbLine
 10
34.0
 20
36.349999999999994
 30
0.0
 11
-4.0
 21
36.349999999999994
 31
0.0
  0
LINE
  5
35
100
AcDbEntity
  8
0
  6
CONTINUOUS
 62
               7
100
AcDbLine
 10
34.0
 20
-1.6500000000000092
 30
0.0
 11
34.0
 21
36.349999999999994
 31
0.0
  0
LINE
  5
36
100
AcDbEntity
  8
0
  6
CONTINUOUS
 62
               7
100
AcDbLine
 10
34.0
 20
-1.6500000000000092
 30
0.0
 11
-4.0
 21
-1.6500000000000092
 31
0.0
  0
LINE
  5
37
100
AcDbEntity
  8
0
  6
CONTINUOUS
 62
               7
100
AcDbLine
 10
-4.0
 20
36.349999999999994
 30
0.0
 11
-4.0
 21
-1.6500000000000092
 31
0.0
  0
LINE
  5
38
100
AcDbEntity
  8
0
  6
CONTINUOUS
 62
               7
100
AcDbLine
 10
34.0
 20
36.349999999999994
 30
0.0
 11
34.707106781186553
 21
37.05710678118654
 31
0.0
  0
LINE
  5
39
100
AcDbEntity
  8
0
  6
CONTINUOUS
 62
               7
100
AcDbLine
 10
-4.0
 20
-1.6500000000000092
 30
0.0
 11
-4.7071067811865532
 21
-2.3571067811865483
 31
0.0
  0
LINE
  5
3A
100
AcDbEntity
  8
0
  6
CONTINUOUS
 62
               7
100
AcDbLine
 10
34.0
 20
-1.6500000000000092
 30
0.0
 11
34.707106781186553
 21
-2.3571067811865483
 31
0.0
  0
LINE
  5
3B
100
AcDbEntity
  8
0
  6
CONTINUOUS
 62
               7
100
AcDbLine
 10
-4.0
 20
36.349999999999994
 30
0.0
 11
-4.7071067811865532
 21
37.05710678118654
 31
0.0
  0
ARC
  5
3C
100
AcDbEntity
  8
0
  6
CONTINUOUS
 62
               7
100
AcDbCircle
 10
-3.0
 20
-0.6500000000000092
 30
0.0
 40
0.5
100
AcDbArc
 50
180.0
 51
270.0
  0
ARC
  5
3D
100
AcDbEntity
  8
0
  6
CONTINUOUS
 62
               7
100
AcDbCircle
 10
33.0
 20
35.349999999999994
 30
0.0
 40
0.5
100
AcDbArc
 50
0.0
 51
90.0
  0
LINE
  5
3E
100
AcDbEntity
  8
0
  6
CONTINUOUS
 62
               7
100
AcDbLine
 10
23.5
 20
17.449999999999999
 30
0.0
 11
25.5
 21
17.449999999999999
 31
0.0
  0
LINE
  5
3F
100
AcDbEntity
  8
0
  6
CONTINUOUS
 62
               7
100
AcDbLine
 10
26.5
 20
15.449999999999999
 30
0.0
 11
26.5
 21
15.949999999999999
 31
0.0
  0
LINE
  5
40
100
AcDbEntity
  8
0
  6
CONTINUOUS
 62
               7
100
AcDbLine
 10
26.5
 20
12.949999999999999
 30
0.0
 11
28.665063509461049
 21
14.449999999999985
 31
0.0
  0
LINE
  5
41
100
AcDbEntity
  8
0
  6
CONTINUOUS
 62
               7
100
AcDbLine
 10
26.5
 20
15.949999999999999
 30
0.0
 11
28.665063509461106
 21
14.449999999999985
 31
0.0
  0
LINE
  5
42
100
AcDbEntity
  8
0
  6
CONTINUOUS
 62
               7
100
AcDbLine
 10
26.5
 20
13.449999999999999
 30
0.0
 11
26.5
 21
12.949999999999999
 31
0.0
  0
LINE
  5
43
100
AcDbEntity
  8
0
  6
CONTINUOUS
 62
               7
100
AcDbLine
 10
23.5
 20
15.949999999999999
 30
0.0
 11
23.5
 21
17.449999999999999
 31
0.0
  0
LINE
  5
44
100
AcDbEntity
  8
0
  6
CONTINUOUS
 62
               7
100
AcDbLine
 10
25.5
 20
15.949999999999999
 30
0.0
 11
25.5
 21
17.449999999999999
 31
0.0
  0
LINE
  5
45
100
AcDbEntity
  8
0
  6
CONTINUOUS
 62
               7
100
AcDbLine
 10
26.0
 20
13.449999999999999
 30
0.0
 11
26.5
 21
13.449999999999999
 31
0.0
  0
LINE
  5
46
100
AcDbEntity
  8
0
  6
CONTINUOUS
 62
               7
100
AcDbLine
 10
26.0
 20
15.449999999999999
 30
0.0
 11
26.5
 21
15.449999999999999
 31
0.0
  0
ARC
  5
47
100
AcDbEntity
  8
0
  6
CONTINUOUS
 62
               7
100
AcDbCircle
 10
26.0
 20
15.949999999999999
 30
0.0
 40
2.5
100
AcDbArc
 50
180.0
 51
270.0
  0
ARC
  5
48
100
AcDbEntity
  8
0
  6
CONTINUOUS
 62
               7
100
AcDbCircle
 10
26.0
 20
15.949999999999999
 30
0.0
 40
0.5
100
AcDbArc
 50
180.0
 51
270.0
  0
LINE
  5
49
100
AcDbEntity
  8
0
  6
CONTINUOUS
 62
               7
100
AcDbLine
 10
17.598076211353316
 20
17.599999999999991
 30
0.0
 11
15.0
 21
13.099999999999991
 31
0.0
  0
LINE
  5
4A
100
AcDbEntity
  8
0
  6
CONTINUOUS
 62
               7
100
AcDbLine
 10
12.401923788646684
 20
17.599999999999991
 30
0.0
 11
17.598076211353316
 21
17.599999999999991
 31
0.0
  0
LINE
  5
4B
100
AcDbEntity
  8
0
  6
CONTINUOUS
 62
               7
100
AcDbLine
 10
15.0
 20
13.099999999999991
 30
0.0
 11
12.401923788646684
 21
17.599999999999991
 31
0.0
  0
LINE
  5
4C
100
AcDbEntity
  8
0
  6
CONTINUOUS
 62
               7
100
AcDbLine
 10
1.401923788646684
 20
13.099999999999991
 30
0.0
 11
4.0
 21
17.599999999999991
 31
0.0
  0
LINE
  5
4D
100
AcDbEntity
  8
0
  6
CONTINUOUS
 62
               7
100
AcDbLine
 10
6.598076211353316
 20
13.099999999999991
 30
0.0
 11
1.401923788646684
 21
13.099999999999991
 31
0.0
  0
LINE
  5
4E
100
AcDbEntity
  8
0
  6
CONTINUOUS
 62
               7
100
AcDbLine
 10
4.0
 20
17.599999999999991
 30
0.0
 11
6.598076211353316
 21
13.099999999999991
 31
0.0
  0
LINE
  5
4F
100
AcDbEntity
  8
0
  6
CONTINUOUS
 62
               7
100
AcDbLine
 10
33.5
 20
19.599999999999991
 30
0.0
 11
-3.5
 21
19.599999999999991
 31
0.0
  0
ARC
  5
50
100
AcDbEntity
  8
0
  6
CONTINUOUS
 62
               7
100
AcDbCircle
 10
33.0
 20
-0.6500000000000092
 30
0.0
 40
0.5
100
AcDbArc
 50
270.0
 51
0.0
  0
ARC
  5
51
100
AcDbEntity
  8
0
  6
CONTINUOUS
 62
               7
100
AcDbCircle
 10
-3.0
 20
35.349999999999994
 30
0.0
 40
0.5
100
AcDbArc
 50
90.0
 51
180.0
  0
LINE
  5
52
100
AcDbEntity
  8
0
  6
CONTINUOUS
 62
               7
100
AcDbLine
 10
29.0
 20
18.349999999999991
 30
0.0
 11
29.0
 21
12.349999999999991
 31
0.0
  0
LINE
  5
53
100
AcDbEntity
  8
0
  6
CONTINUOUS
 62
               7
100
AcDbLine
 10
23.0
 20
12.349999999999991
 30
0.0
 11
29.0
 21
12.349999999999991
 31
0.0
  0
LINE
  5
54
100
AcDbEntity
  8
0
  6
CONTINUOUS
 62
               7
100
AcDbLine
 10
23.0
 20
18.349999999999991
 30
0.0
 11
29.0
 21
18.349999999999991
 31
0.0
  0
LINE
  5
55
100
AcDbEntity
  8
0
  6
CONTINUOUS
 62
               7
100
AcDbLine
 10
23.0
 20
18.349999999999991
 30
0.0
 11
23.0
 21
12.349999999999991
 31
0.0
  0
LINE
  5
56
100
AcDbEntity
  8
0
  6
CONTINUOUS
 62
               7
100
AcDbLine
 10
12.0
 20
12.349999999999991
 30
0.0
 11
12.0
 21
18.349999999999991
 31
0.0
  0
LINE
  5
57
100
AcDbEntity
  8
0
  6
CONTINUOUS
 62
               7
100
AcDbLine
 10
18.0
 20
18.349999999999991
 30
0.0
 11
12.0
 21
18.349999999999991
 31
0.0
  0
LINE
  5
58
100
AcDbEntity
  8
0
  6
CONTINUOUS
 62
               7
100
AcDbLine
 10
18.0
 20
12.349999999999991
 30
0.0
 11
12.0
 21
12.349999999999991
 31
0.0
  0
LINE
  5
59
100
AcDbEntity
  8
0
  6
CONTINUOUS
 62
               7
100
AcDbLine
 10
18.0
 20
12.349999999999991
 30
0.0
 11
18.0
 21
18.349999999999991
 31
0.0
  0
LINE
  5
5A
100
AcDbEntity
  8
0
  6
CONTINUOUS
 62
               7
100
AcDbLine
 10
1.0
 20
18.349999999999991
 30
0.0
 11
1.0
 21
12.349999999999991
 31
0.0
  0
LINE
  5
5B
100
AcDbEntity
  8
0
  6
CONTINUOUS
 62
               7
100
AcDbLine
 10
33.5
 20
-0.6500000000000092
 30
0.0
 11
33.5
 21
35.349999999999994
 31
0.0
  0
LINE
  5
5C
100
AcDbEntity
  8
0
  6
CONTINUOUS
 62
               7
100
AcDbLine
 10
33.0
 20
-1.1500000000000092
 30
0.0
 11
-3.0
 21
-1.1500000000000092
 31
0.0
  0
LINE
  5
5D
100
AcDbEntity
  8
0
  6
CONTINUOUS
 62
               7
100
AcDbLine
 10
33.0
 20
35.849999999999994
 30
0.0
 11
-3.0
 21
35.849999999999994
 31
0.0
  0
LINE
  5
5E
100
AcDbEntity
  8
0
  6
CONTINUOUS
 62
               7
100
AcDbLine
 10
1.0
 20
18.349999999999991
 30
0.0
 11
7.0
 21
18.349999999999991
 31
0.0
  0
LINE
  5
5F
100
AcDbEntity
  8
0
  6
CONTINUOUS
 62
               7
100
AcDbLine
 10
1.0
 20
12.349999999999991
 30
0.0
 11
7.0
 21
12.349999999999991
 31
0.0
  0
LINE
  5
60
100
AcDbEntity
  8
0
  6
CONTINUOUS
 62
               7
100
AcDbLine
 10
7.0
 20
18.349999999999991
 30
0.0
 11
7.0
 21
12.349999999999991
 31
0.0
  0
CIRCLE
  5
61
100
AcDbEntity
  8
0
  6
CONTINUOUS
 62
               7
100
AcDbCircle
 10
1.5
 20
8.8499999999999908
 30
0.0
 40
2.0
  0
CIRCLE
  5
62
100
AcDbEntity
  8
0
  6
CONTINUOUS
 62
               7
100
AcDbCircle
 10
1.5
 20
2.3499999999999908
 30
0.0
 40
2.0
  0
CIRCLE
  5
63
100
AcDbEntity
  8
0
  6
CONTINUOUS
 62
               7
100
AcDbCircle
 10
6.5
 20
2.3499999999999908
 30
0.0
 40
2.0
  0
CIRCLE
  5
64
100
AcDbEntity
  8
0
  6
CONTINUOUS
 62
               7
100
AcDbCircle
 10
11.5
 20
2.3499999999999908
 30
0.0
 40
2.0
  0
CIRCLE
  5
65
100
AcDbEntity
  8
0
  6
CONTINUOUS
 62
               7
100
AcDbCircle
 10
16.5
 20
2.3499999999999908
 30
0.0
 40
2.0
  0
CIRCLE
  5
66
100
AcDbEntity
  8
0
  6
CONTINUOUS
 62
               7
100
AcDbCircle
 10
16.5
 20
8.8499999999999908
 30
0.0
 40
2.0
  0
CIRCLE
  5
67
100
AcDbEntity
  8
0
  6
CONTINUOUS
 62
               7
100
AcDbCircle
 10
11.5
 20
8.8499999999999908
 30
0.0
 40
2.0
  0
CIRCLE
  5
68
100
AcDbEntity
  8
0
  6
CONTINUOUS
 62
               7
100
AcDbCircle
 10
6.5
 20
8.8499999999999908
 30
0.0
 40
2.0
  0
LINE
  5
69
100
AcDbEntity
  8
0
  6
CONTINUOUS
 62
               7
100
AcDbLine
 10
30.0
 20
31.599999999999994
 30
0.0
 11
0.0
 21
31.599999999999994
 31
0.0
  0
LINE
  5
6A
100
AcDbEntity
  8
0
  6
CONTINUOUS
 62
               7
100
AcDbLine
 10
30.0
 20
20.099999999999991
 30
0.0
 11
0.0
 21
20.099999999999991
 31
0.0
  0
LINE
  5
6B
100
AcDbEntity
  8
0
  6
CONTINUOUS
 62
               7
100
AcDbLine
 10
0.0
 20
31.599999999999994
 30
0.0
 11
0.0
 21
20.099999999999991
 31
0.0
  0
LINE
  5
6C
100
AcDbEntity
  8
0
  6
CONTINUOUS
 62
               7
100
AcDbLine
 10
30.0
 20
31.599999999999994
 30
0.0
 11
30.0
 21
20.099999999999991
 31
0.0
  0
LINE
  5
6D
100
AcDbEntity
  8
0
  6
CONTINUOUS
 62
               7
100
AcDbLine
 10
-3.5
 20
-0.6500000000000092
 30
0.0
 11
-3.5
 21
35.349999999999994
 31
0.0
  0
LINE
  5
6E
100
AcDbEntity
  8
0
  6
CONTINUOUS
 62
               7
100
AcDbLine
 10
25.399375307422474
 20
22.708691913136089
 30
0.0
 11
25.032353788167754
 21
23.146091932527451
 31
0.0
  0
LINE
  5
6F
100
AcDbEntity
  8
0
  6
CONTINUOUS
 62
               7
100
AcDbLine
 10
21.846194703315604
 20
22.708691913136089
 30
0.0
 11
22.367467926025213
 21
23.146091932527451
 31
0.0
  0
LINE
  5
70
100
AcDbEntity
  8
0
  6
CONTINUOUS
 62
               7
100
AcDbLine
 10
19.283705095952499
 20
22.750057707769979
 30
0.0
 11
18.916682704241239
 21
23.18745772716127
 31
0.0
  0
LINE
  5
71
100
AcDbEntity
  8
0
  6
CONTINUOUS
 62
               7
100
AcDbLine
 10
15.730524494188984
 20
22.750057707769979
 30
0.0
 11
16.251796842098543
 21
23.18745772716127
 31
0.0
  0
LINE
  5
72
100
AcDbEntity
  8
0
  6
CONTINUOUS
 62
               7
100
AcDbLine
 10
19.283705095952499
 20
22.750057707769979
 30
0.0
 11
15.730524494188984
 21
22.750057707769979
 31
0.0
  0
LINE
  5
73
100
AcDbEntity
  8
0
  6
CONTINUOUS
 62
               7
100
AcDbLine
 10
25.399375307422474
 20
22.708691913136089
 30
0.0
 11
21.846194703315604
 21
22.708691913136089
 31
0.0
  0
LINE
  5
74
100
AcDbEntity
  8
0
  6
CONTINUOUS
 62
               7
100
AcDbLine
 10
22.367467926025213
 20
23.146091932527451
 30
0.0
 11
25.032353788167754
 21
23.146091932527451
 31
0.0
  0
LINE
  5
75
100
AcDbEntity
  8
0
  6
CONTINUOUS
 62
               7
100
AcDbLine
 10
16.251796842098543
 20
23.18745772716127
 30
0.0
 11
18.916682704241239
 21
23.18745772716127
 31
0.0
  0
LINE
  5
76
100
AcDbEntity
  8
0
  6
CONTINUOUS
 62
               7
100
AcDbLine
 10
16.682147722777344
 20
25.628097347362342
 30
0.0
 11
16.276562431196524
 21
25.846797357058023
 31
0.0
  0
LINE
  5
77
100
AcDbEntity
  8
0
  6
CONTINUOUS
 62
               7
100
AcDbLine
 10
16.759272718596549
 20
26.065497366753704
 30
0.0
 11
16.276562431196524
 21
25.846797357058023
 31
0.0
  0
LINE
  5
78
100
AcDbEntity
  8
0
  6
CONTINUOUS
 62
               7
100
AcDbLine
 10
16.759272718596549
 20
26.065497366753704
 30
0.0
 11
16.814459479043094
 21
26.37847282702883
 31
0.0
  0
LINE
  5
79
100
AcDbEntity
  8
0
  6
CONTINUOUS
 62
               7
100
AcDbLine
 10
17.19804704884875
 20
28.553908067472669
 30
0.0
 11
16.831024692577529
 21
28.991308086863896
 31
0.0
  0
LINE
  5
7A
100
AcDbEntity
  8
0
  6
CONTINUOUS
 62
               7
100
AcDbLine
 10
16.383704440746413
 20
26.454426465596143
 30
0.0
 11
16.831024692577529
 21
28.991308086863896
 31
0.0
  0
LINE
  5
7B
100
AcDbEntity
  8
0
  6
CONTINUOUS
 62
               7
100
AcDbLine
 10
16.814459479043094
 20
26.37847282702883
 30
0.0
 11
17.19804704884875
 21
28.553908067472669
 31
0.0
  0
LINE
  5
7C
100
AcDbEntity
  8
0
  6
CONTINUOUS
 62
               7
100
AcDbLine
 10
22.87494380252312
 20
26.024130697319791
 30
0.0
 11
22.930129688169686
 21
26.337107032394947
 31
0.0
  0
LINE
  5
7D
100
AcDbEntity
  8
0
  6
CONTINUOUS
 62
               7
100
AcDbLine
 10
25.53982966466576
 20
26.024130697319791
 30
0.0
 11
22.87494380252312
 21
26.024130697319791
 31
0.0
  0
LINE
  5
7E
100
AcDbEntity
  8
0
  6
CONTINUOUS
 62
               7
100
AcDbLine
 10
25.462703794046561
 20
25.586730677928429
 30
0.0
 11
22.797817931903921
 21
25.586730677928429
 31
0.0
  0
LINE
  5
7F
100
AcDbEntity
  8
0
  6
CONTINUOUS
 62
               7
100
AcDbLine
 10
22.87494380252312
 20
26.024130697319791
 30
0.0
 11
22.39223351512311
 21
25.805430687624181
 31
0.0
  0
LINE
  5
80
100
AcDbEntity
  8
0
  6
CONTINUOUS
 62
               7
100
AcDbLine
 10
22.797817931903921
 20
25.586730677928429
 30
0.0
 11
22.39223351512311
 21
25.805430687624181
 31
0.0
  0
LINE
  5
81
100
AcDbEntity
  8
0
  6
CONTINUOUS
 62
               7
100
AcDbLine
 10
25.945414081446586
 20
25.805430687624181
 30
0.0
 11
25.53982966466576
 21
26.024130697319791
 31
0.0
  0
LINE
  5
82
100
AcDbEntity
  8
0
  6
CONTINUOUS
 62
               7
100
AcDbLine
 10
25.945414081446586
 20
25.805430687624181
 30
0.0
 11
25.462703794046561
 21
25.586730677928429
 31
0.0
  0
LINE
  5
83
100
AcDbEntity
  8
0
  6
CONTINUOUS
 62
               7
100
AcDbLine
 10
19.829743872319995
 20
25.846797357058023
 30
0.0
 11
19.347033584919942
 21
25.628097347362342
 31
0.0
  0
LINE
  5
84
100
AcDbEntity
  8
0
  6
CONTINUOUS
 62
               7
100
AcDbLine
 10
19.829743872319995
 20
25.846797357058023
 30
0.0
 11
19.424158580739174
 21
26.065497366753704
 31
0.0
  0
LINE
  5
85
100
AcDbEntity
  8
0
  6
CONTINUOUS
 62
               7
100
AcDbLine
 10
25.978603120118038
 20
28.512541398038756
 30
0.0
 11
23.313717257975398
 21
28.512541398038756
 31
0.0
  0
LINE
  5
86
100
AcDbEntity
  8
0
  6
CONTINUOUS
 62
               7
100
AcDbLine
 10
23.313717257975398
 20
28.512541398038756
 30
0.0
 11
22.946695776504214
 21
28.949941417430054
 31
0.0
  0
LINE
  5
87
100
AcDbEntity
  8
0
  6
CONTINUOUS
 62
               7
100
AcDbLine
 10
25.978603120118038
 20
28.512541398038756
 30
0.0
 11
26.506786388333936
 21
28.949941417430054
 31
0.0
  0
LINE
  5
88
100
AcDbEntity
  8
0
  6
CONTINUOUS
 62
               7
100
AcDbLine
 10
26.506786388333936
 20
28.949941417430054
 30
0.0
 11
22.946695776504214
 21
28.949941417430054
 31
0.0
  0
LINE
  5
89
100
AcDbEntity
  8
0
  6
CONTINUOUS
 62
               7
100
AcDbLine
 10
19.862932910991447
 20
28.553908067472669
 30
0.0
 11
20.391116179207458
 21
28.991308086863896
 31
0.0
  0
LINE
  5
8A
100
AcDbEntity
  8
0
  6
CONTINUOUS
 62
               7
100
AcDbLine
 10
25.53982966466576
 20
26.024130697319791
 30
0.0
 11
25.978603120118038
 21
28.512541398038756
 31
0.0
  0
LINE
  5
8B
100
AcDbEntity
  8
0
  6
CONTINUOUS
 62
               7
100
AcDbLine
 10
22.930129688169686
 20
26.337107032394947
 30
0.0
 11
23.313717257975398
 21
28.512541398038756
 31
0.0
  0
LINE
  5
8C
100
AcDbEntity
  8
0
  6
CONTINUOUS
 62
               7
100
AcDbLine
 10
22.499374649873005
 20
26.413060670962253
 30
0.0
 11
22.946695776504214
 21
28.949941417430054
 31
0.0
  0
LINE
  5
8D
100
AcDbEntity
  8
0
  6
CONTINUOUS
 62
               7
100
AcDbLine
 10
25.945414081446586
 20
25.805430687624181
 30
0.0
 11
26.499876342827548
 21
28.949941417430054
 31
0.0
  0
LINE
  5
8E
100
AcDbEntity
  8
0
  6
CONTINUOUS
 62
               7
100
AcDbLine
 10
19.424158580739174
 20
26.065497366753704
 30
0.0
 11
19.862932910991447
 21
28.553908067472669
 31
0.0
  0
LINE
  5
8F
100
AcDbEntity
  8
0
  6
CONTINUOUS
 62
               7
100
AcDbLine
 10
19.829743872319995
 20
25.846797357058023
 30
0.0
 11
20.38420613370107
 21
28.991308086863896
 31
0.0
  0
LINE
  5
90
100
AcDbEntity
  8
0
  6
CONTINUOUS
 62
               7
100
AcDbLine
 10
19.862932910991447
 20
28.553908067472669
 30
0.0
 11
17.19804704884875
 21
28.553908067472669
 31
0.0
  0
LINE
  5
91
100
AcDbEntity
  8
0
  6
CONTINUOUS
 62
               7
100
AcDbLine
 10
19.347033584919942
 20
25.628097347362342
 30
0.0
 11
16.682147722777344
 21
25.628097347362342
 31
0.0
  0
LINE
  5
92
100
AcDbEntity
  8
0
  6
CONTINUOUS
 62
               7
100
AcDbLine
 10
19.424158580739174
 20
26.065497366753704
 30
0.0
 11
16.759272718596549
 21
26.065497366753704
 31
0.0
  0
LINE
  5
93
100
AcDbEntity
  8
0
  6
CONTINUOUS
 62
               7
100
AcDbLine
 10
20.391116179207458
 20
28.991308086863896
 30
0.0
 11
16.831024692577529
 21
28.991308086863896
 31
0.0
  0
LINE
  5
94
100
AcDbEntity
  8
0
  6
CONTINUOUS
 62
               7
100
AcDbLine
 10
19.283705095952499
 20
22.750057707769979
 30
0.0
 11
19.829743872319995
 21
25.846797357058023
 31
0.0
  0
LINE
  5
95
100
AcDbEntity
  8
0
  6
CONTINUOUS
 62
               7
100
AcDbLine
 10
18.916682704241239
 20
23.18745772716127
 30
0.0
 11
19.347033584919942
 21
25.628097347362342
 31
0.0
  0
LINE
  5
96
100
AcDbEntity
  8
0
  6
CONTINUOUS
 62
               7
100
AcDbLine
 10
25.032353788167754
 20
23.146091932527451
 30
0.0
 11
25.462703794046561
 21
25.586730677928429
 31
0.0
  0
LINE
  5
97
100
AcDbEntity
  8
0
  6
CONTINUOUS
 62
               7
100
AcDbLine
 10
22.367467926025213
 20
23.146091932527451
 30
0.0
 11
22.797817931903921
 21
25.586730677928429
 31
0.0
  0
LINE
  5
98
100
AcDbEntity
  8
0
  6
CONTINUOUS
 62
               7
100
AcDbLine
 10
25.399375307422474
 20
22.708691913136089
 30
0.0
 11
25.945414081446586
 21
25.805430687624181
 31
0.0
  0
LINE
  5
99
100
AcDbEntity
  8
0
  6
CONTINUOUS
 62
               7
100
AcDbLine
 10
21.846194703315604
 20
22.708691913136089
 30
0.0
 11
22.499374649873005
 21
26.413060670962253
 31
0.0
  0
LINE
  5
9A
100
AcDbEntity
  8
0
  6
CONTINUOUS
 62
               7
100
AcDbLine
 10
15.730524494188984
 20
22.750057707769979
 30
0.0
 11
16.383704440746413
 21
26.454426465596143
 31
0.0
  0
LINE
  5
9B
100
AcDbEntity
  8
0
  6
CONTINUOUS
 62
               7
100
AcDbLine
 10
16.251796842098543
 20
23.18745772716127
 30
0.0
 11
16.682147722777344
 21
25.628097347362342
 31
0.0
  0
LINE
  5
9C
100
AcDbEntity
  8
0
  6
CONTINUOUS
 62
               7
100
AcDbLine
 10
10.136596842098527
 20
23.18745772716127
 30
0.0
 11
10.566947722777343
 21
25.628097347362342
 31
0.0
  0
LINE
  5
9D
100
AcDbEntity
  8
0
  6
CONTINUOUS
 62
               7
100
AcDbLine
 10
9.6153244941889824
 20
22.750057707769979
 30
0.0
 11
10.268504440746412
 21
26.454426465596143
 31
0.0
  0
LINE
  5
9E
100
AcDbEntity
  8
0
  6
CONTINUOUS
 62
               7
100
AcDbLine
 10
12.801482704241238
 20
23.18745772716127
 30
0.0
 11
13.23183358491994
 21
25.628097347362342
 31
0.0
  0
LINE
  5
9F
100
AcDbEntity
  8
0
  6
CONTINUOUS
 62
               7
100
AcDbLine
 10
13.168505095952497
 20
22.750057707769979
 30
0.0
 11
13.714543872319993
 21
25.846797357058023
 31
0.0
  0
LINE
  5
A0
100
AcDbEntity
  8
0
  6
CONTINUOUS
 62
               7
100
AcDbLine
 10
14.275916179207456
 20
28.991308086863896
 30
0.0
 11
10.715824692577527
 21
28.991308086863896
 31
0.0
  0
LINE
  5
A1
100
AcDbEntity
  8
0
  6
CONTINUOUS
 62
               7
100
AcDbLine
 10
13.308958580739173
 20
26.065497366753704
 30
0.0
 11
10.644072718596533
 21
26.065497366753704
 31
0.0
  0
LINE
  5
A2
100
AcDbEntity
  8
0
  6
CONTINUOUS
 62
               7
100
AcDbLine
 10
13.23183358491994
 20
25.628097347362342
 30
0.0
 11
10.566947722777343
 21
25.628097347362342
 31
0.0
  0
LINE
  5
A3
100
AcDbEntity
  8
0
  6
CONTINUOUS
 62
               7
100
AcDbLine
 10
13.747732910991445
 20
28.553908067472669
 30
0.0
 11
11.082847048848748
 21
28.553908067472669
 31
0.0
  0
LINE
  5
A4
100
AcDbEntity
  8
0
  6
CONTINUOUS
 62
               7
100
AcDbLine
 10
13.714543872319993
 20
25.846797357058023
 30
0.0
 11
14.269006133701055
 21
28.991308086863896
 31
0.0
  0
LINE
  5
A5
100
AcDbEntity
  8
0
  6
CONTINUOUS
 62
               7
100
AcDbLine
 10
13.308958580739173
 20
26.065497366753704
 30
0.0
 11
13.747732910991445
 21
28.553908067472669
 31
0.0
  0
LINE
  5
A6
100
AcDbEntity
  8
0
  6
CONTINUOUS
 62
               7
100
AcDbLine
 10
13.747732910991445
 20
28.553908067472669
 30
0.0
 11
14.275916179207456
 21
28.991308086863896
 31
0.0
  0
LINE
  5
A7
100
AcDbEntity
  8
0
  6
CONTINUOUS
 62
               7
100
AcDbLine
 10
13.714543872319993
 20
25.846797357058023
 30
0.0
 11
13.308958580739173
 21
26.065497366753704
 31
0.0
  0
LINE
  5
A8
100
AcDbEntity
  8
0
  6
CONTINUOUS
 62
               7
100
AcDbLine
 10
13.714543872319993
 20
25.846797357058023
 30
0.0
 11
13.23183358491994
 21
25.628097347362342
 31
0.0
  0
LINE
  5
A9
100
AcDbEntity
  8
0
  6
CONTINUOUS
 62
               7
100
AcDbLine
 10
10.699259479043093
 20
26.37847282702883
 30
0.0
 11
11.082847048848748
 21
28.553908067472669
 31
0.0
  0
LINE
  5
AA
100
AcDbEntity
  8
0
  6
CONTINUOUS
 62
               7
100
AcDbLine
 10
10.268504440746412
 20
26.454426465596143
 30
0.0
 11
10.715824692577527
 21
28.991308086863896
 31
0.0
  0
LINE
  5
AB
100
AcDbEntity
  8
0
  6
CONTINUOUS
 62
               7
100
AcDbLine
 10
11.082847048848748
 20
28.553908067472669
 30
0.0
 11
10.715824692577527
 21
28.991308086863896
 31
0.0
  0
LINE
  5
AC
100
AcDbEntity
  8
0
  6
CONTINUOUS
 62
               7
100
AcDbLine
 10
10.644072718596533
 20
26.065497366753704
 30
0.0
 11
10.699259479043093
 21
26.37847282702883
 31
0.0
  0
LINE
  5
AD
100
AcDbEntity
  8
0
  6
CONTINUOUS
 62
               7
100
AcDbLine
 10
10.644072718596533
 20
26.065497366753704
 30
0.0
 11
10.161362431196522
 21
25.846797357058023
 31
0.0
  0
LINE
  5
AE
100
AcDbEntity
  8
0
  6
CONTINUOUS
 62
               7
100
AcDbLine
 10
10.566947722777343
 20
25.628097347362342
 30
0.0
 11
10.161362431196522
 21
25.846797357058023
 31
0.0
  0
LINE
  5
AF
100
AcDbEntity
  8
0
  6
CONTINUOUS
 62
               7
100
AcDbLine
 10
10.136596842098527
 20
23.18745772716127
 30
0.0
 11
12.801482704241238
 21
23.18745772716127
 31
0.0
  0
LINE
  5
B0
100
AcDbEntity
  8
0
  6
CONTINUOUS
 62
               7
100
AcDbLine
 10
13.168505095952497
 20
22.750057707769979
 30
0.0
 11
9.6153244941889824
 21
22.750057707769979
 31
0.0
  0
LINE
  5
B1
100
AcDbEntity
  8
0
  6
CONTINUOUS
 62
               7
100
AcDbLine
 10
9.6153244941889824
 20
22.750057707769979
 30
0.0
 11
10.136596842098527
 21
23.18745772716127
 31
0.0
  0
LINE
  5
B2
100
AcDbEntity
  8
0
  6
CONTINUOUS
 62
               7
100
AcDbLine
 10
13.168505095952497
 20
22.750057707769979
 30
0.0
 11
12.801482704241238
 21
23.18745772716127
 31
0.0
  0
LINE
  5
B3
100
AcDbEntity
  8
0
  6
CONTINUOUS
 62
               7
100
AcDbLine
 10
4.0213968420985253
 20
23.18745772716127
 30
0.0
 11
4.451747722777327
 21
25.628097347362342
 31
0.0
  0
LINE
  5
B4
100
AcDbEntity
  8
0
  6
CONTINUOUS
 62
               7
100
AcDbLine
 10
3.5001244941889809
 20
22.750057707769979
 30
0.0
 11
4.1533044407464104
 21
26.454426465596143
 31
0.0
  0
LINE
  5
B5
100
AcDbEntity
  8
0
  6
CONTINUOUS
 62
               7
100
AcDbLine
 10
6.6862827042412363
 20
23.18745772716127
 30
0.0
 11
7.1166335849199385
 21
25.628097347362342
 31
0.0
  0
LINE
  5
B6
100
AcDbEntity
  8
0
  6
CONTINUOUS
 62
               7
100
AcDbLine
 10
7.0533050959524957
 20
22.750057707769979
 30
0.0
 11
7.5993438723199915
 21
25.846797357058023
 31
0.0
  0
LINE
  5
B7
100
AcDbEntity
  8
0
  6
CONTINUOUS
 62
               7
100
AcDbLine
 10
8.1607161792074407
 20
28.991308086863896
 30
0.0
 11
4.6006246925775258
 21
28.991308086863896
 31
0.0
  0
LINE
  5
B8
100
AcDbEntity
  8
0
  6
CONTINUOUS
 62
               7
100
AcDbLine
 10
7.1937585807391713
 20
26.065497366753704
 30
0.0
 11
4.5288727185965314
 21
26.065497366753704
 31
0.0
  0
LINE
  5
B9
100
AcDbEntity
  8
0
  6
CONTINUOUS
 62
               7
100
AcDbLine
 10
7.1166335849199385
 20
25.628097347362342
 30
0.0
 11
4.451747722777327
 21
25.628097347362342
 31
0.0
  0
LINE
  5
BA
100
AcDbEntity
  8
0
  6
CONTINUOUS
 62
               7
100
AcDbLine
 10
7.6325329109914435
 20
28.553908067472669
 30
0.0
 11
4.9676470488487325
 21
28.553908067472669
 31
0.0
  0
LINE
  5
BB
100
AcDbEntity
  8
0
  6
CONTINUOUS
 62
               7
100
AcDbLine
 10
7.5993438723199915
 20
25.846797357058023
 30
0.0
 11
8.1538061337010532
 21
28.991308086863896
 31
0.0
  0
LINE
  5
BC
100
AcDbEntity
  8
0
  6
CONTINUOUS
 62
               7
100
AcDbLine
 10
7.1937585807391713
 20
26.065497366753704
 30
0.0
 11
7.6325329109914435
 21
28.553908067472669
 31
0.0
  0
LINE
  5
BD
100
AcDbEntity
  8
0
  6
CONTINUOUS
 62
               7
100
AcDbLine
 10
7.6325329109914435
 20
28.553908067472669
 30
0.0
 11
8.1607161792074407
 21
28.991308086863896
 31
0.0
  0
LINE
  5
BE
100
AcDbEntity
  8
0
  6
CONTINUOUS
 62
               7
100
AcDbLine
 10
7.5993438723199915
 20
25.846797357058023
 30
0.0
 11
7.1937585807391713
 21
26.065497366753704
 31
0.0
  0
LINE
  5
BF
100
AcDbEntity
  8
0
  6
CONTINUOUS
 62
               7
100
AcDbLine
 10
7.5993438723199915
 20
25.846797357058023
 30
0.0
 11
7.1166335849199385
 21
25.628097347362342
 31
0.0
  0
LINE
  5
C0
100
AcDbEntity
  8
0
  6
CONTINUOUS
 62
               7
100
AcDbLine
 10
4.5840594790430913
 20
26.37847282702883
 30
0.0
 11
4.9676470488487325
 21
28.553908067472669
 31
0.0
  0
LINE
  5
C1
100
AcDbEntity
  8
0
  6
CONTINUOUS
 62
               7
100
AcDbLine
 10
4.1533044407464104
 20
26.454426465596143
 30
0.0
 11
4.6006246925775258
 21
28.991308086863896
 31
0.0
  0
LINE
  5
C2
100
AcDbEntity
  8
0
  6
CONTINUOUS
 62
               7
100
AcDbLine
 10
4.9676470488487325
 20
28.553908067472669
 30
0.0
 11
4.6006246925775258
 21
28.991308086863896
 31
0.0
  0
LINE
  5
C3
100
AcDbEntity
  8
0
  6
CONTINUOUS
 62
               7
100
AcDbLine
 10
4.5288727185965314
 20
26.065497366753704
 30
0.0
 11
4.5840594790430913
 21
26.37847282702883
 31
0.0
  0
LINE
  5
C4
100
AcDbEntity
  8
0
  6
CONTINUOUS
 62
               7
100
AcDbLine
 10
4.5288727185965314
 20
26.065497366753704
 30
0.0
 11
4.046162431196521
 21
25.846797357058023
 31
0.0
  0
LINE
  5
C5
100
AcDbEntity
  8
0
  6
CONTINUOUS
 62
               7
100
AcDbLine
 10
4.451747722777327
 20
25.628097347362342
 30
0.0
 11
4.046162431196521
 21
25.846797357058023
 31
0.0
  0
LINE
  5
C6
100
AcDbEntity
  8
0
  6
CONTINUOUS
 62
               7
100
AcDbLine
 10
4.0213968420985253
 20
23.18745772716127
 30
0.0
 11
6.6862827042412363
 21
23.18745772716127
 31
0.0
  0
LINE
  5
C7
100
AcDbEntity
  8
0
  6
CONTINUOUS
 62
               7
100
AcDbLine
 10
7.0533050959524957
 20
22.750057707769979
 30
0.0
 11
3.5001244941889809
 21
22.750057707769979
 31
0.0
  0
LINE
  5
C8
100
AcDbEntity
  8
0
  6
CONTINUOUS
 62
               7
100
AcDbLine
 10
3.5001244941889809
 20
22.750057707769979
 30
0.0
 11
4.0213968420985253
 21
23.18745772716127
 31
0.0
  0
LINE
  5
C9
100
AcDbEntity
  8
0
  6
CONTINUOUS
 62
               7
100
AcDbLine
 10
7.0533050959524957
 20
22.750057707769979
 30
0.0
 11
6.6862827042412363
 21
23.18745772716127
 31
0.0
  0
ENDBLK
  5
CA
100
AcDbEntity
  8
0
100
AcDbBlockEnd
  0
BLOCK
  5
CB
100
AcDbEntity
  8
0
100
AcDbBlockBegin
  2
PSU-2
 70
               0
 10
0.0
 20
0.0
 30
0.0
  3
PSU-2
  1

  0
LINE
  5
CC
100
AcDbEntity
  8
0
  6
CONTINUOUS
 62
               7
100
AcDbLine
 10
-18.999999999999993
 20
-2.6500000000000057
 30
0.0
 11
-30.999999999999879
 21
-2.4405392208613677
 31
0.0
  0
LINE
  5
CD
100
AcDbEntity
  8
0
  6
CONTINUOUS
 62
               7
100
AcDbLine
 10
-18.999999999999993
 20
37.349999999999994
 30
0.0
 11
-30.999999999999879
 21
37.140539220861385
 31
0.0
  0
ARC
  5
CE
100
AcDbEntity
  8
0
  6
CONTINUOUS
 62
               7
100
AcDbCircle
 10
-21.499999999999993
 20
5.0500000000000114
 30
0.0
 40
0.5
100
AcDbArc
 50
180.0
 51
270.0
  0
ARC
  5
CF
100
AcDbEntity
  8
0
  6
CONTINUOUS
 62
               7
100
AcDbCircle
 10
-21.499999999999993
 20
5.0500000000000114
 30
0.0
 40
0.5
100
AcDbArc
 50
90.0
 51
180.0
  0
ARC
  5
D0
100
AcDbEntity
  8
0
  6
CONTINUOUS
 62
               7
100
AcDbCircle
 10
-21.499999999999993
 20
10.450000000000017
 30
0.0
 40
0.5
100
AcDbArc
 50
180.0
 51
270.0
  0
ARC
  5
D1
100
AcDbEntity
  8
0
  6
CONTINUOUS
 62
               7
100
AcDbCircle
 10
-21.499999999999993
 20
10.450000000000017
 30
0.0
 40
0.5
100
AcDbArc
 50
90.0
 51
180.0
  0
ARC
  5
D2
100
AcDbEntity
  8
0
  6
CONTINUOUS
 62
               7
100
AcDbCircle
 10
-21.499999999999993
 20
24.25
 30
0.0
 40
0.5
100
AcDbArc
 50
180.0
 51
270.0
  0
ARC
  5
D3
100
AcDbEntity
  8
0
  6
CONTINUOUS
 62
               7
100
AcDbCircle
 10
-21.499999999999993
 20
24.25
 30
0.0
 40
0.5
100
AcDbArc
 50
90.0
 51
180.0
  0
ARC
  5
D4
100
AcDbEntity
  8
0
  6
CONTINUOUS
 62
               7
100
AcDbCircle
 10
-21.499999999999993
 20
29.650000000000006
 30
0.0
 40
0.5
100
AcDbArc
 50
90.0
 51
180.0
  0
ARC
  5
D5
100
AcDbEntity
  8
0
  6
CONTINUOUS
 62
               7
100
AcDbCircle
 10
-21.499999999999993
 20
29.650000000000006
 30
0.0
 40
0.5
100
AcDbArc
 50
180.0
 51
270.0
  0
LINE
  5
D6
100
AcDbEntity
  8
0
  6
CONTINUOUS
 62
               7
100
AcDbLine
 10
-19.999999999999993
 20
28.150000000000006
 30
0.0
 11
-21.999999999999993
 21
28.150000000000006
 31
0.0
  0
LINE
  5
D7
100
AcDbEntity
  8
0
  6
CONTINUOUS
 62
               7
100
AcDbLine
 10
-19.999999999999993
 20
25.75
 30
0.0
 11
-21.999999999999993
 21
25.75
 31
0.0
  0
LINE
  5
D8
100
AcDbEntity
  8
0
  6
CONTINUOUS
 62
               7
100
AcDbLine
 10
-18.999999999999993
 20
29.150000000000006
 30
0.0
 11
-21.499999999999993
 21
29.150000000000006
 31
0.0
  0
LINE
  5
D9
100
AcDbEntity
  8
0
  6
CONTINUOUS
 62
               7
100
AcDbLine
 10
-18.999999999999993
 20
24.75
 30
0.0
 11
-21.499999999999993
 21
24.75
 31
0.0
  0
LINE
  5
DA
100
AcDbEntity
  8
0
  6
CONTINUOUS
 62
               7
100
AcDbLine
 10
-18.999999999999993
 20
30.150000000000006
 30
0.0
 11
-21.499999999999993
 21
30.150000000000006
 31
0.0
  0
LINE
  5
DB
100
AcDbEntity
  8
0
  6
CONTINUOUS
 62
               7
100
AcDbLine
 10
-18.999999999999993
 20
23.75
 30
0.0
 11
-21.499999999999993
 21
23.75
 31
0.0
  0
LINE
  5
DC
100
AcDbEntity
  8
0
  6
CONTINUOUS
 62
               7
100
AcDbLine
 10
-19.999999999999993
 20
8.9500000000000171
 30
0.0
 11
-21.999999999999993
 21
8.9500000000000171
 31
0.0
  0
LINE
  5
DD
100
AcDbEntity
  8
0
  6
CONTINUOUS
 62
               7
100
AcDbLine
 10
-19.999999999999993
 20
6.5500000000000114
 30
0.0
 11
-21.999999999999993
 21
6.5500000000000114
 31
0.0
  0
LINE
  5
DE
100
AcDbEntity
  8
0
  6
CONTINUOUS
 62
               7
100
AcDbLine
 10
-18.999999999999993
 20
9.9500000000000171
 30
0.0
 11
-21.499999999999993
 21
9.9500000000000171
 31
0.0
  0
LINE
  5
DF
100
AcDbEntity
  8
0
  6
CONTINUOUS
 62
               7
100
AcDbLine
 10
-18.999999999999993
 20
5.5500000000000114
 30
0.0
 11
-21.499999999999993
 21
5.5500000000000114
 31
0.0
  0
LINE
  5
E0
100
AcDbEntity
  8
0
  6
CONTINUOUS
 62
               7
100
AcDbLine
 10
-18.999999999999993
 20
10.950000000000017
 30
0.0
 11
-21.499999999999993
 21
10.950000000000017
 31
0.0
  0
LINE
  5
E1
100
AcDbEntity
  8
0
  6
CONTINUOUS
 62
               7
100
AcDbLine
 10
-18.999999999999993
 20
4.5500000000000114
 30
0.0
 11
-21.499999999999993
 21
4.5500000000000114
 31
0.0
  0
LINE
  5
E2
100
AcDbEntity
  8
0
  6
CONTINUOUS
 62
               7
100
AcDbLine
 10
-31.999999999999993
 20
-1.440539220861254
 30
0.0
 11
-30.999999999999993
 21
-2.440539220861254
 31
0.0
  0
LINE
  5
E3
100
AcDbEntity
  8
0
  6
CONTINUOUS
 62
               7
100
AcDbLine
 10
-31.999999999999993
 20
36.140539220861385
 30
0.0
 11
-30.999999999999879
 21
37.140539220861385
 31
0.0
  0
LINE
  5
E4
100
AcDbEntity
  8
0
  6
CONTINUOUS
 62
               7
100
AcDbLine
 10
-31.999999999999993
 20
-1.440539220861254
 30
0.0
 11
-31.999999999999993
 21
36.140539220861399
 31
0.0
  0
LINE
  5
E5
100
AcDbEntity
  8
0
  6
CONTINUOUS
 62
               7
100
AcDbLine
 10
-30.999999999999879
 20
37.140539220861385
 30
0.0
 11
-30.999999999999879
 21
-2.4405392208613748
 31
0.0
  0
LINE
  5
E6
100
AcDbEntity
  8
0
  6
CONTINUOUS
 62
               7
100
AcDbLine
 10
-20.499999999999993
 20
8.7499999999999858
 30
0.0
 11
-20.499999999999993
 21
6.7499999999999858
 31
0.0
  0
LINE
  5
E7
100
AcDbEntity
  8
0
  6
CONTINUOUS
 62
               7
100
AcDbLine
 10
-20.499999999999993
 20
27.950000000000003
 30
0.0
 11
-20.499999999999993
 21
25.950000000000003
 31
0.0
  0
LINE
  5
E8
100
AcDbEntity
  8
0
  6
CONTINUOUS
 62
               7
100
AcDbLine
 10
-5.4000000000000838
 20
37.11261111697624
 30
0.0
 11
-5.4000000000000838
 21
2.3499999999999943
 31
0.0
  0
LINE
  5
E9
100
AcDbEntity
  8
0
  6
CONTINUOUS
 62
               7
100
AcDbLine
 10
0.0
 20
2.6499999999999915
 30
0.0
 11
-4.3999999999999702
 21
2.6499999999999915
 31
0.0
  0
LINE
  5
EA
100
AcDbEntity
  8
0
  6
CONTINUOUS
 62
               7
100
AcDbLine
 10
0.0
 20
2.3499999999999943
 30
0.0
 11
-5.4000000000000838
 21
2.3499999999999943
 31
0.0
  0
LINE
  5
EB
100
AcDbEntity
  8
0
  6
CONTINUOUS
 62
               7
100
AcDbLine
 10
0.0
 20
-2.3166082598710176
 30
0.0
 11
0.0
 21
2.6499999999999915
 31
0.0
  0
LINE
  5
EC
100
AcDbEntity
  8
0
  6
CONTINUOUS
 62
               7
100
AcDbLine
 10
-18.999999999999993
 20
-2.6500000000000199
 30
0.0
 11
-18.999999999999993
 21
37.349999999999994
 31
0.0
  0
LINE
  5
ED
100
AcDbEntity
  8
0
  6
CONTINUOUS
 62
               7
100
AcDbLine
 10
-19.999999999999993
 20
8.9500000000000171
 30
0.0
 11
-19.999999999999993
 21
6.5500000000000114
 31
0.0
  0
LINE
  5
EE
100
AcDbEntity
  8
0
  6
CONTINUOUS
 62
               7
100
AcDbLine
 10
-19.999999999999993
 20
28.150000000000006
 30
0.0
 11
-19.999999999999993
 21
25.75
 31
0.0
  0
LINE
  5
EF
100
AcDbEntity
  8
0
  6
CONTINUOUS
 62
               7
100
AcDbLine
 10
-21.999999999999993
 20
27.950000000000003
 30
0.0
 11
-19.999999999999993
 21
27.950000000000003
 31
0.0
  0
LINE
  5
F0
100
AcDbEntity
  8
0
  6
CONTINUOUS
 62
               7
100
AcDbLine
 10
-21.999999999999993
 20
25.950000000000003
 30
0.0
 11
-19.999999999999993
 21
25.950000000000003
 31
0.0
  0
LINE
  5
F1
100
AcDbEntity
  8
0
  6
CONTINUOUS
 62
               7
100
AcDbLine
 10
-21.999999999999993
 20
8.7499999999999858
 30
0.0
 11
-19.999999999999993
 21
8.7499999999999858
 31
0.0
  0
LINE
  5
F2
100
AcDbEntity
  8
0
  6
CONTINUOUS
 62
               7
100
AcDbLine
 10
-21.999999999999993
 20
6.7499999999999858
 30
0.0
 11
-19.999999999999993
 21
6.7499999999999858
 31
0.0
  0
LINE
  5
F3
100
AcDbEntity
  8
0
  6
CONTINUOUS
 62
               7
100
AcDbLine
 10
-4.3999999999999986
 20
36.11261111697624
 30
0.0
 11
-5.4000000000000838
 21
37.11261111697624
 31
0.0
  0
LINE
  5
F4
100
AcDbEntity
  8
0
  6
CONTINUOUS
 62
               7
100
AcDbLine
 10
-4.3999999999999986
 20
2.3499999999999943
 30
0.0
 11
-4.3999999999999986
 21
36.11261111697624
 31
0.0
  0
LINE
  5
F5
100
AcDbEntity
  8
0
  6
CONTINUOUS
 62
               7
100
AcDbLine
 10
-21.999999999999993
 20
28.150000000000006
 30
0.0
 11
-21.999999999999993
 21
25.75
 31
0.0
  0
LINE
  5
F6
100
AcDbEntity
  8
0
  6
CONTINUOUS
 62
               7
100
AcDbLine
 10
-21.999999999999993
 20
8.9500000000000171
 30
0.0
 11
-21.999999999999993
 21
6.5500000000000114
 31
0.0
  0
LINE
  5
F7
100
AcDbEntity
  8
0
  6
CONTINUOUS
 62
               7
100
AcDbLine
 10
-1.0
 20
-2.3340633247992315
 30
0.0
 11
-1.0
 21
2.3499999999999943
 31
0.0
  0
LINE
  5
F8
100
AcDbEntity
  8
0
  6
CONTINUOUS
 62
               7
100
AcDbLine
 10
-18.999999999999993
 20
37.349999999999994
 30
0.0
 11
-5.4000000000000838
 21
37.11261111697624
 31
0.0
  0
LINE
  5
F9
100
AcDbEntity
  8
0
  6
CONTINUOUS
 62
               7
100
AcDbLine
 10
-18.999999999999993
 20
-2.6500000000000199
 30
0.0
 11
-0.0000000000000071
 21
-2.3183537663638418
 31
0.0
  0
LINE
  5
FA
100
AcDbEntity
  8
0
  6
CONTINUOUS
 62
               7
100
AcDbLine
 10
-2.7999999999999474
 20
6.613056717831391
 30
0.0
 11
-2.7999999999999474
 21
3.1499999999999559
 31
0.0
  0
LINE
  5
FB
100
AcDbEntity
  8
0
  6
CONTINUOUS
 62
               7
100
AcDbLine
 10
-0.7999999999999474
 20
6.613056717831391
 30
0.0
 11
-2.7999999999999474
 21
6.613056717831391
 31
0.0
  0
LINE
  5
FC
100
AcDbEntity
  8
0
  6
CONTINUOUS
 62
               7
100
AcDbLine
 10
-0.7999999999999474
 20
9.5499999999999616
 30
0.0
 11
-0.7999999999999474
 21
6.613056717831391
 31
0.0
  0
LINE
  5
FD
100
AcDbEntity
  8
0
  6
CONTINUOUS
 62
               7
100
AcDbLine
 10
-2.7999999999999474
 20
3.1499999999999559
 30
0.0
 11
-4.3999999999999702
 21
3.1499999999999559
 31
0.0
  0
LINE
  5
FE
100
AcDbEntity
  8
0
  6
CONTINUOUS
 62
               7
100
AcDbLine
 10
-0.7999999999999474
 20
9.5499999999999616
 30
0.0
 11
-4.3999999999999702
 21
9.5499999999999616
 31
0.0
  0
LINE
  5
FF
100
AcDbEntity
  8
0
  6
CONTINUOUS
 62
               7
100
AcDbLine
 10
3.4000000000000412
 20
15.149999999999963
 30
0.0
 11
3.4000000000000412
 21
16.349999999999966
 31
0.0
  0
LINE
  5
100
100
AcDbEntity
  8
0
  6
CONTINUOUS
 62
               7
100
AcDbLine
 10
2.4000000000000412
 20
27.549999999999955
 30
0.0
 11
2.4000000000000412
 21
29.249999999999957
 31
0.0
  0
LINE
  5
101
100
AcDbEntity
  8
0
  6
CONTINUOUS
 62
               7
100
AcDbLine
 10
-1.5410736563368843
 20
17.549999999999955
 30
0.0
 11
-1.5410736563368843
 21
27.549999999999955
 31
0.0
  0
LINE
  5
102
100
AcDbEntity
  8
0
  6
CONTINUOUS
 62
               7
100
AcDbLine
 10
2.4000000000000412
 20
16.349999999999966
 30
0.0
 11
3.4000000000000412
 21
16.349999999999966
 31
0.0
  0
LINE
  5
103
100
AcDbEntity
  8
0
  6
CONTINUOUS
 62
               7
100
AcDbLine
 10
2.4000000000000412
 20
29.249999999999957
 30
0.0
 11
3.4000000000000412
 21
29.249999999999957
 31
0.0
  0
LINE
  5
104
100
AcDbEntity
  8
0
  6
CONTINUOUS
 62
               7
100
AcDbLine
 10
-1.5410736563368843
 20
27.549999999999955
 30
0.0
 11
2.4000000000000412
 21
27.549999999999955
 31
0.0
  0
LINE
  5
105
100
AcDbEntity
  8
0
  6
CONTINUOUS
 62
               7
100
AcDbLine
 10
-1.5410736563368843
 20
17.549999999999955
 30
0.0
 11
2.4000000000000412
 21
17.549999999999955
 31
0.0
  0
LINE
  5
106
100
AcDbEntity
  8
0
  6
CONTINUOUS
 62
               7
100
AcDbLine
 10
3.4000000000000412
 20
29.249999999999957
 30
0.0
 11
3.4000000000000412
 21
30.94999999999996
 31
0.0
  0
LINE
  5
107
100
AcDbEntity
  8
0
  6
CONTINUOUS
 62
               7
100
AcDbLine
 10
2.4000000000000412
 20
16.349999999999966
 30
0.0
 11
2.4000000000000412
 21
17.549999999999955
 31
0.0
  0
LINE
  5
108
100
AcDbEntity
  8
0
  6
CONTINUOUS
 62
               7
100
AcDbLine
 10
3.4000000000000412
 20
30.94999999999996
 30
0.0
 11
-4.3999999999999702
 21
30.94999999999996
 31
0.0
  0
LINE
  5
109
100
AcDbEntity
  8
0
  6
CONTINUOUS
 62
               7
100
AcDbLine
 10
3.4000000000000412
 20
15.149999999999963
 30
0.0
 11
-4.3999999999999702
 21
15.149999999999963
 31
0.0
  0
LINE
  5
10A
100
AcDbEntity
  8
0
  6
CONTINUOUS
 62
               2
100
AcDbLine
 10
-2.7668023050189774
 20
0.0
 30
0.0
 11
1.7739415359705433
 21
0.0
 31
0.0
  0
ENDBLK
  5
10B
100
AcDbEntity
  8
0
100
AcDbBlockEnd
  0
BLOCK
  5
10C
100
AcDbEntity
  8
0
100
AcDbBlockBegin
  2
PSU-3
 70
               0
 10
0.0
 20
0.0
 30
0.0
  3
PSU-3
  1

  0
LINE
  5
10D
100
AcDbEntity
  8
0
  6
CONTINUOUS
 62
               2
100
AcDbLine
 10
0.0
 20
2.3000594127986886
 30
0.0
 11
0.0
 21
-1.6500000000000021
 31
0.0
  0
LINE
  5
10E
100
AcDbEntity
  8
0
  6
CONTINUOUS
 62
               2
100
AcDbLine
 10
30.0
 20
2.3000594127986886
 30
0.0
 11
30.0
 21
-1.6500000000000021
 31
0.0
  0
ARC
  5
10F
100
AcDbEntity
  8
0
  6
CONTINUOUS
 62
               7
100
AcDbCircle
 10
33.0
 20
-21.400000000000002
 30
0.0
 40
0.5
100
AcDbArc
 50
270.0
 51
0.0
  0
ARC
  5
110
100
AcDbEntity
  8
0
  6
CONTINUOUS
 62
               7
100
AcDbCircle
 10
33.0
 20
-6.4000000000000163
 30
0.0
 40
0.5
100
AcDbArc
 50
0.0
 51
90.0
  0
ARC
  5
111
100
AcDbEntity
  8
0
  6
CONTINUOUS
 62
               7
100
AcDbCircle
 10
-3.0
 20
-6.3999999999999879
 30
0.0
 40
0.5
100
AcDbArc
 50
90.0
 51
180.0
  0
ARC
  5
112
100
AcDbEntity
  8
0
  6
CONTINUOUS
 62
               7
100
AcDbCircle
 10
-3.0000000000000142
 20
-21.399999999999988
 30
0.0
 40
0.5
100
AcDbArc
 50
180.0
 51
270.0
  0
LINE
  5
113
100
AcDbEntity
  8
0
  6
CONTINUOUS
 62
               7
100
AcDbLine
 10
33.5
 20
-21.400000000000002
 30
0.0
 11
33.5
 21
-6.4000000000000163
 31
0.0
  0
LINE
  5
114
100
AcDbEntity
  8
0
  6
CONTINUOUS
 62
               7
100
AcDbLine
 10
-3.5000000000000142
 20
-21.399999999999988
 30
0.0
 11
-3.5
 21
-6.3999999999999879
 31
0.0
  0
LINE
  5
115
100
AcDbEntity
  8
0
  6
CONTINUOUS
 62
               7
100
AcDbLine
 10
33.0
 20
-5.9000000000000163
 30
0.0
 11
-3.0
 21
-5.8999999999999879
 31
0.0
  0
LINE
  5
116
100
AcDbEntity
  8
0
  6
CONTINUOUS
 62
               7
100
AcDbLine
 10
33.0
 20
-21.900000000000002
 30
0.0
 11
-3.0000000000000142
 21
-21.899999999999988
 31
0.0
  0
LINE
  5
117
100
AcDbEntity
  8
0
  6
CONTINUOUS
 62
               7
100
AcDbLine
 10
33.5
 20
-19.000000000000025
 30
0.0
 11
35.0
 21
-19.000000000000025
 31
0.0
  0
LINE
  5
118
100
AcDbEntity
  8
0
  6
CONTINUOUS
 62
               7
100
AcDbLine
 10
-5.0
 20
-19.000000000000011
 30
0.0
 11
-3.5
 21
-19.000000000000011
 31
0.0
  0
LINE
  5
119
100
AcDbEntity
  8
0
  6
CONTINUOUS
 62
               7
100
AcDbLine
 10
-5.0000000000000142
 20
-31.000000000000004
 30
0.0
 11
-5.0
 21
-19.000000000000011
 31
0.0
  0
LINE
  5
11A
100
AcDbEntity
  8
0
  6
CONTINUOUS
 62
               7
100
AcDbLine
 10
34.999999999999986
 20
-31.000000000000025
 30
0.0
 11
35.0
 21
-19.000000000000025
 31
0.0
  0
LINE
  5
11B
100
AcDbEntity
  8
0
  6
CONTINUOUS
 62
               7
100
AcDbLine
 10
34.999999999999986
 20
-31.000000000000025
 30
0.0
 11
33.999999999999986
 21
-32.000000000000028
 31
0.0
  0
LINE
  5
11C
100
AcDbEntity
  8
0
  6
CONTINUOUS
 62
               7
100
AcDbLine
 10
-5.0
 20
-0.9999999999999965
 30
0.0
 11
-4.0000000000005116
 21
0.0
 31
0.0
  0
LINE
  5
11D
100
AcDbEntity
  8
0
  6
CONTINUOUS
 62
               7
100
AcDbLine
 10
35.0
 20
-1.0000000000000107
 30
0.0
 11
34.0
 21
-0.0000000000000142
 31
0.0
  0
LINE
  5
11E
100
AcDbEntity
  8
0
  6
CONTINUOUS
 62
               7
100
AcDbLine
 10
1.5
 20
0.0
 30
0.0
 11
-4.0000000000005116
 21
0.0
 31
0.0
  0
LINE
  5
11F
100
AcDbEntity
  8
0
  6
CONTINUOUS
 62
               7
100
AcDbLine
 10
35.0
 20
-5.4000000000000163
 30
0.0
 11
-5.0
 21
-5.3999999999999879
 31
0.0
  0
LINE
  5
120
100
AcDbEntity
  8
0
  6
CONTINUOUS
 62
               7
100
AcDbLine
 10
35.0
 20
-19.000000000000025
 30
0.0
 11
35.0
 21
-1.0000000000000107
 31
0.0
  0
LINE
  5
121
100
AcDbEntity
  8
0
  6
CONTINUOUS
 62
               7
100
AcDbLine
 10
-5.0
 20
-19.000000000000011
 30
0.0
 11
-5.0
 21
-0.9999999999999965
 31
0.0
  0
LINE
  5
122
100
AcDbEntity
  8
0
  6
CONTINUOUS
 62
               7
100
AcDbLine
 10
34.0
 20
-0.0000000000000142
 30
0.0
 11
28.5
 21
-0.0000000000000142
 31
0.0
  0
LINE
  5
123
100
AcDbEntity
  8
0
  6
CONTINUOUS
 62
               7
100
AcDbLine
 10
34.0
 20
-4.4000000000000163
 30
0.0
 11
-4.0
 21
-4.3999999999999879
 31
0.0
  0
LINE
  5
124
100
AcDbEntity
  8
0
  6
CONTINUOUS
 62
               7
100
AcDbLine
 10
35.0
 20
-5.4000000000000163
 30
0.0
 11
34.0
 21
-4.4000000000000163
 31
0.0
  0
LINE
  5
125
100
AcDbEntity
  8
0
  6
CONTINUOUS
 62
               7
100
AcDbLine
 10
-5.0
 20
-5.3999999999999879
 30
0.0
 11
-4.0
 21
-4.3999999999999879
 31
0.0
  0
LINE
  5
126
100
AcDbEntity
  8
0
  6
CONTINUOUS
 62
               7
100
AcDbLine
 10
32.0
 20
-0.0000000000000142
 30
0.0
 11
32.0
 21
-4.4000000000000163
 31
0.0
  0
LINE
  5
127
100
AcDbEntity
  8
0
  6
CONTINUOUS
 62
               7
100
AcDbLine
 10
-2.0
 20
0.0
 30
0.0
 11
-2.0
 21
-4.3999999999999879
 31
0.0
  0
LINE
  5
128
100
AcDbEntity
  8
0
  6
CONTINUOUS
 62
               7
100
AcDbLine
 10
-4.0000000000000142
 20
-32.0
 30
0.0
 11
-5.0000000000000142
 21
-31.000000000000004
 31
0.0
  0
LINE
  5
129
100
AcDbEntity
  8
0
  6
CONTINUOUS
 62
               7
100
AcDbLine
 10
34.999999999999986
 20
-31.000000000000025
 30
0.0
 11
-5.0000000000000142
 21
-31.000000000000004
 31
0.0
  0
LINE
  5
12A
100
AcDbEntity
  8
0
  6
CONTINUOUS
 62
               7
100
AcDbLine
 10
1.5
 20
-4.4000000000000021
 30
0.0
 11
1.5
 21
3.3999999999999915
 31
0.0
  0
LINE
  5
12B
100
AcDbEntity
  8
0
  6
CONTINUOUS
 62
               7
100
AcDbLine
 10
28.5
 20
-4.4000000000000163
 30
0.0
 11
28.5
 21
3.3999999999999915
 31
0.0
  0
LINE
  5
12C
100
AcDbEntity
  8
0
  6
CONTINUOUS
 62
               7
100
AcDbLine
 10
28.5
 20
3.3999999999999915
 30
0.0
 11
1.5
 21
3.3999999999999915
 31
0.0
  0
LINE
  5
12D
100
AcDbEntity
  8
0
  6
CONTINUOUS
 62
               7
100
AcDbLine
 10
30.0
 20
-4.4000000000000163
 30
0.0
 11
30.0
 21
-2.9999999999999964
 31
0.0
  0
LINE
  5
12E
100
AcDbEntity
  8
0
  6
CONTINUOUS
 62
               7
100
AcDbLine
 10
0.0
 20
-4.4000000000000021
 30
0.0
 11
0.0
 21
-2.9999999999999964
 31
0.0
  0
LINE
  5
12F
100
AcDbEntity
  8
0
  6
CONTINUOUS
 62
               7
100
AcDbLine
 10
0.0
 20
-2.9999999999999964
 30
0.0
 11
1.5
 21
-2.9999999999999964
 31
0.0
  0
LINE
  5
130
100
AcDbEntity
  8
0
  6
CONTINUOUS
 62
               7
100
AcDbLine
 10
30.0
 20
-2.9999999999999964
 30
0.0
 11
28.5
 21
-2.9999999999999964
 31
0.0
  0
LINE
  5
131
100
AcDbEntity
  8
0
  6
CONTINUOUS
 62
               7
100
AcDbLine
 10
-4.0000000000000142
 20
-32.0
 30
0.0
 11
33.999999999999986
 21
-32.000000000000028
 31
0.0
  0
ENDBLK
  5
132
100
AcDbEntity
  8
0
100
AcDbBlockEnd
  0
BLOCK
  5
133
100
AcDbEntity
  8
0
100
AcDbBlockBegin
  2
PSU-4
 70
               0
 10
0.0
 20
0.0
 30
0.0
  3
PSU-4
  1

  0
LINE
  5
134
100
AcDbEntity
  8
0
  6
CONTINUOUS
 62
               7
100
AcDbLine
 10
-28.299999999999997
 20
15.050000000000011
 30
0.0
 11
-1.7000000000000028
 21
15.050000000000011
 31
0.0
  0
LINE
  5
135
100
AcDbEntity
  8
0
  6
CONTINUOUS
 62
               7
100
AcDbLine
 10
-28.299999999999997
 20
30.950000000000006
 30
0.0
 11
-28.299999999999997
 21
15.050000000000011
 31
0.0
  0
LINE
  5
136
100
AcDbEntity
  8
0
  6
CONTINUOUS
 62
               7
100
AcDbLine
 10
-28.299999999999997
 20
30.950000000000006
 30
0.0
 11
-1.7000000000000028
 21
30.950000000000006
 31
0.0
  0
LINE
  5
137
100
AcDbEntity
  8
0
  6
CONTINUOUS
 62
               7
100
AcDbLine
 10
-1.7000000000000028
 20
30.950000000000006
 30
0.0
 11
-1.7000000000000028
 21
15.050000000000011
 31
0.0
  0
LINE
  5
138
100
AcDbEntity
  8
0
  6
CONTINUOUS
 62
               7
100
AcDbLine
 10
-28.5
 20
14.850000000000009
 30
0.0
 11
-1.5
 21
14.850000000000009
 31
0.0
  0
LINE
  5
139
100
AcDbEntity
  8
0
  6
CONTINUOUS
 62
               7
100
AcDbLine
 10
-28.5
 20
31.150000000000009
 30
0.0
 11
-1.5
 21
31.150000000000009
 31
0.0
  0
LINE
  5
13A
100
AcDbEntity
  8
0
  6
CONTINUOUS
 62
               2
100
AcDbLine
 10
0.0
 20
-3.0
 30
0.0
 11
0.0
 21
3.0
 31
0.0
  0
CIRCLE
  5
13B
100
AcDbEntity
  8
0
  6
CONTINUOUS
 62
               7
100
AcDbCircle
 10
0.0
 20
0.0
 30
0.0
 40
1.1000000000000001
  0
CIRCLE
  5
13C
100
AcDbEntity
  8
0
  6
CONTINUOUS
 62
               2
100
AcDbCircle
 10
0.0
 20
0.0
 30
0.0
 40
1.3
  0
CIRCLE
  5
13D
100
AcDbEntity
  8
0
  6
CONTINUOUS
 62
               7
100
AcDbCircle
 10
-30.0
 20
0.0
 30
0.0
 40
1.1000000000000001
  0
CIRCLE
  5
13E
100
AcDbEntity
  8
0
  6
CONTINUOUS
 62
               2
100
AcDbCircle
 10
-30.0
 20
0.0
 30
0.0
 40
1.3
  0
LINE
  5
13F
100
AcDbEntity
  8
0
  6
CONTINUOUS
 62
               7
100
AcDbLine
 10
-3.8500000000000227
 20
6.75
 30
0.0
 11
-2.8500000000000227
 21
6.75
 31
0.0
  0
LINE
  5
140
100
AcDbEntity
  8
0
  6
CONTINUOUS
 62
               7
100
AcDbLine
 10
-2.8500000000000227
 20
6.75
 30
0.0
 11
-2.8500000000000227
 21
5.75
 31
0.0
  0
LINE
  5
141
100
AcDbEntity
  8
0
  6
CONTINUOUS
 62
               7
100
AcDbLine
 10
-2.8500000000000227
 20
5.75
 30
0.0
 11
-3.8500000000000227
 21
5.75
 31
0.0
  0
LINE
  5
142
100
AcDbEntity
  8
0
  6
CONTINUOUS
 62
               7
100
AcDbLine
 10
-3.8500000000000227
 20
5.75
 30
0.0
 11
-3.8500000000000227
 21
6.75
 31
0.0
  0
LINE
  5
143
100
AcDbEntity
  8
0
  6
CONTINUOUS
 62
               7
100
AcDbLine
 10
-3.0500000000000114
 20
6.5499999999999972
 30
0.0
 11
-3.0500000000000114
 21
5.9500000000000028
 31
0.0
  0
LINE
  5
144
100
AcDbEntity
  8
0
  6
CONTINUOUS
 62
               7
100
AcDbLine
 10
-3.6499999999999773
 20
6.5499999999999972
 30
0.0
 11
-3.0500000000000114
 21
6.5499999999999972
 31
0.0
  0
LINE
  5
145
100
AcDbEntity
  8
0
  6
CONTINUOUS
 62
               7
100
AcDbLine
 10
-3.0500000000000114
 20
5.9500000000000028
 30
0.0
 11
-3.6499999999999773
 21
5.9500000000000028
 31
0.0
  0
LINE
  5
146
100
AcDbEntity
  8
0
  6
CONTINUOUS
 62
               7
100
AcDbLine
 10
-3.6499999999999773
 20
5.9500000000000028
 30
0.0
 11
-3.6499999999999773
 21
6.5499999999999972
 31
0.0
  0
LINE
  5
147
100
AcDbEntity
  8
0
  6
CONTINUOUS
 62
               7
100
AcDbLine
 10
-6.1800000000000068
 20
6.75
 30
0.0
 11
-5.1800000000000068
 21
6.75
 31
0.0
  0
LINE
  5
148
100
AcDbEntity
  8
0
  6
CONTINUOUS
 62
               7
100
AcDbLine
 10
-5.1800000000000068
 20
6.75
 30
0.0
 11
-5.1800000000000068
 21
5.75
 31
0.0
  0
LINE
  5
149
100
AcDbEntity
  8
0
  6
CONTINUOUS
 62
               7
100
AcDbLine
 10
-5.1800000000000068
 20
5.75
 30
0.0
 11
-6.1800000000000068
 21
5.75
 31
0.0
  0
LINE
  5
14A
100
AcDbEntity
  8
0
  6
CONTINUOUS
 62
               7
100
AcDbLine
 10
-6.1800000000000068
 20
5.75
 30
0.0
 11
-6.1800000000000068
 21
6.75
 31
0.0
  0
LINE
  5
14B
100
AcDbEntity
  8
0
  6
CONTINUOUS
 62
               7
100
AcDbLine
 10
-5.3799999999999955
 20
6.5499999999999972
 30
0.0
 11
-5.3799999999999955
 21
5.9500000000000028
 31
0.0
  0
LINE
  5
14C
100
AcDbEntity
  8
0
  6
CONTINUOUS
 62
               7
100
AcDbLine
 10
-5.9800000000000182
 20
6.5499999999999972
 30
0.0
 11
-5.3799999999999955
 21
6.5499999999999972
 31
0.0
  0
LINE
  5
14D
100
AcDbEntity
  8
0
  6
CONTINUOUS
 62
               7
100
AcDbLine
 10
-5.3799999999999955
 20
5.9500000000000028
 30
0.0
 11
-5.9800000000000182
 21
5.9500000000000028
 31
0.0
  0
LINE
  5
14E
100
AcDbEntity
  8
0
  6
CONTINUOUS
 62
               7
100
AcDbLine
 10
-5.9800000000000182
 20
5.9500000000000028
 30
0.0
 11
-5.9800000000000182
 21
6.5499999999999972
 31
0.0
  0
LINE
  5
14F
100
AcDbEntity
  8
0
  6
CONTINUOUS
 62
               7
100
AcDbLine
 10
-8.5099999999999909
 20
6.75
 30
0.0
 11
-7.5099999999999909
 21
6.75
 31
0.0
  0
LINE
  5
150
100
AcDbEntity
  8
0
  6
CONTINUOUS
 62
               7
100
AcDbLine
 10
-7.5099999999999909
 20
6.75
 30
0.0
 11
-7.5099999999999909
 21
5.75
 31
0.0
  0
LINE
  5
151
100
AcDbEntity
  8
0
  6
CONTINUOUS
 62
               7
100
AcDbLine
 10
-7.5099999999999909
 20
5.75
 30
0.0
 11
-8.5099999999999909
 21
5.75
 31
0.0
  0
LINE
  5
152
100
AcDbEntity
  8
0
  6
CONTINUOUS
 62
               7
100
AcDbLine
 10
-8.5099999999999909
 20
5.75
 30
0.0
 11
-8.5099999999999909
 21
6.75
 31
0.0
  0
LINE
  5
153
100
AcDbEntity
  8
0
  6
CONTINUOUS
 62
               7
100
AcDbLine
 10
-7.7100000000000364
 20
6.5499999999999972
 30
0.0
 11
-7.7100000000000364
 21
5.9500000000000028
 31
0.0
  0
LINE
  5
154
100
AcDbEntity
  8
0
  6
CONTINUOUS
 62
               7
100
AcDbLine
 10
-8.3100000000000023
 20
6.5499999999999972
 30
0.0
 11
-7.7100000000000364
 21
6.5499999999999972
 31
0.0
  0
LINE
  5
155
100
AcDbEntity
  8
0
  6
CONTINUOUS
 62
               7
100
AcDbLine
 10
-7.7100000000000364
 20
5.9500000000000028
 30
0.0
 11
-8.3100000000000023
 21
5.9500000000000028
 31
0.0
  0
LINE
  5
156
100
AcDbEntity
  8
0
  6
CONTINUOUS
 62
               7
100
AcDbLine
 10
-8.3100000000000023
 20
5.9500000000000028
 30
0.0
 11
-8.3100000000000023
 21
6.5499999999999972
 31
0.0
  0
LINE
  5
157
100
AcDbEntity
  8
0
  6
CONTINUOUS
 62
               7
100
AcDbLine
 10
-10.840000000000032
 20
6.75
 30
0.0
 11
-9.8400000000000318
 21
6.75
 31
0.0
  0
LINE
  5
158
100
AcDbEntity
  8
0
  6
CONTINUOUS
 62
               7
100
AcDbLine
 10
-9.8400000000000318
 20
6.75
 30
0.0
 11
-9.8400000000000318
 21
5.75
 31
0.0
  0
LINE
  5
159
100
AcDbEntity
  8
0
  6
CONTINUOUS
 62
               7
100
AcDbLine
 10
-9.8400000000000318
 20
5.75
 30
0.0
 11
-10.840000000000032
 21
5.75
 31
0.0
  0
LINE
  5
15A
100
AcDbEntity
  8
0
  6
CONTINUOUS
 62
               7
100
AcDbLine
 10
-10.840000000000032
 20
5.75
 30
0.0
 11
-10.840000000000032
 21
6.75
 31
0.0
  0
LINE
  5
15B
100
AcDbEntity
  8
0
  6
CONTINUOUS
 62
               7
100
AcDbLine
 10
-10.04000000000002
 20
6.5499999999999972
 30
0.0
 11
-10.04000000000002
 21
5.9500000000000028
 31
0.0
  0
LINE
  5
15C
100
AcDbEntity
  8
0
  6
CONTINUOUS
 62
               7
100
AcDbLine
 10
-10.639999999999986
 20
6.5499999999999972
 30
0.0
 11
-10.04000000000002
 21
6.5499999999999972
 31
0.0
  0
LINE
  5
15D
100
AcDbEntity
  8
0
  6
CONTINUOUS
 62
               7
100
AcDbLine
 10
-10.04000000000002
 20
5.9500000000000028
 30
0.0
 11
-10.639999999999986
 21
5.9500000000000028
 31
0.0
  0
LINE
  5
15E
100
AcDbEntity
  8
0
  6
CONTINUOUS
 62
               7
100
AcDbLine
 10
-10.639999999999986
 20
5.9500000000000028
 30
0.0
 11
-10.639999999999986
 21
6.5499999999999972
 31
0.0
  0
LINE
  5
15F
100
AcDbEntity
  8
0
  6
CONTINUOUS
 62
               7
100
AcDbLine
 10
-13.170000000000016
 20
6.75
 30
0.0
 11
-12.170000000000016
 21
6.75
 31
0.0
  0
LINE
  5
160
100
AcDbEntity
  8
0
  6
CONTINUOUS
 62
               7
100
AcDbLine
 10
-12.170000000000016
 20
6.75
 30
0.0
 11
-12.170000000000016
 21
5.75
 31
0.0
  0
LINE
  5
161
100
AcDbEntity
  8
0
  6
CONTINUOUS
 62
               7
100
AcDbLine
 10
-12.170000000000016
 20
5.75
 30
0.0
 11
-13.170000000000016
 21
5.75
 31
0.0
  0
LINE
  5
162
100
AcDbEntity
  8
0
  6
CONTINUOUS
 62
               7
100
AcDbLine
 10
-13.170000000000016
 20
5.75
 30
0.0
 11
-13.170000000000016
 21
6.75
 31
0.0
  0
LINE
  5
163
100
AcDbEntity
  8
0
  6
CONTINUOUS
 62
               7
100
AcDbLine
 10
-12.370000000000005
 20
6.5499999999999972
 30
0.0
 11
-12.370000000000005
 21
5.9500000000000028
 31
0.0
  0
LINE
  5
164
100
AcDbEntity
  8
0
  6
CONTINUOUS
 62
               7
100
AcDbLine
 10
-12.970000000000027
 20
6.5499999999999972
 30
0.0
 11
-12.370000000000005
 21
6.5499999999999972
 31
0.0
  0
LINE
  5
165
100
AcDbEntity
  8
0
  6
CONTINUOUS
 62
               7
100
AcDbLine
 10
-12.370000000000005
 20
5.9500000000000028
 30
0.0
 11
-12.970000000000027
 21
5.9500000000000028
 31
0.0
  0
LINE
  5
166
100
AcDbEntity
  8
0
  6
CONTINUOUS
 62
               7
100
AcDbLine
 10
-12.970000000000027
 20
5.9500000000000028
 30
0.0
 11
-12.970000000000027
 21
6.5499999999999972
 31
0.0
  0
LINE
  5
167
100
AcDbEntity
  8
0
  6
CONTINUOUS
 62
               7
100
AcDbLine
 10
-15.5
 20
6.75
 30
0.0
 11
-14.5
 21
6.75
 31
0.0
  0
LINE
  5
168
100
AcDbEntity
  8
0
  6
CONTINUOUS
 62
               7
100
AcDbLine
 10
-14.5
 20
6.75
 30
0.0
 11
-14.5
 21
5.75
 31
0.0
  0
LINE
  5
169
100
AcDbEntity
  8
0
  6
CONTINUOUS
 62
               7
100
AcDbLine
 10
-14.5
 20
5.75
 30
0.0
 11
-15.5
 21
5.75
 31
0.0
  0
LINE
  5
16A
100
AcDbEntity
  8
0
  6
CONTINUOUS
 62
               7
100
AcDbLine
 10
-15.5
 20
5.75
 30
0.0
 11
-15.5
 21
6.75
 31
0.0
  0
LINE
  5
16B
100
AcDbEntity
  8
0
  6
CONTINUOUS
 62
               7
100
AcDbLine
 10
-14.699999999999989
 20
6.5499999999999972
 30
0.0
 11
-14.699999999999989
 21
5.9500000000000028
 31
0.0
  0
LINE
  5
16C
100
AcDbEntity
  8
0
  6
CONTINUOUS
 62
               7
100
AcDbLine
 10
-15.300000000000011
 20
6.5499999999999972
 30
0.0
 11
-14.699999999999989
 21
6.5499999999999972
 31
0.0
  0
LINE
  5
16D
100
AcDbEntity
  8
0
  6
CONTINUOUS
 62
               7
100
AcDbLine
 10
-14.699999999999989
 20
5.9500000000000028
 30
0.0
 11
-15.300000000000011
 21
5.9500000000000028
 31
0.0
  0
LINE
  5
16E
100
AcDbEntity
  8
0
  6
CONTINUOUS
 62
               7
100
AcDbLine
 10
-15.300000000000011
 20
5.9500000000000028
 30
0.0
 11
-15.300000000000011
 21
6.5499999999999972
 31
0.0
  0
LINE
  5
16F
100
AcDbEntity
  8
0
  6
CONTINUOUS
 62
               7
100
AcDbLine
 10
-17.829999999999984
 20
6.75
 30
0.0
 11
-16.829999999999984
 21
6.75
 31
0.0
  0
LINE
  5
170
100
AcDbEntity
  8
0
  6
CONTINUOUS
 62
               7
100
AcDbLine
 10
-16.829999999999984
 20
6.75
 30
0.0
 11
-16.829999999999984
 21
5.75
 31
0.0
  0
LINE
  5
171
100
AcDbEntity
  8
0
  6
CONTINUOUS
 62
               7
100
AcDbLine
 10
-16.829999999999984
 20
5.75
 30
0.0
 11
-17.829999999999984
 21
5.75
 31
0.0
  0
LINE
  5
172
100
AcDbEntity
  8
0
  6
CONTINUOUS
 62
               7
100
AcDbLine
 10
-17.829999999999984
 20
5.75
 30
0.0
 11
-17.829999999999984
 21
6.75
 31
0.0
  0
LINE
  5
173
100
AcDbEntity
  8
0
  6
CONTINUOUS
 62
               7
100
AcDbLine
 10
-17.029999999999973
 20
6.5499999999999972
 30
0.0
 11
-17.029999999999973
 21
5.9500000000000028
 31
0.0
  0
LINE
  5
174
100
AcDbEntity
  8
0
  6
CONTINUOUS
 62
               7
100
AcDbLine
 10
-17.629999999999995
 20
6.5499999999999972
 30
0.0
 11
-17.029999999999973
 21
6.5499999999999972
 31
0.0
  0
LINE
  5
175
100
AcDbEntity
  8
0
  6
CONTINUOUS
 62
               7
100
AcDbLine
 10
-17.029999999999973
 20
5.9500000000000028
 30
0.0
 11
-17.629999999999995
 21
5.9500000000000028
 31
0.0
  0
LINE
  5
176
100
AcDbEntity
  8
0
  6
CONTINUOUS
 62
               7
100
AcDbLine
 10
-17.629999999999995
 20
5.9500000000000028
 30
0.0
 11
-17.629999999999995
 21
6.5499999999999972
 31
0.0
  0
LINE
  5
177
100
AcDbEntity
  8
0
  6
CONTINUOUS
 62
               7
100
AcDbLine
 10
-20.159999999999968
 20
6.75
 30
0.0
 11
-19.159999999999968
 21
6.75
 31
0.0
  0
LINE
  5
178
100
AcDbEntity
  8
0
  6
CONTINUOUS
 62
               7
100
AcDbLine
 10
-19.159999999999968
 20
6.75
 30
0.0
 11
-19.159999999999968
 21
5.75
 31
0.0
  0
LINE
  5
179
100
AcDbEntity
  8
0
  6
CONTINUOUS
 62
               7
100
AcDbLine
 10
-19.159999999999968
 20
5.75
 30
0.0
 11
-20.159999999999968
 21
5.75
 31
0.0
  0
LINE
  5
17A
100
AcDbEntity
  8
0
  6
CONTINUOUS
 62
               7
100
AcDbLine
 10
-20.159999999999968
 20
5.75
 30
0.0
 11
-20.159999999999968
 21
6.75
 31
0.0
  0
LINE
  5
17B
100
AcDbEntity
  8
0
  6
CONTINUOUS
 62
               7
100
AcDbLine
 10
-19.360000000000014
 20
6.5499999999999972
 30
0.0
 11
-19.360000000000014
 21
5.9500000000000028
 31
0.0
  0
LINE
  5
17C
100
AcDbEntity
  8
0
  6
CONTINUOUS
 62
               7
100
AcDbLine
 10
-19.95999999999998
 20
6.5499999999999972
 30
0.0
 11
-19.360000000000014
 21
6.5499999999999972
 31
0.0
  0
LINE
  5
17D
100
AcDbEntity
  8
0
  6
CONTINUOUS
 62
               7
100
AcDbLine
 10
-19.360000000000014
 20
5.9500000000000028
 30
0.0
 11
-19.95999999999998
 21
5.9500000000000028
 31
0.0
  0
LINE
  5
17E
100
AcDbEntity
  8
0
  6
CONTINUOUS
 62
               7
100
AcDbLine
 10
-19.95999999999998
 20
5.9500000000000028
 30
0.0
 11
-19.95999999999998
 21
6.5499999999999972
 31
0.0
  0
LINE
  5
17F
100
AcDbEntity
  8
0
  6
CONTINUOUS
 62
               7
100
AcDbLine
 10
-22.490000000000009
 20
6.75
 30
0.0
 11
-21.490000000000009
 21
6.75
 31
0.0
  0
LINE
  5
180
100
AcDbEntity
  8
0
  6
CONTINUOUS
 62
               7
100
AcDbLine
 10
-21.490000000000009
 20
6.75
 30
0.0
 11
-21.490000000000009
 21
5.75
 31
0.0
  0
LINE
  5
181
100
AcDbEntity
  8
0
  6
CONTINUOUS
 62
               7
100
AcDbLine
 10
-21.490000000000009
 20
5.75
 30
0.0
 11
-22.490000000000009
 21
5.75
 31
0.0
  0
LINE
  5
182
100
AcDbEntity
  8
0
  6
CONTINUOUS
 62
               7
100
AcDbLine
 10
-22.490000000000009
 20
5.75
 30
0.0
 11
-22.490000000000009
 21
6.75
 31
0.0
  0
LINE
  5
183
100
AcDbEntity
  8
0
  6
CONTINUOUS
 62
               7
100
AcDbLine
 10
-21.689999999999998
 20
6.5499999999999972
 30
0.0
 11
-21.689999999999998
 21
5.9500000000000028
 31
0.0
  0
LINE
  5
184
100
AcDbEntity
  8
0
  6
CONTINUOUS
 62
               7
100
AcDbLine
 10
-22.289999999999964
 20
6.5499999999999972
 30
0.0
 11
-21.689999999999998
 21
6.5499999999999972
 31
0.0
  0
LINE
  5
185
100
AcDbEntity
  8
0
  6
CONTINUOUS
 62
               7
100
AcDbLine
 10
-21.689999999999998
 20
5.9500000000000028
 30
0.0
 11
-22.289999999999964
 21
5.9500000000000028
 31
0.0
  0
LINE
  5
186
100
AcDbEntity
  8
0
  6
CONTINUOUS
 62
               7
100
AcDbLine
 10
-22.289999999999964
 20
5.9500000000000028
 30
0.0
 11
-22.289999999999964
 21
6.5499999999999972
 31
0.0
  0
LINE
  5
187
100
AcDbEntity
  8
0
  6
CONTINUOUS
 62
               7
100
AcDbLine
 10
-24.819999999999993
 20
6.75
 30
0.0
 11
-23.819999999999993
 21
6.75
 31
0.0
  0
LINE
  5
188
100
AcDbEntity
  8
0
  6
CONTINUOUS
 62
               7
100
AcDbLine
 10
-23.819999999999993
 20
6.75
 30
0.0
 11
-23.819999999999993
 21
5.75
 31
0.0
  0
LINE
  5
189
100
AcDbEntity
  8
0
  6
CONTINUOUS
 62
               7
100
AcDbLine
 10
-23.819999999999993
 20
5.75
 30
0.0
 11
-24.819999999999993
 21
5.75
 31
0.0
  0
LINE
  5
18A
100
AcDbEntity
  8
0
  6
CONTINUOUS
 62
               7
100
AcDbLine
 10
-24.819999999999993
 20
5.75
 30
0.0
 11
-24.819999999999993
 21
6.75
 31
0.0
  0
LINE
  5
18B
100
AcDbEntity
  8
0
  6
CONTINUOUS
 62
               7
100
AcDbLine
 10
-24.019999999999982
 20
6.5499999999999972
 30
0.0
 11
-24.019999999999982
 21
5.9500000000000028
 31
0.0
  0
LINE
  5
18C
100
AcDbEntity
  8
0
  6
CONTINUOUS
 62
               7
100
AcDbLine
 10
-24.620000000000005
 20
6.5499999999999972
 30
0.0
 11
-24.019999999999982
 21
6.5499999999999972
 31
0.0
  0
LINE
  5
18D
100
AcDbEntity
  8
0
  6
CONTINUOUS
 62
               7
100
AcDbLine
 10
-24.019999999999982
 20
5.9500000000000028
 30
0.0
 11
-24.620000000000005
 21
5.9500000000000028
 31
0.0
  0
LINE
  5
18E
100
AcDbEntity
  8
0
  6
CONTINUOUS
 62
               7
100
AcDbLine
 10
-24.620000000000005
 20
5.9500000000000028
 30
0.0
 11
-24.620000000000005
 21
6.5499999999999972
 31
0.0
  0
LINE
  5
18F
100
AcDbEntity
  8
0
  6
CONTINUOUS
 62
               7
100
AcDbLine
 10
-26.949999999999989
 20
5.9500000000000028
 30
0.0
 11
-26.949999999999989
 21
6.5499999999999972
 31
0.0
  0
LINE
  5
190
100
AcDbEntity
  8
0
  6
CONTINUOUS
 62
               7
100
AcDbLine
 10
-26.350000000000023
 20
5.9500000000000028
 30
0.0
 11
-26.949999999999989
 21
5.9500000000000028
 31
0.0
  0
LINE
  5
191
100
AcDbEntity
  8
0
  6
CONTINUOUS
 62
               7
100
AcDbLine
 10
-26.949999999999989
 20
6.5499999999999972
 30
0.0
 11
-26.350000000000023
 21
6.5499999999999972
 31
0.0
  0
LINE
  5
192
100
AcDbEntity
  8
0
  6
CONTINUOUS
 62
               7
100
AcDbLine
 10
-26.350000000000023
 20
6.5499999999999972
 30
0.0
 11
-26.350000000000023
 21
5.9500000000000028
 31
0.0
  0
LINE
  5
193
100
AcDbEntity
  8
0
  6
CONTINUOUS
 62
               7
100
AcDbLine
 10
-27.149999999999977
 20
5.75
 30
0.0
 11
-27.149999999999977
 21
6.75
 31
0.0
  0
LINE
  5
194
100
AcDbEntity
  8
0
  6
CONTINUOUS
 62
               7
100
AcDbLine
 10
-26.149999999999977
 20
5.75
 30
0.0
 11
-27.149999999999977
 21
5.75
 31
0.0
  0
LINE
  5
195
100
AcDbEntity
  8
0
  6
CONTINUOUS
 62
               7
100
AcDbLine
 10
-26.149999999999977
 20
6.75
 30
0.0
 11
-26.149999999999977
 21
5.75
 31
0.0
  0
LINE
  5
196
100
AcDbEntity
  8
0
  6
CONTINUOUS
 62
               7
100
AcDbLine
 10
-27.149999999999977
 20
6.75
 30
0.0
 11
-26.149999999999977
 21
6.75
 31
0.0
  0
LINE
  5
197
100
AcDbEntity
  8
0
  6
CONTINUOUS
 62
               7
100
AcDbLine
 10
-29.0
 20
6.5130567178314323
 30
0.0
 11
-30.0
 21
6.5130567178314323
 31
0.0
  0
LINE
  5
198
100
AcDbEntity
  8
0
  6
CONTINUOUS
 62
               7
100
AcDbLine
 10
-1.0
 20
4.0499999999999972
 30
0.0
 11
-29.0
 21
4.0499999999999972
 31
0.0
  0
LINE
  5
199
100
AcDbEntity
  8
0
  6
CONTINUOUS
 62
               7
100
AcDbLine
 10
-29.0
 20
8.4500000000000028
 30
0.0
 11
-29.0
 21
4.0499999999999972
 31
0.0
  0
LINE
  5
19A
100
AcDbEntity
  8
0
  6
CONTINUOUS
 62
               7
100
AcDbLine
 10
-1.0
 20
8.4500000000000028
 30
0.0
 11
-29.0
 21
8.4500000000000028
 31
0.0
  0
LINE
  5
19B
100
AcDbEntity
  8
0
  6
CONTINUOUS
 62
               7
100
AcDbLine
 10
-1.0
 20
8.4500000000000028
 30
0.0
 11
-1.0
 21
4.0499999999999972
 31
0.0
  0
LINE
  5
19C
100
AcDbEntity
  8
0
  6
CONTINUOUS
 62
               7
100
AcDbLine
 10
-3.5500000000000114
 20
29.400000000000002
 30
0.0
 11
-6.5500000000000114
 21
29.400000000000002
 31
0.0
  0
LINE
  5
19D
100
AcDbEntity
  8
0
  6
CONTINUOUS
 62
               7
100
AcDbLine
 10
-3.5500000000000114
 20
29.400000000000002
 30
0.0
 11
-3.5500000000000114
 21
16.600000000000009
 31
0.0
  0
LINE
  5
19E
100
AcDbEntity
  8
0
  6
CONTINUOUS
 62
               7
100
AcDbLine
 10
-6.5500000000000114
 20
29.400000000000002
 30
0.0
 11
-6.5500000000000114
 21
16.600000000000009
 31
0.0
  0
LINE
  5
19F
100
AcDbEntity
  8
0
  6
CONTINUOUS
 62
               7
100
AcDbLine
 10
-3.5500000000000114
 20
16.600000000000009
 30
0.0
 11
-6.5500000000000114
 21
16.600000000000009
 31
0.0
  0
CIRCLE
  5
1A0
100
AcDbEntity
  8
0
  6
CONTINUOUS
 62
               7
100
AcDbCircle
 10
-5.0500000000000114
 20
27.800000000000008
 30
0.0
 40
0.5
  0
LINE
  5
1A1
100
AcDbEntity
  8
0
  6
CONTINUOUS
 62
               7
100
AcDbLine
 10
-5.5500000000000114
 20
28.300000000000008
 30
0.0
 11
-4.5500000000000114
 21
28.300000000000008
 31
0.0
  0
LINE
  5
1A2
100
AcDbEntity
  8
0
  6
CONTINUOUS
 62
               7
100
AcDbLine
 10
-4.5500000000000114
 20
27.300000000000008
 30
0.0
 11
-4.5500000000000114
 21
28.300000000000008
 31
0.0
  0
LINE
  5
1A3
100
AcDbEntity
  8
0
  6
CONTINUOUS
 62
               7
100
AcDbLine
 10
-5.5500000000000114
 20
27.300000000000008
 30
0.0
 11
-4.5500000000000114
 21
27.300000000000008
 31
0.0
  0
LINE
  5
1A4
100
AcDbEntity
  8
0
  6
CONTINUOUS
 62
               7
100
AcDbLine
 10
-5.5500000000000114
 20
28.300000000000008
 30
0.0
 11
-5.5500000000000114
 21
27.300000000000008
 31
0.0
  0
LINE
  5
1A5
100
AcDbEntity
  8
0
  6
CONTINUOUS
 62
               7
100
AcDbLine
 10
-5.5500000000000114
 20
25.100000000000009
 30
0.0
 11
-5.5500000000000114
 21
24.100000000000009
 31
0.0
  0
LINE
  5
1A6
100
AcDbEntity
  8
0
  6
CONTINUOUS
 62
               7
100
AcDbLine
 10
-5.5500000000000114
 20
24.100000000000009
 30
0.0
 11
-4.5500000000000114
 21
24.100000000000009
 31
0.0
  0
LINE
  5
1A7
100
AcDbEntity
  8
0
  6
CONTINUOUS
 62
               7
100
AcDbLine
 10
-4.5500000000000114
 20
24.100000000000009
 30
0.0
 11
-4.5500000000000114
 21
25.100000000000009
 31
0.0
  0
LINE
  5
1A8
100
AcDbEntity
  8
0
  6
CONTINUOUS
 62
               7
100
AcDbLine
 10
-5.5500000000000114
 20
25.100000000000009
 30
0.0
 11
-4.5500000000000114
 21
25.100000000000009
 31
0.0
  0
CIRCLE
  5
1A9
100
AcDbEntity
  8
0
  6
CONTINUOUS
 62
               7
100
AcDbCircle
 10
-5.0500000000000114
 20
24.600000000000009
 30
0.0
 40
0.5
  0
CIRCLE
  5
1AA
100
AcDbEntity
  8
0
  6
CONTINUOUS
 62
               7
100
AcDbCircle
 10
-5.0500000000000114
 20
21.400000000000006
 30
0.0
 40
0.5
  0
LINE
  5
1AB
100
AcDbEntity
  8
0
  6
CONTINUOUS
 62
               7
100
AcDbLine
 10
-5.5500000000000114
 20
21.900000000000006
 30
0.0
 11
-4.5500000000000114
 21
21.900000000000006
 31
0.0
  0
LINE
  5
1AC
100
AcDbEntity
  8
0
  6
CONTINUOUS
 62
               7
100
AcDbLine
 10
-5.5500000000000114
 20
20.900000000000006
 30
0.0
 11
-4.5500000000000114
 21
20.900000000000006
 31
0.0
  0
LINE
  5
1AD
100
AcDbEntity
  8
0
  6
CONTINUOUS
 62
               7
100
AcDbLine
 10
-5.5500000000000114
 20
21.900000000000006
 30
0.0
 11
-5.5500000000000114
 21
20.900000000000006
 31
0.0
  0
CIRCLE
  5
1AE
100
AcDbEntity
  8
0
  6
CONTINUOUS
 62
               7
100
AcDbCircle
 10
-5.0500000000000114
 20
18.200000000000017
 30
0.0
 40
0.5
  0
LINE
  5
1AF
100
AcDbEntity
  8
0
  6
CONTINUOUS
 62
               7
100
AcDbLine
 10
-5.5500000000000114
 20
18.700000000000017
 30
0.0
 11
-4.5500000000000114
 21
18.700000000000017
 31
0.0
  0
LINE
  5
1B0
100
AcDbEntity
  8
0
  6
CONTINUOUS
 62
               7
100
AcDbLine
 10
-4.5500000000000114
 20
17.700000000000017
 30
0.0
 11
-4.5500000000000114
 21
18.700000000000017
 31
0.0
  0
LINE
  5
1B1
100
AcDbEntity
  8
0
  6
CONTINUOUS
 62
               7
100
AcDbLine
 10
-5.5500000000000114
 20
17.700000000000017
 30
0.0
 11
-4.5500000000000114
 21
17.700000000000017
 31
0.0
  0
LINE
  5
1B2
100
AcDbEntity
  8
0
  6
CONTINUOUS
 62
               7
100
AcDbLine
 10
-5.5500000000000114
 20
18.700000000000017
 30
0.0
 11
-5.5500000000000114
 21
17.700000000000017
 31
0.0
  0
LINE
  5
1B3
100
AcDbEntity
  8
0
  6
CONTINUOUS
 62
               7
100
AcDbLine
 10
-4.5500000000000114
 20
20.900000000000006
 30
0.0
 11
-4.5500000000000114
 21
21.900000000000006
 31
0.0
  0
LINE
  5
1B4
100
AcDbEntity
  8
0
  6
CONTINUOUS
 62
               7
100
AcDbLine
 10
-10.25
 20
29.400000000000002
 30
0.0
 11
-13.25
 21
29.400000000000002
 31
0.0
  0
LINE
  5
1B5
100
AcDbEntity
  8
0
  6
CONTINUOUS
 62
               7
100
AcDbLine
 10
-10.25
 20
29.400000000000002
 30
0.0
 11
-10.25
 21
16.600000000000009
 31
0.0
  0
LINE
  5
1B6
100
AcDbEntity
  8
0
  6
CONTINUOUS
 62
               7
100
AcDbLine
 10
-13.25
 20
29.400000000000002
 30
0.0
 11
-13.25
 21
16.600000000000009
 31
0.0
  0
LINE
  5
1B7
100
AcDbEntity
  8
0
  6
CONTINUOUS
 62
               7
100
AcDbLine
 10
-10.25
 20
16.600000000000009
 30
0.0
 11
-13.25
 21
16.600000000000009
 31
0.0
  0
CIRCLE
  5
1B8
100
AcDbEntity
  8
0
  6
CONTINUOUS
 62
               7
100
AcDbCircle
 10
-11.75
 20
27.800000000000008
 30
0.0
 40
0.5
  0
LINE
  5
1B9
100
AcDbEntity
  8
0
  6
CONTINUOUS
 62
               7
100
AcDbLine
 10
-12.25
 20
28.300000000000008
 30
0.0
 11
-11.25
 21
28.300000000000008
 31
0.0
  0
LINE
  5
1BA
100
AcDbEntity
  8
0
  6
CONTINUOUS
 62
               7
100
AcDbLine
 10
-11.25
 20
27.300000000000008
 30
0.0
 11
-11.25
 21
28.300000000000008
 31
0.0
  0
LINE
  5
1BB
100
AcDbEntity
  8
0
  6
CONTINUOUS
 62
               7
100
AcDbLine
 10
-12.25
 20
27.300000000000008
 30
0.0
 11
-11.25
 21
27.300000000000008
 31
0.0
  0
LINE
  5
1BC
100
AcDbEntity
  8
0
  6
CONTINUOUS
 62
               7
100
AcDbLine
 10
-12.25
 20
28.300000000000008
 30
0.0
 11
-12.25
 21
27.300000000000008
 31
0.0
  0
LINE
  5
1BD
100
AcDbEntity
  8
0
  6
CONTINUOUS
 62
               7
100
AcDbLine
 10
-12.25
 20
25.100000000000009
 30
0.0
 11
-12.25
 21
24.100000000000009
 31
0.0
  0
LINE
  5
1BE
100
AcDbEntity
  8
0
  6
CONTINUOUS
 62
               7
100
AcDbLine
 10
-12.25
 20
24.100000000000009
 30
0.0
 11
-11.25
 21
24.100000000000009
 31
0.0
  0
LINE
  5
1BF
100
AcDbEntity
  8
0
  6
CONTINUOUS
 62
               7
100
AcDbLine
 10
-11.25
 20
24.100000000000009
 30
0.0
 11
-11.25
 21
25.100000000000009
 31
0.0
  0
LINE
  5
1C0
100
AcDbEntity
  8
0
  6
CONTINUOUS
 62
               7
100
AcDbLine
 10
-12.25
 20
25.100000000000009
 30
0.0
 11
-11.25
 21
25.100000000000009
 31
0.0
  0
CIRCLE
  5
1C1
100
AcDbEntity
  8
0
  6
CONTINUOUS
 62
               7
100
AcDbCircle
 10
-11.75
 20
24.600000000000009
 30
0.0
 40
0.5
  0
CIRCLE
  5
1C2
100
AcDbEntity
  8
0
  6
CONTINUOUS
 62
               7
100
AcDbCircle
 10
-11.75
 20
21.400000000000006
 30
0.0
 40
0.5
  0
LINE
  5
1C3
100
AcDbEntity
  8
0
  6
CONTINUOUS
 62
               7
100
AcDbLine
 10
-12.25
 20
21.900000000000006
 30
0.0
 11
-11.25
 21
21.900000000000006
 31
0.0
  0
LINE
  5
1C4
100
AcDbEntity
  8
0
  6
CONTINUOUS
 62
               7
100
AcDbLine
 10
-12.25
 20
20.900000000000006
 30
0.0
 11
-11.25
 21
20.900000000000006
 31
0.0
  0
LINE
  5
1C5
100
AcDbEntity
  8
0
  6
CONTINUOUS
 62
               7
100
AcDbLine
 10
-12.25
 20
21.900000000000006
 30
0.0
 11
-12.25
 21
20.900000000000006
 31
0.0
  0
CIRCLE
  5
1C6
100
AcDbEntity
  8
0
  6
CONTINUOUS
 62
               7
100
AcDbCircle
 10
-11.75
 20
18.200000000000017
 30
0.0
 40
0.5
  0
LINE
  5
1C7
100
AcDbEntity
  8
0
  6
CONTINUOUS
 62
               7
100
AcDbLine
 10
-12.25
 20
18.700000000000017
 30
0.0
 11
-11.25
 21
18.700000000000017
 31
0.0
  0
LINE
  5
1C8
100
AcDbEntity
  8
0
  6
CONTINUOUS
 62
               7
100
AcDbLine
 10
-11.25
 20
17.700000000000017
 30
0.0
 11
-11.25
 21
18.700000000000017
 31
0.0
  0
LINE
  5
1C9
100
AcDbEntity
  8
0
  6
CONTINUOUS
 62
               7
100
AcDbLine
 10
-12.25
 20
17.700000000000017
 30
0.0
 11
-11.25
 21
17.700000000000017
 31
0.0
  0
LINE
  5
1CA
100
AcDbEntity
  8
0
  6
CONTINUOUS
 62
               7
100
AcDbLine
 10
-12.25
 20
18.700000000000017
 30
0.0
 11
-12.25
 21
17.700000000000017
 31
0.0
  0
LINE
  5
1CB
100
AcDbEntity
  8
0
  6
CONTINUOUS
 62
               7
100
AcDbLine
 10
-11.25
 20
20.900000000000006
 30
0.0
 11
-11.25
 21
21.900000000000006
 31
0.0
  0
LINE
  5
1CC
100
AcDbEntity
  8
0
  6
CONTINUOUS
 62
               7
100
AcDbLine
 10
-16.75
 20
29.400000000000002
 30
0.0
 11
-19.75
 21
29.400000000000002
 31
0.0
  0
LINE
  5
1CD
100
AcDbEntity
  8
0
  6
CONTINUOUS
 62
               7
100
AcDbLine
 10
-16.75
 20
29.400000000000002
 30
0.0
 11
-16.75
 21
16.600000000000009
 31
0.0
  0
LINE
  5
1CE
100
AcDbEntity
  8
0
  6
CONTINUOUS
 62
               7
100
AcDbLine
 10
-19.75
 20
29.400000000000002
 30
0.0
 11
-19.75
 21
16.600000000000009
 31
0.0
  0
LINE
  5
1CF
100
AcDbEntity
  8
0
  6
CONTINUOUS
 62
               7
100
AcDbLine
 10
-16.75
 20
16.600000000000009
 30
0.0
 11
-19.75
 21
16.600000000000009
 31
0.0
  0
CIRCLE
  5
1D0
100
AcDbEntity
  8
0
  6
CONTINUOUS
 62
               7
100
AcDbCircle
 10
-18.25
 20
27.800000000000008
 30
0.0
 40
0.5
  0
LINE
  5
1D1
100
AcDbEntity
  8
0
  6
CONTINUOUS
 62
               7
100
AcDbLine
 10
-18.75
 20
28.300000000000008
 30
0.0
 11
-17.75
 21
28.300000000000008
 31
0.0
  0
LINE
  5
1D2
100
AcDbEntity
  8
0
  6
CONTINUOUS
 62
               7
100
AcDbLine
 10
-17.75
 20
27.300000000000008
 30
0.0
 11
-17.75
 21
28.300000000000008
 31
0.0
  0
LINE
  5
1D3
100
AcDbEntity
  8
0
  6
CONTINUOUS
 62
               7
100
AcDbLine
 10
-18.75
 20
27.300000000000008
 30
0.0
 11
-17.75
 21
27.300000000000008
 31
0.0
  0
LINE
  5
1D4
100
AcDbEntity
  8
0
  6
CONTINUOUS
 62
               7
100
AcDbLine
 10
-18.75
 20
28.300000000000008
 30
0.0
 11
-18.75
 21
27.300000000000008
 31
0.0
  0
LINE
  5
1D5
100
AcDbEntity
  8
0
  6
CONTINUOUS
 62
               7
100
AcDbLine
 10
-18.75
 20
25.100000000000009
 30
0.0
 11
-18.75
 21
24.100000000000009
 31
0.0
  0
LINE
  5
1D6
100
AcDbEntity
  8
0
  6
CONTINUOUS
 62
               7
100
AcDbLine
 10
-18.75
 20
24.100000000000009
 30
0.0
 11
-17.75
 21
24.100000000000009
 31
0.0
  0
LINE
  5
1D7
100
AcDbEntity
  8
0
  6
CONTINUOUS
 62
               7
100
AcDbLine
 10
-17.75
 20
24.100000000000009
 30
0.0
 11
-17.75
 21
25.100000000000009
 31
0.0
  0
LINE
  5
1D8
100
AcDbEntity
  8
0
  6
CONTINUOUS
 62
               7
100
AcDbLine
 10
-18.75
 20
25.100000000000009
 30
0.0
 11
-17.75
 21
25.100000000000009
 31
0.0
  0
CIRCLE
  5
1D9
100
AcDbEntity
  8
0
  6
CONTINUOUS
 62
               7
100
AcDbCircle
 10
-18.25
 20
24.600000000000009
 30
0.0
 40
0.5
  0
CIRCLE
  5
1DA
100
AcDbEntity
  8
0
  6
CONTINUOUS
 62
               7
100
AcDbCircle
 10
-18.25
 20
21.400000000000006
 30
0.0
 40
0.5
  0
LINE
  5
1DB
100
AcDbEntity
  8
0
  6
CONTINUOUS
 62
               7
100
AcDbLine
 10
-18.75
 20
21.900000000000006
 30
0.0
 11
-17.75
 21
21.900000000000006
 31
0.0
  0
LINE
  5
1DC
100
AcDbEntity
  8
0
  6
CONTINUOUS
 62
               7
100
AcDbLine
 10
-18.75
 20
20.900000000000006
 30
0.0
 11
-17.75
 21
20.900000000000006
 31
0.0
  0
LINE
  5
1DD
100
AcDbEntity
  8
0
  6
CONTINUOUS
 62
               7
100
AcDbLine
 10
-18.75
 20
21.900000000000006
 30
0.0
 11
-18.75
 21
20.900000000000006
 31
0.0
  0
CIRCLE
  5
1DE
100
AcDbEntity
  8
0
  6
CONTINUOUS
 62
               7
100
AcDbCircle
 10
-18.25
 20
18.200000000000017
 30
0.0
 40
0.5
  0
LINE
  5
1DF
100
AcDbEntity
  8
0
  6
CONTINUOUS
 62
               7
100
AcDbLine
 10
-18.75
 20
18.700000000000017
 30
0.0
 11
-17.75
 21
18.700000000000017
 31
0.0
  0
LINE
  5
1E0
100
AcDbEntity
  8
0
  6
CONTINUOUS
 62
               7
100
AcDbLine
 10
-17.75
 20
17.700000000000017
 30
0.0
 11
-17.75
 21
18.700000000000017
 31
0.0
  0
LINE
  5
1E1
100
AcDbEntity
  8
0
  6
CONTINUOUS
 62
               7
100
AcDbLine
 10
-18.75
 20
17.700000000000017
 30
0.0
 11
-17.75
 21
17.700000000000017
 31
0.0
  0
LINE
  5
1E2
100
AcDbEntity
  8
0
  6
CONTINUOUS
 62
               7
100
AcDbLine
 10
-18.75
 20
18.700000000000017
 30
0.0
 11
-18.75
 21
17.700000000000017
 31
0.0
  0
LINE
  5
1E3
100
AcDbEntity
  8
0
  6
CONTINUOUS
 62
               7
100
AcDbLine
 10
-17.75
 20
20.900000000000006
 30
0.0
 11
-17.75
 21
21.900000000000006
 31
0.0
  0
LINE
  5
1E4
100
AcDbEntity
  8
0
  6
CONTINUOUS
 62
               7
100
AcDbLine
 10
-24.5
 20
20.900000000000006
 30
0.0
 11
-24.5
 21
21.900000000000006
 31
0.0
  0
LINE
  5
1E5
100
AcDbEntity
  8
0
  6
CONTINUOUS
 62
               7
100
AcDbLine
 10
-25.5
 20
18.700000000000017
 30
0.0
 11
-25.5
 21
17.700000000000017
 31
0.0
  0
LINE
  5
1E6
100
AcDbEntity
  8
0
  6
CONTINUOUS
 62
               7
100
AcDbLine
 10
-25.5
 20
17.700000000000017
 30
0.0
 11
-24.5
 21
17.700000000000017
 31
0.0
  0
LINE
  5
1E7
100
AcDbEntity
  8
0
  6
CONTINUOUS
 62
               7
100
AcDbLine
 10
-24.5
 20
17.700000000000017
 30
0.0
 11
-24.5
 21
18.700000000000017
 31
0.0
  0
LINE
  5
1E8
100
AcDbEntity
  8
0
  6
CONTINUOUS
 62
               7
100
AcDbLine
 10
-25.5
 20
18.700000000000017
 30
0.0
 11
-24.5
 21
18.700000000000017
 31
0.0
  0
CIRCLE
  5
1E9
100
AcDbEntity
  8
0
  6
CONTINUOUS
 62
               7
100
AcDbCircle
 10
-25.0
 20
18.200000000000017
 30
0.0
 40
0.5
  0
LINE
  5
1EA
100
AcDbEntity
  8
0
  6
CONTINUOUS
 62
               7
100
AcDbLine
 10
-25.5
 20
21.900000000000006
 30
0.0
 11
-25.5
 21
20.900000000000006
 31
0.0
  0
LINE
  5
1EB
100
AcDbEntity
  8
0
  6
CONTINUOUS
 62
               7
100
AcDbLine
 10
-25.5
 20
20.900000000000006
 30
0.0
 11
-24.5
 21
20.900000000000006
 31
0.0
  0
LINE
  5
1EC
100
AcDbEntity
  8
0
  6
CONTINUOUS
 62
               7
100
AcDbLine
 10
-25.5
 20
21.900000000000006
 30
0.0
 11
-24.5
 21
21.900000000000006
 31
0.0
  0
CIRCLE
  5
1ED
100
AcDbEntity
  8
0
  6
CONTINUOUS
 62
               7
100
AcDbCircle
 10
-25.0
 20
21.400000000000006
 30
0.0
 40
0.5
  0
CIRCLE
  5
1EE
100
AcDbEntity
  8
0
  6
CONTINUOUS
 62
               7
100
AcDbCircle
 10
-25.0
 20
24.600000000000009
 30
0.0
 40
0.5
  0
LINE
  5
1EF
100
AcDbEntity
  8
0
  6
CONTINUOUS
 62
               7
100
AcDbLine
 10
-25.5
 20
25.100000000000009
 30
0.0
 11
-24.5
 21
25.100000000000009
 31
0.0
  0
LINE
  5
1F0
100
AcDbEntity
  8
0
  6
CONTINUOUS
 62
               7
100
AcDbLine
 10
-24.5
 20
24.100000000000009
 30
0.0
 11
-24.5
 21
25.100000000000009
 31
0.0
  0
LINE
  5
1F1
100
AcDbEntity
  8
0
  6
CONTINUOUS
 62
               7
100
AcDbLine
 10
-25.5
 20
24.100000000000009
 30
0.0
 11
-24.5
 21
24.100000000000009
 31
0.0
  0
LINE
  5
1F2
100
AcDbEntity
  8
0
  6
CONTINUOUS
 62
               7
100
AcDbLine
 10
-25.5
 20
25.100000000000009
 30
0.0
 11
-25.5
 21
24.100000000000009
 31
0.0
  0
LINE
  5
1F3
100
AcDbEntity
  8
0
  6
CONTINUOUS
 62
               7
100
AcDbLine
 10
-25.5
 20
28.300000000000008
 30
0.0
 11
-25.5
 21
27.300000000000008
 31
0.0
  0
LINE
  5
1F4
100
AcDbEntity
  8
0
  6
CONTINUOUS
 62
               7
100
AcDbLine
 10
-25.5
 20
27.300000000000008
 30
0.0
 11
-24.5
 21
27.300000000000008
 31
0.0
  0
LINE
  5
1F5
100
AcDbEntity
  8
0
  6
CONTINUOUS
 62
               7
100
AcDbLine
 10
-24.5
 20
27.300000000000008
 30
0.0
 11
-24.5
 21
28.300000000000008
 31
0.0
  0
LINE
  5
1F6
100
AcDbEntity
  8
0
  6
CONTINUOUS
 62
               7
100
AcDbLine
 10
-25.5
 20
28.300000000000008
 30
0.0
 11
-24.5
 21
28.300000000000008
 31
0.0
  0
CIRCLE
  5
1F7
100
AcDbEntity
  8
0
  6
CONTINUOUS
 62
               7
100
AcDbCircle
 10
-25.0
 20
27.800000000000008
 30
0.0
 40
0.5
  0
LINE
  5
1F8
100
AcDbEntity
  8
0
  6
CONTINUOUS
 62
               7
100
AcDbLine
 10
-23.5
 20
16.600000000000009
 30
0.0
 11
-26.5
 21
16.600000000000009
 31
0.0
  0
LINE
  5
1F9
100
AcDbEntity
  8
0
  6
CONTINUOUS
 62
               7
100
AcDbLine
 10
-26.5
 20
29.400000000000002
 30
0.0
 11
-26.5
 21
16.600000000000009
 31
0.0
  0
LINE
  5
1FA
100
AcDbEntity
  8
0
  6
CONTINUOUS
 62
               7
100
AcDbLine
 10
-23.5
 20
29.400000000000002
 30
0.0
 11
-23.5
 21
16.600000000000009
 31
0.0
  0
LINE
  5
1FB
100
AcDbEntity
  8
0
  6
CONTINUOUS
 62
               7
100
AcDbLine
 10
-23.5
 20
29.400000000000002
 30
0.0
 11
-26.5
 21
29.400000000000002
 31
0.0
  0
LINE
  5
1FC
100
AcDbEntity
  8
0
  6
CONTINUOUS
 62
               7
100
AcDbLine
 10
-2.5500000000000114
 20
15.600000000000009
 30
0.0
 11
-7.5500000000000114
 21
15.600000000000009
 31
0.0
  0
LINE
  5
1FD
100
AcDbEntity
  8
0
  6
CONTINUOUS
 62
               7
100
AcDbLine
 10
-2.5500000000000114
 20
30.400000000000002
 30
0.0
 11
-7.5500000000000114
 21
30.400000000000002
 31
0.0
  0
LINE
  5
1FE
100
AcDbEntity
  8
0
  6
CONTINUOUS
 62
               7
100
AcDbLine
 10
-2.5500000000000114
 20
30.400000000000002
 30
0.0
 11
-2.5500000000000114
 21
15.600000000000009
 31
0.0
  0
LINE
  5
1FF
100
AcDbEntity
  8
0
  6
CONTINUOUS
 62
               7
100
AcDbLine
 10
-7.5500000000000114
 20
30.400000000000002
 30
0.0
 11
-7.5500000000000114
 21
15.600000000000009
 31
0.0
  0
LINE
  5
200
100
AcDbEntity
  8
0
  6
CONTINUOUS
 62
               7
100
AcDbLine
 10
-9.25
 20
15.600000000000009
 30
0.0
 11
-14.25
 21
15.600000000000009
 31
0.0
  0
LINE
  5
201
100
AcDbEntity
  8
0
  6
CONTINUOUS
 62
               7
100
AcDbLine
 10
-9.25
 20
30.400000000000002
 30
0.0
 11
-14.25
 21
30.400000000000002
 31
0.0
  0
LINE
  5
202
100
AcDbEntity
  8
0
  6
CONTINUOUS
 62
               7
100
AcDbLine
 10
-9.25
 20
30.400000000000002
 30
0.0
 11
-9.25
 21
15.600000000000009
 31
0.0
  0
LINE
  5
203
100
AcDbEntity
  8
0
  6
CONTINUOUS
 62
               7
100
AcDbLine
 10
-14.25
 20
30.400000000000002
 30
0.0
 11
-14.25
 21
15.600000000000009
 31
0.0
  0
LINE
  5
204
100
AcDbEntity
  8
0
  6
CONTINUOUS
 62
               7
100
AcDbLine
 10
-15.75
 20
15.600000000000009
 30
0.0
 11
-20.75
 21
15.600000000000009
 31
0.0
  0
LINE
  5
205
100
AcDbEntity
  8
0
  6
CONTINUOUS
 62
               7
100
AcDbLine
 10
-15.75
 20
30.400000000000002
 30
0.0
 11
-20.75
 21
30.400000000000002
 31
0.0
  0
LINE
  5
206
100
AcDbEntity
  8
0
  6
CONTINUOUS
 62
               7
100
AcDbLine
 10
-15.75
 20
30.400000000000002
 30
0.0
 11
-15.75
 21
15.600000000000009
 31
0.0
  0
LINE
  5
207
100
AcDbEntity
  8
0
  6
CONTINUOUS
 62
               7
100
AcDbLine
 10
-20.75
 20
30.400000000000002
 30
0.0
 11
-20.75
 21
15.600000000000009
 31
0.0
  0
LINE
  5
208
100
AcDbEntity
  8
0
  6
CONTINUOUS
 62
               7
100
AcDbLine
 10
-1.7000000000000028
 20
17.5
 30
0.0
 11
-2.5
 21
17.5
 31
0.0
  0
LINE
  5
209
100
AcDbEntity
  8
0
  6
CONTINUOUS
 62
               7
100
AcDbLine
 10
-1.7000000000000028
 20
16.299999999999983
 30
0.0
 11
-2.5
 21
16.299999999999983
 31
0.0
  0
LINE
  5
20A
100
AcDbEntity
  8
0
  6
CONTINUOUS
 62
               7
100
AcDbLine
 10
-1.7000000000000028
 20
29.199999999999985
 30
0.0
 11
-2.5
 21
29.199999999999985
 31
0.0
  0
LINE
  5
20B
100
AcDbEntity
  8
0
  6
CONTINUOUS
 62
               7
100
AcDbLine
 10
-1.7000000000000028
 20
27.499999999999982
 30
0.0
 11
-2.5
 21
27.499999999999982
 31
0.0
  0
LINE
  5
20C
100
AcDbEntity
  8
0
  6
CONTINUOUS
 62
               7
100
AcDbLine
 10
-22.5
 20
30.400000000000002
 30
0.0
 11
-22.5
 21
15.600000000000009
 31
0.0
  0
LINE
  5
20D
100
AcDbEntity
  8
0
  6
CONTINUOUS
 62
               7
100
AcDbLine
 10
-22.5
 20
15.600000000000009
 30
0.0
 11
-27.5
 21
15.600000000000009
 31
0.0
  0
LINE
  5
20E
100
AcDbEntity
  8
0
  6
CONTINUOUS
 62
               7
100
AcDbLine
 10
-27.5
 20
30.400000000000002
 30
0.0
 11
-27.5
 21
15.600000000000009
 31
0.0
  0
LINE
  5
20F
100
AcDbEntity
  8
0
  6
CONTINUOUS
 62
               7
100
AcDbLine
 10
-22.5
 20
30.400000000000002
 30
0.0
 11
-27.5
 21
30.400000000000002
 31
0.0
  0
LINE
  5
210
100
AcDbEntity
  8
0
  6
CONTINUOUS
 62
               7
100
AcDbLine
 10
0.0
 20
3.0499999999999972
 30
0.0
 11
-30.0
 21
3.0499999999999972
 31
0.0
  0
LINE
  5
211
100
AcDbEntity
  8
0
  6
CONTINUOUS
 62
               7
100
AcDbLine
 10
0.0
 20
9.4500000000000028
 30
0.0
 11
-30.0
 21
9.4500000000000028
 31
0.0
  0
LINE
  5
212
100
AcDbEntity
  8
0
  6
CONTINUOUS
 62
               7
100
AcDbLine
 10
0.0
 20
6.5130567178314323
 30
0.0
 11
-1.0
 21
6.5130567178314323
 31
0.0
  0
LINE
  5
213
100
AcDbEntity
  8
0
  6
CONTINUOUS
 62
               7
100
AcDbLine
 10
-8.5
 20
30.950000000000006
 30
0.0
 11
-8.5
 21
15.050000000000011
 31
0.0
  0
LINE
  5
214
100
AcDbEntity
  8
0
  6
CONTINUOUS
 62
               7
100
AcDbLine
 10
-21.5
 20
30.950000000000006
 30
0.0
 11
-21.5
 21
15.050000000000011
 31
0.0
  0
LINE
  5
215
100
AcDbEntity
  8
0
  6
CONTINUOUS
 62
               7
100
AcDbLine
 10
-28.299999999999997
 20
17.5
 30
0.0
 11
-27.5
 21
17.5
 31
0.0
  0
LINE
  5
216
100
AcDbEntity
  8
0
  6
CONTINUOUS
 62
               7
100
AcDbLine
 10
-28.299999999999997
 20
16.299999999999983
 30
0.0
 11
-27.5
 21
16.299999999999983
 31
0.0
  0
LINE
  5
217
100
AcDbEntity
  8
0
  6
CONTINUOUS
 62
               7
100
AcDbLine
 10
-28.299999999999997
 20
29.199999999999985
 30
0.0
 11
-27.5
 21
29.199999999999985
 31
0.0
  0
LINE
  5
218
100
AcDbEntity
  8
0
  6
CONTINUOUS
 62
               7
100
AcDbLine
 10
-28.299999999999997
 20
27.499999999999982
 30
0.0
 11
-27.5
 21
27.499999999999982
 31
0.0
  0
LINE
  5
219
100
AcDbEntity
  8
0
  6
CONTINUOUS
 62
               7
100
AcDbLine
 10
-30.0
 20
9.4500000000000028
 30
0.0
 11
-30.0
 21
3.0499999999999972
 31
0.0
  0
LINE
  5
21A
100
AcDbEntity
  8
0
  6
CONTINUOUS
 62
               7
100
AcDbLine
 10
0.0
 20
9.4500000000000028
 30
0.0
 11
0.0
 21
3.0499999999999972
 31
0.0
  0
LINE
  5
21B
100
AcDbEntity
  8
0
  6
CONTINUOUS
 62
               7
100
AcDbLine
 10
-34.0
 20
37.349999999999994
 30
0.0
 11
4.0
 21
37.349999999999994
 31
0.0
  0
LINE
  5
21C
100
AcDbEntity
  8
0
  6
CONTINUOUS
 62
               7
100
AcDbLine
 10
-34.0
 20
-2.6500000000000057
 30
0.0
 11
4.0
 21
-2.6500000000000057
 31
0.0
  0
LINE
  5
21D
100
AcDbEntity
  8
0
  6
CONTINUOUS
 62
               7
100
AcDbLine
 10
5.0
 20
36.349999999999994
 30
0.0
 11
5.0
 21
-1.6500000000000057
 31
0.0
  0
LINE
  5
21E
100
AcDbEntity
  8
0
  6
CONTINUOUS
 62
               7
100
AcDbLine
 10
-35.0
 20
-1.6500000000000057
 30
0.0
 11
-35.0
 21
36.349999999999994
 31
0.0
  0
LINE
  5
21F
100
AcDbEntity
  8
0
  6
CONTINUOUS
 62
               7
100
AcDbLine
 10
2.0
 20
2.6499999999999915
 30
0.0
 11
-9.5
 21
2.6499999999999915
 31
0.0
  0
LINE
  5
220
100
AcDbEntity
  8
0
  6
CONTINUOUS
 62
               7
100
AcDbLine
 10
-1.5
 20
31.149999999999995
 30
0.0
 11
-1.5
 21
14.849999999999994
 31
0.0
  0
LINE
  5
221
100
AcDbEntity
  8
0
  6
CONTINUOUS
 62
               7
100
AcDbLine
 10
-28.5
 20
31.149999999999995
 30
0.0
 11
-28.5
 21
14.849999999999994
 31
0.0
  0
LINE
  5
222
100
AcDbEntity
  8
0
  6
CONTINUOUS
 62
               7
100
AcDbLine
 10
0.5
 20
9.8499999999999943
 30
0.0
 11
0.5
 21
2.6499999999999915
 31
0.0
  0
LINE
  5
223
100
AcDbEntity
  8
0
  6
CONTINUOUS
 62
               7
100
AcDbLine
 10
-30.5
 20
9.8499999999999943
 30
0.0
 11
-30.5
 21
2.6499999999999915
 31
0.0
  0
LINE
  5
224
100
AcDbEntity
  8
0
  6
CONTINUOUS
 62
               7
100
AcDbLine
 10
4.0
 20
36.349999999999994
 30
0.0
 11
-34.0
 21
36.349999999999994
 31
0.0
  0
LINE
  5
225
100
AcDbEntity
  8
0
  6
CONTINUOUS
 62
               7
100
AcDbLine
 10
-34.0
 20
36.349999999999994
 30
0.0
 11
-34.707106781186553
 21
37.057106781186548
 31
0.0
  0
LINE
  5
226
100
AcDbEntity
  8
0
  6
CONTINUOUS
 62
               7
100
AcDbLine
 10
4.0
 20
36.349999999999994
 30
0.0
 11
4.7071067811865532
 21
37.057106781186548
 31
0.0
  0
LINE
  5
227
100
AcDbEntity
  8
0
  6
CONTINUOUS
 62
               7
100
AcDbLine
 10
3.5
 20
32.349999999999994
 30
0.0
 11
2.0
 21
32.349999999999994
 31
0.0
  0
LINE
  5
228
100
AcDbEntity
  8
0
  6
CONTINUOUS
 62
               7
100
AcDbLine
 10
3.5
 20
25.349999999999998
 30
0.0
 11
2.0
 21
25.349999999999998
 31
0.0
  0
LINE
  5
229
100
AcDbEntity
  8
0
  6
CONTINUOUS
 62
               7
100
AcDbLine
 10
3.5
 20
32.349999999999994
 30
0.0
 11
3.5
 21
25.349999999999998
 31
0.0
  0
LINE
  5
22A
100
AcDbEntity
  8
0
  6
CONTINUOUS
 62
               7
100
AcDbLine
 10
3.5
 20
9.3499999999999943
 30
0.0
 11
2.0
 21
9.3499999999999943
 31
0.0
  0
LINE
  5
22B
100
AcDbEntity
  8
0
  6
CONTINUOUS
 62
               7
100
AcDbLine
 10
5.0
 20
2.3499999999999943
 30
0.0
 11
2.0
 21
2.3499999999999943
 31
0.0
  0
LINE
  5
22C
100
AcDbEntity
  8
0
  6
CONTINUOUS
 62
               7
100
AcDbLine
 10
3.5
 20
9.3499999999999943
 30
0.0
 11
3.5
 21
2.3499999999999943
 31
0.0
  0
LINE
  5
22D
100
AcDbEntity
  8
0
  6
CONTINUOUS
 62
               2
100
AcDbLine
 10
-33.0
 20
0.0
 30
0.0
 11
-27.0
 21
0.0
 31
0.0
  0
LINE
  5
22E
100
AcDbEntity
  8
0
  6
CONTINUOUS
 62
               2
100
AcDbLine
 10
-30.0
 20
-3.0
 30
0.0
 11
-30.0
 21
2.9999999999999858
 31
0.0
  0
LINE
  5
22F
100
AcDbEntity
  8
0
  6
CONTINUOUS
 62
               7
100
AcDbLine
 10
-3.0
 20
-2.1500000000000057
 30
0.0
 11
-3.0
 21
2.1499999999999915
 31
0.0
  0
LINE
  5
230
100
AcDbEntity
  8
0
  6
CONTINUOUS
 62
               7
100
AcDbLine
 10
-27.0
 20
-2.1500000000000057
 30
0.0
 11
-27.0
 21
2.1499999999999915
 31
0.0
  0
ARC
  5
231
100
AcDbEntity
  8
0
  6
CONTINUOUS
 62
               7
100
AcDbCircle
 10
-30.0
 20
0.0
 30
0.0
 40
2.3999999999999999
100
AcDbArc
 50
0.0
 51
180.0
  0
LINE
  5
232
100
AcDbEntity
  8
0
  6
CONTINUOUS
 62
               2
100
AcDbLine
 10
-3.0
 20
0.0
 30
0.0
 11
3.0
 21
0.0
 31
0.0
  0
ARC
  5
233
100
AcDbEntity
  8
0
  6
CONTINUOUS
 62
               7
100
AcDbCircle
 10
0.0
 20
0.0
 30
0.0
 40
2.3999999999999999
100
AcDbArc
 50
0.0
 51
180.0
  0
LINE
  5
234
100
AcDbEntity
  8
0
  6
CONTINUOUS
 62
               7
100
AcDbLine
 10
2.0
 20
25.349999999999998
 30
0.0
 11
2.0
 21
32.349999999999994
 31
0.0
  0
LINE
  5
235
100
AcDbEntity
  8
0
  6
CONTINUOUS
 62
               7
100
AcDbLine
 10
2.0
 20
9.3499999999999943
 30
0.0
 11
2.0
 21
2.3499999999999943
 31
0.0
  0
LINE
  5
236
100
AcDbEntity
  8
0
  6
CONTINUOUS
 62
               7
100
AcDbLine
 10
-33.5
 20
32.349999999999994
 30
0.0
 11
-32.0
 21
32.349999999999994
 31
0.0
  0
LINE
  5
237
100
AcDbEntity
  8
0
  6
CONTINUOUS
 62
               7
100
AcDbLine
 10
-33.5
 20
25.349999999999998
 30
0.0
 11
-32.0
 21
25.349999999999998
 31
0.0
  0
LINE
  5
238
100
AcDbEntity
  8
0
  6
CONTINUOUS
 62
               7
100
AcDbLine
 10
-32.0
 20
25.349999999999998
 30
0.0
 11
-32.0
 21
32.349999999999994
 31
0.0
  0
LINE
  5
239
100
AcDbEntity
  8
0
  6
CONTINUOUS
 62
               7
100
AcDbLine
 10
-33.5
 20
32.349999999999994
 30
0.0
 11
-33.5
 21
25.349999999999998
 31
0.0
  0
LINE
  5
23A
100
AcDbEntity
  8
0
  6
CONTINUOUS
 62
               7
100
AcDbLine
 10
-33.5
 20
9.3499999999999943
 30
0.0
 11
-32.0
 21
9.3499999999999943
 31
0.0
  0
LINE
  5
23B
100
AcDbEntity
  8
0
  6
CONTINUOUS
 62
               7
100
AcDbLine
 10
-32.0
 20
9.3499999999999943
 30
0.0
 11
-32.0
 21
2.3499999999999943
 31
0.0
  0
LINE
  5
23C
100
AcDbEntity
  8
0
  6
CONTINUOUS
 62
               7
100
AcDbLine
 10
-35.0
 20
2.3499999999999943
 30
0.0
 11
-32.0
 21
2.3499999999999943
 31
0.0
  0
LINE
  5
23D
100
AcDbEntity
  8
0
  6
CONTINUOUS
 62
               7
100
AcDbLine
 10
-33.5
 20
9.3499999999999943
 30
0.0
 11
-33.5
 21
2.3499999999999943
 31
0.0
  0
LINE
  5
23E
100
AcDbEntity
  8
0
  6
CONTINUOUS
 62
               7
100
AcDbLine
 10
-34.0
 20
36.349999999999994
 30
0.0
 11
-34.0
 21
-2.6500000000000057
 31
0.0
  0
LINE
  5
23F
100
AcDbEntity
  8
0
  6
CONTINUOUS
 62
               7
100
AcDbLine
 10
4.0
 20
36.349999999999994
 30
0.0
 11
4.0
 21
-2.6500000000000057
 31
0.0
  0
LINE
  5
240
100
AcDbEntity
  8
0
  6
CONTINUOUS
 62
               7
100
AcDbLine
 10
-30.5
 20
9.8499999999999943
 30
0.0
 11
0.5
 21
9.8499999999999943
 31
0.0
  0
ARC
  5
241
100
AcDbEntity
  8
0
  6
CONTINUOUS
 62
               7
100
AcDbCircle
 10
4.0
 20
36.349999999999994
 30
0.0
 40
1.0
100
AcDbArc
 50
0.0
 51
90.0
  0
ARC
  5
242
100
AcDbEntity
  8
0
  6
CONTINUOUS
 62
               7
100
AcDbCircle
 10
-34.0
 20
36.349999999999994
 30
0.0
 40
1.0
100
AcDbArc
 50
90.0
 51
180.0
  0
ARC
  5
243
100
AcDbEntity
  8
0
  6
CONTINUOUS
 62
               7
100
AcDbCircle
 10
4.0
 20
-1.6500000000000057
 30
0.0
 40
1.0
100
AcDbArc
 50
270.0
 51
0.0
  0
ARC
  5
244
100
AcDbEntity
  8
0
  6
CONTINUOUS
 62
               7
100
AcDbCircle
 10
-34.0
 20
-1.6500000000000057
 30
0.0
 40
1.0
100
AcDbArc
 50
180.0
 51
270.0
  0
LINE
  5
245
100
AcDbEntity
  8
0
  6
CONTINUOUS
 62
               7
100
AcDbLine
 10
2.4000000000000341
 20
0.0
 30
0.0
 11
2.4000000000000341
 21
-2.6500000000000057
 31
0.0
  0
LINE
  5
246
100
AcDbEntity
  8
0
  6
CONTINUOUS
 62
               7
100
AcDbLine
 10
-2.4000000000000341
 20
0.0
 30
0.0
 11
-2.4000000000000341
 21
-2.5665151389911784
 31
0.0
  0
ARC
  5
247
100
AcDbEntity
  8
0
  6
CONTINUOUS
 62
               7
100
AcDbCircle
 10
-2.5
 20
-2.1500000000000057
 30
0.0
 40
0.5
100
AcDbArc
 50
180.0
 51
270.0
  0
ARC
  5
248
100
AcDbEntity
  8
0
  6
CONTINUOUS
 62
               7
100
AcDbCircle
 10
-27.5
 20
-2.1500000000000057
 30
0.0
 40
0.5
100
AcDbArc
 50
270.0
 51
0.0
  0
LINE
  5
249
100
AcDbEntity
  8
0
  6
CONTINUOUS
 62
               7
100
AcDbLine
 10
-27.599999999999966
 20
0.0
 30
0.0
 11
-27.599999999999966
 21
-2.6500000000000057
 31
0.0
  0
LINE
  5
24A
100
AcDbEntity
  8
0
  6
CONTINUOUS
 62
               7
100
AcDbLine
 10
-32.400000000000034
 20
0.0
 30
0.0
 11
-32.400000000000034
 21
-2.6500000000000057
 31
0.0
  0
ARC
  5
24B
100
AcDbEntity
  8
0
  6
CONTINUOUS
 62
               7
100
AcDbCircle
 10
-2.5
 20
2.1499999999999915
 30
0.0
 40
0.5
100
AcDbArc
 50
90.0
 51
180.0
  0
ARC
  5
24C
100
AcDbEntity
  8
0
  6
CONTINUOUS
 62
               7
100
AcDbCircle
 10
-27.5
 20
2.1499999999999915
 30
0.0
 40
0.5
100
AcDbArc
 50
0.0
 51
90.0
  0
CIRCLE
  5
24D
100
AcDbEntity
  8
0
  6
CONTINUOUS
 62
               7
100
AcDbCircle
 10
0.0
 20
0.0
 30
0.0
 40
1.8
  0
CIRCLE
  5
24E
100
AcDbEntity
  8
0
  6
CONTINUOUS
 62
               7
100
AcDbCircle
 10
-30.0
 20
0.0
 30
0.0
 40
1.8
  0
CIRCLE
  5
24F
100
AcDbEntity
  8
0
  6
CONTINUOUS
 62
               7
100
AcDbCircle
 10
-15.0
 20
12.349999999999994
 30
0.0
 40
1.75
  0
CIRCLE
  5
250
100
AcDbEntity
  8
0
  6
CONTINUOUS
 62
               7
100
AcDbCircle
 10
-15.0
 20
12.349999999999994
 30
0.0
 40
1.3999999999999999
  0
LINE
  5
251
100
AcDbEntity
  8
0
  6
CONTINUOUS
 62
               7
100
AcDbLine
 10
-9.5
 20
2.6499999999999915
 30
0.0
 11
-9.5
 21
1.6499999999999915
 31
0.0
  0
LINE
  5
252
100
AcDbEntity
  8
0
  6
CONTINUOUS
 62
               7
100
AcDbLine
 10
-20.5
 20
2.6499999999999915
 30
0.0
 11
-20.5
 21
1.6499999999999915
 31
0.0
  0
LINE
  5
253
100
AcDbEntity
  8
0
  6
CONTINUOUS
 62
               7
100
AcDbLine
 10
-20.5
 20
1.6499999999999915
 30
0.0
 11
-9.5
 21
1.6499999999999915
 31
0.0
  0
LINE
  5
254
100
AcDbEntity
  8
0
  6
CONTINUOUS
 62
               7
100
AcDbLine
 10
-20.5
 20
2.6499999999999915
 30
0.0
 11
-32.0
 21
2.6499999999999915
 31
0.0
  0
ENDBLK
  5
255
100
AcDbEntity
  8
0
100
AcDbBlockEnd
  0
ENDSEC
  0
SECTION
  2
ENTITIES
  0
MTEXT
  5
256
100
AcDbEntity
  8
0
  6
CONTINUOUS
 62
               7
100
AcDbMText
 10
-110.26666057904561
 20
69.5
 30
0.0
 40
3.2000000476837158
 41
0.0
 71
               4
 72
               1
  1
\A1;PSU-D
  0
MTEXT
  5
257
100
AcDbEntity
  8
0
  6
CONTINUOUS
 62
               7
100
AcDbMText
 10
-91.466660308837902
 20
88.599999904632568
 30
0.0
 40
3.1999998092651367
 41
0.0
 71
               1
 72
               1
  1
\A1;PSU
  0
INSERT
  5
258
100
AcDbEntity
  8
0
  6
ByBlock
100
AcDbBlockReference
  2
PSU-3
 10
-85.0
 20
40.0
 30
0.0
  0
INSERT
  5
259
100
AcDbEntity
  8
0
  6
ByBlock
100
AcDbBlockReference
  2
PSU-1
 10
-85.0
 20
-50.0
 30
0.0
  0
INSERT
  5
25A
100
AcDbEntity
  8
0
  6
ByBlock
100
AcDbBlockReference
  2
PSU-4
 10
100.0
 20
-50.0
 30
0.0
  0
INSERT
  5
25B
100
AcDbEntity
  8
0
  6
ByBlock
100
AcDbBlockReference
  2
PSU-2
 10
22.0
 20
-50.0
 30
0.0
  0
LINE
  5
25C
100
AcDbEntity
  8
0
  6
CONTINUOUS
 62
               7
100
AcDbLine
 10
-35.999993896484369
 20
94.5
 30
0.0
 11
-35.999993896484369
 21
84.5
 31
0.0
  0
LINE
  5
25D
100
AcDbEntity
  8
0
  6
CONTINUOUS
 62
               7
100
AcDbLine
 10
-138.39999389648437
 20
94.5
 30
0.0
 11
138.35000610351562
 21
94.5
 31
0.0
  0
LINE
  5
25E
100
AcDbEntity
  8
0
  6
CONTINUOUS
 62
               7
100
AcDbLine
 10
138.35000610351562
 20
94.5
 30
0.0
 11
138.35000610351562
 21
-94.800003051757812
 31
0.0
  0
LINE
  5
25F
100
AcDbEntity
  8
0
  6
CONTINUOUS
 62
               7
100
AcDbLine
 10
-138.39999389648437
 20
-94.800003051757812
 30
0.0
 11
138.35000610351562
 21
-94.800003051757812
 31
0.0
  0
LINE
  5
260
100
AcDbEntity
  8
0
  6
CONTINUOUS
 62
               7
100
AcDbLine
 10
-138.39999389648437
 20
94.5
 30
0.0
 11
-138.39999389648437
 21
-94.800003051757812
 31
0.0
  0
LINE
  5
261
100
AcDbEntity
  8
0
  6
CONTINUOUS
 62
               7
100
AcDbLine
 10
73.350006103515625
 20
-84.800003051757813
 30
0.0
 11
138.35000610351562
 21
-84.800003051757813
 31
0.0
  0
LINE
  5
262
100
AcDbEntity
  8
0
  6
CONTINUOUS
 62
               7
100
AcDbLine
 10
-138.39999389648437
 20
84.5
 30
0.0
 11
-35.999993896484369
 21
84.5
 31
0.0
  0
LINE
  5
263
100
AcDbEntity
  8
0
  6
CONTINUOUS
 62
               7
100
AcDbLine
 10
73.350006103515625
 20
84.5
 30
0.0
 11
138.35000610351562
 21
84.5
 31
0.0
  0
LINE
  5
264
100
AcDbEntity
  8
0
  6
CONTINUOUS
 62
               7
100
AcDbLine
 10
73.350006103515625
 20
-84.800003051757813
 30
0.0
 11
73.350006103515625
 21
-94.800003051757812
 31
0.0
  0
LINE
  5
265
100
AcDbEntity
  8
0
  6
CONTINUOUS
 62
               7
100
AcDbLine
 10
73.350006103515625
 20
94.5
 30
0.0
 11
73.350006103515625
 21
84.5
 31
0.0
  0
MTEXT
  5
266
100
AcDbEntity
  8
0
  6
CONTINUOUS
 62
               7
100
AcDbMText
 10
77.440523342735503
 20
-89.800003051757812
 30
0.0
 40
4.5
 41
0.0
 71
               4
 72
               1
  1
\W1.121;\A1;KOGANEI CORP.
  0
MTEXT
  5
267
100
AcDbEntity
  8
0
  6
CONTINUOUS
 62
               7
100
AcDbMText
 10
93.749460369842424
 20
89.5
 30
0.0
 40
3.1999998092651367
 41
0.0
 71
               4
 72
               1
  1
\W1.311;\A1;Ver. 1.0
  0
MTEXT
  5
268
100
AcDbEntity
  8
0
  6
CONTINUOUS
 62
               7
100
AcDbMText
 10
-136.24641954488627
 20
93.599999904632568
 30
0.0
 40
3.1999998092651367
 41
0.0
 71
               1
 72
               1
  1
\W1.038;\A1;MULTI-CHANNEL SENSOR CONTROLLER
  0
MTEXT
  5
269
100
AcDbEntity
  8
0
  6
CONTINUOUS
 62
               7
100
AcDbMText
 10
-129.42399391242981
 20
74.5
 30
0.0
 40
3.2000000476837158
 41
0.0
 71
               4
 72
               1
  1
\W1.080;\A1;MODEL:PSU
  0
ENDSEC
  0
SECTION
  2
OBJECTS
  0
DICTIONARY
  5
19
100
AcDbDictionary
  3
ACAD_GROUP
350
1A
  3
ACAD_MLINESTYLE
350
1B
  0
DICTIONARY
  5
1A
102
{ACAD_REACTORS
330
19
102
}
100
AcDbDictionary
  0
DICTIONARY
  5
1B
102
{ACAD_REACTORS
330
19
102
}
100
AcDbDictionary
  3
STANDARD
350
1C
  0
MLINESTYLE
  5
1C
102
{ACAD_REACTORS
330
1B
102
}
100
AcDbMlineStyle
  2
Standard
 70
               0
  3

 62
               0
 51
90.0
 52
90.0
 71
               2
 49
0.5
 62
             256
  6
ByLayer
 49
-0.5
 62
             256
  6
ByLayer
  0
ENDSEC
  0
EOF
