  0
SECTION
  2
HEADER
  9
$ACADVER
  1
AC1012
  9
$DWGCODEPAGE
  3
dos932
  9
$INSBASE
 10
0.0
 20
0.0
 30
0.0
  9
$EXTMIN
 10
-138.39999389648437
 20
-94.800003051757812
 30
0.0
  9
$EXTMAX
 10
138.35000610351562
 20
94.5
 30
0.0
  9
$LIMMIN
 10
-138.39999389648437
 20
-94.800003051757812
  9
$LIMMAX
 10
138.35000610351562
 20
94.5
  9
$ORTHOMODE
 70
               0
  9
$REGENMODE
 70
               1
  9
$FILLMODE
 70
               1
  9
$QTEXTMODE
 70
               0
  9
$MIRRTEXT
 70
               1
  9
$DRAGMODE
 70
               2
  9
$LTSCALE
 40
1.0
  9
$OSMODE
 70
               0
  9
$ATTMODE
 70
               1
  9
$TEXTSIZE
 40
3.2000000476837158
  9
$TRACEWID
 40
0.05
  9
$TEXTSTYLE
  7
MX_NOTE_STANDARD
  9
$CLAYER
  8
0
  9
$CELTYPE
  6
CONTINUOUS
  9
$CECOLOR
 62
             256
  9
$CELTSCALE
 40
1.0
  9
$DELOBJ
 70
               1
  9
$DISPSILH
 70
               0
  9
$DIMSCALE
 40
1.0
  9
$DIMASZ
 40
2.5
  9
$DIMEXO
 40
1.5
  9
$DIMDLI
 40
3.75
  9
$DIMRND
 40
0.0
  9
$DIMDLE
 40
0.0
  9
$DIMEXE
 40
1.5
  9
$DIMTP
 40
0.0
  9
$DIMTM
 40
0.0
  9
$DIMTXT
 40
3.2000000476837158
  9
$DIMCEN
 40
2.5
  9
$DIMTSZ
 40
0.0
  9
$DIMTOL
 70
               0
  9
$DIMLIM
 70
               0
  9
$DIMTIH
 70
               0
  9
$DIMTOH
 70
               0
  9
$DIMSE1
 70
               0
  9
$DIMSE2
 70
               0
  9
$DIMTAD
 70
               1
  9
$DIMZIN
 70
               8
  9
$DIMBLK
  1

  9
$DIMASO
 70
               1
  9
$DIMSHO
 70
               1
  9
$DIMPOST
  1

  9
$DIMAPOST
  1

  9
$DIMALT
 70
               0
  9
$DIMALTD
 70
               4
  9
$DIMALTF
 40
0.03937007874016
  9
$DIMLFAC
 40
1.0
  9
$DIMTOFL
 70
               1
  9
$DIMTVP
 40
0.0
  9
$DIMTIX
 70
               0
  9
$DIMSOXD
 70
               0
  9
$DIMSAH
 70
               0
  9
$DIMBLK1
  1

  9
$DIMBLK2
  1

  9
$DIMSTYLE
  2
MXDIMSTYLE
  9
$DIMCLRD
 70
               0
  9
$DIMCLRE
 70
               0
  9
$DIMCLRT
 70
               0
  9
$DIMTFAC
 40
1.0
  9
$DIMGAP
 40
1.0
  9
$DIMJUST
 70
               0
  9
$DIMSD1
 70
               0
  9
$DIMSD2
 70
               0
  9
$DIMTOLJ
 70
               1
  9
$DIMTZIN
 70
               0
  9
$DIMALTZ
 70
               0
  9
$DIMALTTZ
 70
               0
  9
$DIMFIT
 70
               3
  9
$DIMUPT
 70
               1
  9
$DIMUNIT
 70
               2
  9
$DIMDEC
 70
               4
  9
$DIMTDEC
 70
               4
  9
$DIMALTU
 70
               2
  9
$DIMALTTD
 70
               4
  9
$DIMTXSTY
  7
MX_NOTE_STANDARD
  9
$DIMAUNIT
 70
               0
  9
$LUNITS
 70
               2
  9
$LUPREC
 70
               4
  9
$SKETCHINC
 40
0.1
  9
$FILLETRAD
 40
0.0
  9
$AUNITS
 70
               0
  9
$AUPREC
 70
               0
  9
$MENU
  1
acad
  9
$ELEVATION
 40
0.0
  9
$PELEVATION
 40
0.0
  9
$THICKNESS
 40
0.0
  9
$LIMCHECK
 70
               0
  9
$BLIPMODE
 70
               1
  9
$CHAMFERA
 40
0.0
  9
$CHAMFERB
 40
0.0
  9
$CHAMFERC
 40
0.0
  9
$CHAMFERD
 40
0.0
  9
$SKPOLY
 70
               0
  9
$TDCREATE
 40
2453425.611736111
  9
$TDUPDATE
 40
2453425.611736111
  9
$TDINDWG
 40
0.0000000000
  9
$TDUSRTIMER
 40
0.0000000000
  9
$USRTIMER
 70
               1
  9
$ANGBASE
 50
0.0
  9
$ANGDIR
 70
               0
  9
$PDMODE
 70
               0
  9
$PDSIZE
 40
0.0
  9
$PLINEWID
 40
0.0
  9
$COORDS
 70
               1
  9
$SPLFRAME
 70
               0
  9
$SPLINETYPE
 70
               6
  9
$SPLINESEGS
 70
               8
  9
$ATTDIA
 70
               0
  9
$ATTREQ
 70
               1
  9
$HANDLING
 70
               1
  9
$HANDSEED
  5
1CB
  9
$SURFTAB1
 70
               6
  9
$SURFTAB2
 70
               6
  9
$SURFTYPE
 70
               6
  9
$SURFU
 70
               6
  9
$SURFV
 70
               6
  9
$UCSNAME
  2

  9
$UCSORG
 10
0.0
 20
0.0
 30
0.0
  9
$UCSXDIR
 10
1.0
 20
0.0
 30
0.0
  9
$UCSYDIR
 10
0.0
 20
1.0
 30
0.0
  9
$PUCSNAME
  2

  9
$PUCSORG
 10
0.0
 20
0.0
 30
0.0
  9
$PUCSXDIR
 10
1.0
 20
0.0
 30
0.0
  9
$PUCSYDIR
 10
0.0
 20
1.0
 30
0.0
  9
$USERI1
 70
               0
  9
$USERI2
 70
               0
  9
$USERI3
 70
               0
  9
$USERI4
 70
               0
  9
$USERI5
 70
               0
  9
$USERR1
 40
0.0
  9
$USERR2
 40
0.0
  9
$USERR3
 40
0.0
  9
$USERR4
 40
0.0
  9
$USERR5
 40
0.0
  9
$WORLDVIEW
 70
               1
  9
$SHADEDGE
 70
               3
  9
$SHADEDIF
 70
              70
  9
$TILEMODE
 70
               1
  9
$MAXACTVP
 70
              16
  9
$PINSBASE
 10
0.0
 20
0.0
 30
0.0
  9
$PLIMCHECK
 70
               0
  9
$PEXTMIN
 10
1.0000000000000000E+20
 20
1.0000000000000000E+20
 30
1.0000000000000000E+20
  9
$PEXTMAX
 10
-1.0000000000000000E+20
 20
-1.0000000000000000E+20
 30
-1.0000000000000000E+20
  9
$PLIMMIN
 10
0.0
 20
0.0
  9
$PLIMMAX
 10
12.0
 20
9.0
  9
$UNITMODE
 70
               0
  9
$VISRETAIN
 70
               0
  9
$PLINEGEN
 70
               1
  9
$PSLTSCALE
 70
               0
  9
$TREEDEPTH
 70
            3020
  9
$PICKSTYLE
 70
               1
  9
$CMLSTYLE
  2
Standard
  9
$CMLJUST
 70
               0
  9
$CMLSCALE
 40
1.0
  9
$SAVEIMAGES
 70
               0
  0
ENDSEC
  0
SECTION
  2
CLASSES
  0
CLASS
  1
LWPOLYLINE
  2
AcDbPolyline
  3
"AutoCAD"
 90
        0
280
               0
281
               1
  0
CLASS
  1
IMAGE
  2
AcDbRasterImage
  3
ISM
 90
      127
280
               0
281
               1
  0
CLASS
  1
OLE2FRAME
  2
AcDbOle2Frame
  3
""
 90
        0
280
               0
281
               1
  0
CLASS
  1
HATCH
  2
AcDbHatch
  3
"ACAD_SEDONA"
 90
        0
280
               0
281
               1
  0
CLASS
  1
DICTIONARYVAR
  2
AcDbDictionaryVar
  3
"AutoCAD"
 90
        0
280
               0
281
               0
  0
CLASS
  1
RASTERVARIABLES
  2
AcDbRasterVariables
  3
ISM
 90
        0
280
               0
281
               0
  0
CLASS
  1
IMAGEDEF
  2
AcDbRasterImageDef
  3
ISM
 90
        0
280
               0
281
               0
  0
CLASS
  1
IMAGEDEF_REACTOR
  2
AcDbRasterImageDefReactor
  3
ISM
 90
        1
280
               0
281
               0
  0
CLASS
  1
IDBUFFER
  2
AcDbIdBuffer
  3
"Acad"
 90
        0
280
               0
281
               0
  0
CLASS
  1
SPATIAL_FILTER
  2
AcDbSpatialFilter
  3
"Acad"
 90
        0
280
               0
281
               0
  0
CLASS
  1
XRECORD
  2
AcDbXrecord
  3
"<Built In>"
 90
        0
280
               0
281
               0
  0
CLASS
  1
SORTENTSTABLE
  2
AcDbSortentsTable
  3
"AutoCAD"
 90
        0
280
               0
281
               0
  0
CLASS
  1
LAYER_INDEX
  2
AcDbLayerIndex
  3
"Acad"
 90
        0
280
               0
281
               0
  0
CLASS
  1
SPATIAL_INDEX
  2
AcDbSpatialIndex
  3
"Acad"
 90
        0
280
               0
281
               0
  0
CLASS
  1
OBJECT_PTR
  2
CAseDLPNTableRecord
  3
"ASE-LPNTableRecord"
 90
        1
280
               0
281
               0
  0
CLASS
  1
LAYOUT
  2
AcDbLayout
  3
"AutoCAD 2000"
 90
        1
280
               0
281
               0
  0
CLASS
  1
PLOTSETTINGS
  2
AcDbPlotSettings
  3
"AutoCAD 2000"
 90
        1
280
               0
281
               0
  0
CLASS
  1
ACDBDICTIONARYWDFLT
  2
AcDbDictionaryWithDefault
  3
"AutoCAD 2000"
 90
        1
280
               0
281
               0
  0
CLASS
  1
ACDBPLACEHOLDER
  2
AcDbPlaceHolder
  3
"AutoCAD 2000"
 90
        1
280
               0
281
               0
  0
ENDSEC
  0
SECTION
  2
TABLES
  0
TABLE
  2
VPORT
  5
7
100
AcDbSymbolTable
 70
               1
  0
VPORT
  5
15
100
AcDbSymbolTableRecord
100
AcDbViewportTableRecord
  2
*ACTIVE
 70
               0
 10
0.0
 20
0.0
 11
1.0
 21
1.0
 12
-0.024993896484375
 22
-0.1500015258789063
 13
0.0
 23
0.0
 14
1.0
 24
1.0
 15
0.0
 25
0.0
 16
0.0
 26
0.0
 36
1.0
 17
0.0
 27
0.0
 37
0.0
 40
191.1930030822754
 41
1.7320508075688772
 42
50.0
 43
0.0
 44
0.0
 50
0.0
 51
0.0
 71
               0
 72
             100
 73
               1
 74
               1
 75
               0
 76
               0
 77
               0
 78
               0
  0
ENDTAB
  0
TABLE
  2
LTYPE
  5
4
100
AcDbSymbolTable
 70
               4
  0
LTYPE
  5
11
100
AcDbSymbolTableRecord
100
AcDbLinetypeTableRecord
  2
BYBLOCK
 70
              64
  3

 72
              65
 73
               0
 40
0.0
  0
LTYPE
  5
12
100
AcDbSymbolTableRecord
100
AcDbLinetypeTableRecord
  2
BYLAYER
 70
              64
  3

 72
              65
 73
               0
 40
0.0
  0
LTYPE
  5
13
100
AcDbSymbolTableRecord
100
AcDbLinetypeTableRecord
  2
CONTINUOUS
 70
              64
  3
Solid line
 72
              65
 73
               0
 40
0.0
  0
LTYPE
  5
104
100
AcDbSymbolTableRecord
100
AcDbLinetypeTableRecord
  2
CENTER
 70
              64
  3
Center ____ _ ____ _ ____ _ ____ _ ____ _ ____
 72
              65
 73
               4
 40
26.0
 49
20.0
 74
               0
 49
-2.0
 74
               0
 49
2.0
 74
               0
 49
-2.0
 74
               0
  0
ENDTAB
  0
TABLE
  2
LAYER
  5
2
100
AcDbSymbolTable
 70
               2
  0
LAYER
  5
14
100
AcDbSymbolTableRecord
100
AcDbLayerTableRecord
  2
0
 70
               0
 62
               7
  6
CONTINUOUS
  0
LAYER
  5
1D
100
AcDbSymbolTableRecord
100
AcDbLayerTableRecord
  2
DEFPOINTS
 70
               0
 62
               7
  6
CONTINUOUS
  0
ENDTAB
  0
TABLE
  2
STYLE
  5
3
100
AcDbSymbolTable
 70
               1
  0
STYLE
  5
17
100
AcDbSymbolTableRecord
100
AcDbTextStyleTableRecord
  2
MX_NOTE_STANDARD
 70
               0
 40
0.0
 41
1.0
 50
0.0
 71
               0
 42
3.2000000476837158
  3
txt.shx
  4
extfont.shx
  0
ENDTAB
  0
TABLE
  2
VIEW
  5
5
100
AcDbSymbolTable
 70
               0
  0
ENDTAB
  0
TABLE
  2
UCS
  5
6
100
AcDbSymbolTable
 70
               0
  0
ENDTAB
  0
TABLE
  2
APPID
  5
8
100
AcDbSymbolTable
 70
               1
  0
APPID
  5
16
100
AcDbSymbolTableRecord
100
AcDbRegAppTableRecord
  2
ACAD
 70
               0
  0
ENDTAB
  0
TABLE
  2
DIMSTYLE
  5
9
100
AcDbSymbolTable
 70
               1
  0
DIMSTYLE
105
18
100
AcDbSymbolTableRecord
100
AcDbDimStyleTableRecord
  2
MXDIMSTYLE
 70
               0
  3

  4

  5

  6

  7

 40
1.0
 41
2.5
 42
1.5
 43
3.75
 44
1.5
 45
0.0
 46
0.0
 47
0.0
 48
0.0
 71
               0
 72
               0
 73
               0
 74
               0
 75
               0
 76
               0
 77
               1
 78
               8
140
3.2000000476837158
141
2.5
142
0.0
143
0.03937007874016
144
1.0
145
0.0
146
1.0
147
1.0
170
               0
171
               4
172
               1
173
               0
174
               0
175
               0
176
               0
177
               0
178
               0
270
               2
271
               4
272
               4
273
               2
274
               4
275
               0
280
               0
281
               0
282
               0
283
               1
284
               0
285
               0
286
               0
287
               3
288
               1
340
17
  0
ENDTAB
  0
TABLE
  2
BLOCK_RECORD
  5
1
100
AcDbSymbolTable
 70
               3
  0
BLOCK_RECORD
  5
A
100
AcDbSymbolTableRecord
100
AcDbBlockTableRecord
  2
*MODEL_SPACE
  0
BLOCK_RECORD
  5
B
100
AcDbSymbolTableRecord
100
AcDbBlockTableRecord
  2
*PAPER_SPACE
  0
BLOCK_RECORD
  5
1E
100
AcDbSymbolTableRecord
100
AcDbBlockTableRecord
  2
PSU-P-C-1
  0
BLOCK_RECORD
  5
1F
100
AcDbSymbolTableRecord
100
AcDbBlockTableRecord
  2
PSU-P-C-2
  0
BLOCK_RECORD
  5
20
100
AcDbSymbolTableRecord
100
AcDbBlockTableRecord
  2
PSU-P-C-3
  0
ENDTAB
  0
ENDSEC
  0
SECTION
  2
BLOCKS
  0
BLOCK
  5
D
100
AcDbEntity
  8
0
100
AcDbBlockBegin
  2
*MODEL_SPACE
 70
               0
 10
0.0
 20
0.0
 30
0.0
  3
*MODEL_SPACE
  1

  0
ENDBLK
  5
E
100
AcDbEntity
  8
0
100
AcDbBlockEnd
  0
BLOCK
  5
F
100
AcDbEntity
 67
               1
  8
0
100
AcDbBlockBegin
  2
*PAPER_SPACE
 70
               0
 10
0.0
 20
0.0
 30
0.0
  3
*PAPER_SPACE
  1

  0
ENDBLK
  5
10
100
AcDbEntity
 67
               1
  8
0
100
AcDbBlockEnd
  0
BLOCK
  5
21
100
AcDbEntity
  8
0
100
AcDbBlockBegin
  2
PSU-P-C-1
 70
               0
 10
0.0
 20
0.0
 30
0.0
  3
PSU-P-C-1
  1

  0
LINE
  5
22
100
AcDbEntity
  8
0
  6
CONTINUOUS
 62
               7
100
AcDbLine
 10
-24.100000000000009
 20
25.599999973286444
 30
0.0
 11
24.100000000000009
 21
25.599999973286444
 31
0.0
  0
LINE
  5
23
100
AcDbEntity
  8
0
  6
CONTINUOUS
 62
               7
100
AcDbLine
 10
-24.100000000000009
 20
-25.600000026713573
 30
0.0
 11
24.100000000000009
 21
-25.600000026713573
 31
0.0
  0
LINE
  5
24
100
AcDbEntity
  8
0
  6
CONTINUOUS
 62
               7
100
AcDbLine
 10
-25.600000000000009
 20
-24.100000026713573
 30
0.0
 11
-25.600000000000009
 21
24.099999973286444
 31
0.0
  0
LINE
  5
25
100
AcDbEntity
  8
0
  6
CONTINUOUS
 62
               7
100
AcDbLine
 10
25.600000000000009
 20
-24.100000026713573
 30
0.0
 11
25.600000000000009
 21
24.099999973286444
 31
0.0
  0
ARC
  5
26
100
AcDbEntity
  8
0
  6
CONTINUOUS
 62
               7
100
AcDbCircle
 10
24.100000000000009
 20
24.099999973286444
 30
0.0
 40
1.5
100
AcDbArc
 50
0.0
 51
90.0
  0
ARC
  5
27
100
AcDbEntity
  8
0
  6
CONTINUOUS
 62
               7
100
AcDbCircle
 10
-24.100000000000009
 20
24.099999973286444
 30
0.0
 40
1.5
100
AcDbArc
 50
90.0
 51
180.0
  0
ARC
  5
28
100
AcDbEntity
  8
0
  6
CONTINUOUS
 62
               7
100
AcDbCircle
 10
-24.100000000000009
 20
-24.100000026713573
 30
0.0
 40
1.5
100
AcDbArc
 50
180.0
 51
270.0
  0
ARC
  5
29
100
AcDbEntity
  8
0
  6
CONTINUOUS
 62
               7
100
AcDbCircle
 10
24.100000000000009
 20
-24.100000026713573
 30
0.0
 40
1.5
100
AcDbArc
 50
270.0
 51
0.0
  0
LINE
  5
2A
100
AcDbEntity
  8
0
  6
CONTINUOUS
 62
               7
100
AcDbLine
 10
22.499999980280265
 20
16.999999973286421
 30
0.0
 11
24.600000000000009
 21
16.999999973286421
 31
0.0
  0
LINE
  5
2B
100
AcDbEntity
  8
0
  6
CONTINUOUS
 62
               7
100
AcDbLine
 10
22.499999980280265
 20
10.999999973286421
 30
0.0
 11
24.600000000000009
 21
10.999999973286421
 31
0.0
  0
LINE
  5
2C
100
AcDbEntity
  8
0
  6
CONTINUOUS
 62
               7
100
AcDbLine
 10
22.499999999999986
 20
16.999999973286421
 30
0.0
 11
22.499999999999986
 21
10.999999973286421
 31
0.0
  0
LINE
  5
2D
100
AcDbEntity
  8
0
  6
CONTINUOUS
 62
               7
100
AcDbLine
 10
23.499999980280265
 20
15.999999973286421
 30
0.0
 11
24.600000000000009
 21
15.999999973286421
 31
0.0
  0
LINE
  5
2E
100
AcDbEntity
  8
0
  6
CONTINUOUS
 62
               7
100
AcDbLine
 10
23.499999980280265
 20
11.999999973286421
 30
0.0
 11
24.600000000000009
 21
11.999999973286421
 31
0.0
  0
LINE
  5
2F
100
AcDbEntity
  8
0
  6
CONTINUOUS
 62
               7
100
AcDbLine
 10
23.499999999999986
 20
15.999999973286421
 30
0.0
 11
23.499999999999986
 21
11.999999973286421
 31
0.0
  0
LINE
  5
30
100
AcDbEntity
  8
0
  6
CONTINUOUS
 62
               7
100
AcDbLine
 10
24.600000000000009
 20
10.999999973286421
 30
0.0
 11
24.600000000000009
 21
16.999999973286421
 31
0.0
  0
LINE
  5
31
100
AcDbEntity
  8
0
  6
CONTINUOUS
 62
               7
100
AcDbLine
 10
24.600000000000009
 20
-11.000000026713579
 30
0.0
 11
24.600000000000009
 21
-17.000000026713579
 31
0.0
  0
LINE
  5
32
100
AcDbEntity
  8
0
  6
CONTINUOUS
 62
               7
100
AcDbLine
 10
23.499999999999986
 20
-16.000000026713579
 30
0.0
 11
23.499999999999986
 21
-12.000000026713579
 31
0.0
  0
LINE
  5
33
100
AcDbEntity
  8
0
  6
CONTINUOUS
 62
               7
100
AcDbLine
 10
23.499999980280265
 20
-12.000000026713579
 30
0.0
 11
24.600000000000009
 21
-12.000000026713579
 31
0.0
  0
LINE
  5
34
100
AcDbEntity
  8
0
  6
CONTINUOUS
 62
               7
100
AcDbLine
 10
23.499999980280265
 20
-16.000000026713579
 30
0.0
 11
24.600000000000009
 21
-16.000000026713579
 31
0.0
  0
LINE
  5
35
100
AcDbEntity
  8
0
  6
CONTINUOUS
 62
               7
100
AcDbLine
 10
22.499999999999986
 20
-17.000000026713579
 30
0.0
 11
22.499999999999986
 21
-11.000000026713579
 31
0.0
  0
LINE
  5
36
100
AcDbEntity
  8
0
  6
CONTINUOUS
 62
               7
100
AcDbLine
 10
22.499999980280265
 20
-11.000000026713579
 30
0.0
 11
24.600000000000009
 21
-11.000000026713579
 31
0.0
  0
LINE
  5
37
100
AcDbEntity
  8
0
  6
CONTINUOUS
 62
               7
100
AcDbLine
 10
22.499999980280265
 20
-17.000000026713579
 30
0.0
 11
24.600000000000009
 21
-17.000000026713579
 31
0.0
  0
LINE
  5
38
100
AcDbEntity
  8
0
  6
CONTINUOUS
 62
               7
100
AcDbLine
 10
-24.600000000000037
 20
10.999999973286421
 30
0.0
 11
-24.600000000000037
 21
16.999999973286421
 31
0.0
  0
LINE
  5
39
100
AcDbEntity
  8
0
  6
CONTINUOUS
 62
               7
100
AcDbLine
 10
-23.500000000000014
 20
15.999999973286421
 30
0.0
 11
-23.500000000000014
 21
11.999999973286421
 31
0.0
  0
LINE
  5
3A
100
AcDbEntity
  8
0
  6
CONTINUOUS
 62
               7
100
AcDbLine
 10
-23.499999980280293
 20
11.999999973286421
 30
0.0
 11
-24.600000000000037
 21
11.999999973286421
 31
0.0
  0
LINE
  5
3B
100
AcDbEntity
  8
0
  6
CONTINUOUS
 62
               7
100
AcDbLine
 10
-23.499999980280293
 20
15.999999973286421
 30
0.0
 11
-24.600000000000037
 21
15.999999973286421
 31
0.0
  0
LINE
  5
3C
100
AcDbEntity
  8
0
  6
CONTINUOUS
 62
               7
100
AcDbLine
 10
-22.500000000000014
 20
16.999999973286421
 30
0.0
 11
-22.500000000000014
 21
10.999999973286421
 31
0.0
  0
LINE
  5
3D
100
AcDbEntity
  8
0
  6
CONTINUOUS
 62
               7
100
AcDbLine
 10
-22.499999980280293
 20
10.999999973286421
 30
0.0
 11
-24.600000000000037
 21
10.999999973286421
 31
0.0
  0
LINE
  5
3E
100
AcDbEntity
  8
0
  6
CONTINUOUS
 62
               7
100
AcDbLine
 10
-22.499999980280293
 20
16.999999973286421
 30
0.0
 11
-24.600000000000037
 21
16.999999973286421
 31
0.0
  0
LINE
  5
3F
100
AcDbEntity
  8
0
  6
CONTINUOUS
 62
               7
100
AcDbLine
 10
-22.499999980280293
 20
-17.000000026713579
 30
0.0
 11
-24.600000000000037
 21
-17.000000026713579
 31
0.0
  0
LINE
  5
40
100
AcDbEntity
  8
0
  6
CONTINUOUS
 62
               7
100
AcDbLine
 10
-22.499999980280293
 20
-11.000000026713579
 30
0.0
 11
-24.600000000000037
 21
-11.000000026713579
 31
0.0
  0
LINE
  5
41
100
AcDbEntity
  8
0
  6
CONTINUOUS
 62
               7
100
AcDbLine
 10
-22.500000000000014
 20
-17.000000026713579
 30
0.0
 11
-22.500000000000014
 21
-11.000000026713579
 31
0.0
  0
LINE
  5
42
100
AcDbEntity
  8
0
  6
CONTINUOUS
 62
               7
100
AcDbLine
 10
-23.499999980280293
 20
-16.000000026713579
 30
0.0
 11
-24.600000000000037
 21
-16.000000026713579
 31
0.0
  0
LINE
  5
43
100
AcDbEntity
  8
0
  6
CONTINUOUS
 62
               7
100
AcDbLine
 10
-23.499999980280293
 20
-12.000000026713579
 30
0.0
 11
-24.600000000000037
 21
-12.000000026713579
 31
0.0
  0
LINE
  5
44
100
AcDbEntity
  8
0
  6
CONTINUOUS
 62
               7
100
AcDbLine
 10
-23.500000000000014
 20
-16.000000026713579
 30
0.0
 11
-23.500000000000014
 21
-12.000000026713579
 31
0.0
  0
LINE
  5
45
100
AcDbEntity
  8
0
  6
CONTINUOUS
 62
               7
100
AcDbLine
 10
-24.600000000000037
 20
-11.000000026713579
 30
0.0
 11
-24.600000000000037
 21
-17.000000026713579
 31
0.0
  0
LINE
  5
46
100
AcDbEntity
  8
0
  6
CONTINUOUS
 62
               7
100
AcDbLine
 10
-24.700000000000045
 20
-22.5
 30
0.0
 11
-24.700000000000045
 21
22.5
 31
0.0
  0
LINE
  5
47
100
AcDbEntity
  8
0
  6
CONTINUOUS
 62
               7
100
AcDbLine
 10
-27.700000000000045
 20
-22.5
 30
0.0
 11
-27.700000000000045
 21
22.5
 31
0.0
  0
LINE
  5
48
100
AcDbEntity
  8
0
  6
CONTINUOUS
 62
               7
100
AcDbLine
 10
-24.699999998916795
 20
-17.500000026713579
 30
0.0
 11
-27.699999998916795
 21
-17.500000026713579
 31
0.0
  0
LINE
  5
49
100
AcDbEntity
  8
0
  6
CONTINUOUS
 62
               7
100
AcDbLine
 10
-24.699999998916795
 20
17.499999973286421
 30
0.0
 11
-27.699999998916795
 21
17.499999973286421
 31
0.0
  0
LINE
  5
4A
100
AcDbEntity
  8
0
  6
CONTINUOUS
 62
               7
100
AcDbLine
 10
-24.699999998916795
 20
-22.500000026713579
 30
0.0
 11
-27.699999998916795
 21
-22.500000026713579
 31
0.0
  0
LINE
  5
4B
100
AcDbEntity
  8
0
  6
CONTINUOUS
 62
               7
100
AcDbLine
 10
-24.699999998916795
 20
22.499999973286421
 30
0.0
 11
-27.700000000000045
 21
22.499999973286421
 31
0.0
  0
LINE
  5
4C
100
AcDbEntity
  8
0
  6
CONTINUOUS
 62
               7
100
AcDbLine
 10
24.699999998916709
 20
-17.500000026713579
 30
0.0
 11
27.699999998916709
 21
-17.500000026713579
 31
0.0
  0
LINE
  5
4D
100
AcDbEntity
  8
0
  6
CONTINUOUS
 62
               7
100
AcDbLine
 10
24.699999998916709
 20
17.499999973286421
 30
0.0
 11
27.699999998916709
 21
17.499999973286421
 31
0.0
  0
LINE
  5
4E
100
AcDbEntity
  8
0
  6
CONTINUOUS
 62
               7
100
AcDbLine
 10
24.699999998916709
 20
-22.500000026713579
 30
0.0
 11
27.699999998916709
 21
-22.500000026713579
 31
0.0
  0
LINE
  5
4F
100
AcDbEntity
  8
0
  6
CONTINUOUS
 62
               7
100
AcDbLine
 10
24.699999998916709
 20
22.499999973286421
 30
0.0
 11
27.69999999999996
 21
22.499999973286421
 31
0.0
  0
LINE
  5
50
100
AcDbEntity
  8
0
  6
CONTINUOUS
 62
               7
100
AcDbLine
 10
27.69999999999996
 20
-22.5
 30
0.0
 11
27.69999999999996
 21
22.5
 31
0.0
  0
LINE
  5
51
100
AcDbEntity
  8
0
  6
CONTINUOUS
 62
               7
100
AcDbLine
 10
24.69999999999996
 20
-22.5
 30
0.0
 11
24.69999999999996
 21
22.5
 31
0.0
  0
LINE
  5
52
100
AcDbEntity
  8
0
  6
CONTINUOUS
 62
               2
100
AcDbLine
 10
-23.000000000000043
 20
-23.000000026713579
 30
0.0
 11
-24.000000000000043
 21
-24.000000026713579
 31
0.0
  0
LINE
  5
53
100
AcDbEntity
  8
0
  6
CONTINUOUS
 62
               2
100
AcDbLine
 10
-23.000000000000043
 20
22.999999973286421
 30
0.0
 11
-24.000000000000043
 21
23.999999973286421
 31
0.0
  0
LINE
  5
54
100
AcDbEntity
  8
0
  6
CONTINUOUS
 62
               2
100
AcDbLine
 10
22.999999999999957
 20
22.999999973286421
 30
0.0
 11
23.999999999999957
 21
23.999999973286421
 31
0.0
  0
LINE
  5
55
100
AcDbEntity
  8
0
  6
CONTINUOUS
 62
               2
100
AcDbLine
 10
22.999999999999957
 20
-23.000000026713579
 30
0.0
 11
23.999999999999957
 21
-24.000000026713579
 31
0.0
  0
LINE
  5
56
100
AcDbEntity
  8
0
  6
CONTINUOUS
 62
               2
100
AcDbLine
 10
-23.000000000000043
 20
-23.000000026713579
 30
0.0
 11
22.999999999999957
 21
-23.000000026713579
 31
0.0
  0
LINE
  5
57
100
AcDbEntity
  8
0
  6
CONTINUOUS
 62
               2
100
AcDbLine
 10
-23.000000000000043
 20
-23.000000026713579
 30
0.0
 11
-23.000000000000043
 21
22.999999973286421
 31
0.0
  0
LINE
  5
58
100
AcDbEntity
  8
0
  6
CONTINUOUS
 62
               2
100
AcDbLine
 10
-23.000000000000043
 20
22.999999973286421
 30
0.0
 11
22.999999999999957
 21
22.999999973286421
 31
0.0
  0
LINE
  5
59
100
AcDbEntity
  8
0
  6
CONTINUOUS
 62
               2
100
AcDbLine
 10
22.999999999999957
 20
-23.000000026713579
 30
0.0
 11
22.999999999999957
 21
22.999999973286421
 31
0.0
  0
LINE
  5
5A
100
AcDbEntity
  8
0
  6
CONTINUOUS
 62
               7
100
AcDbLine
 10
23.999999999999957
 20
-24.000000026713579
 30
0.0
 11
23.999999999999957
 21
23.999999973286421
 31
0.0
  0
LINE
  5
5B
100
AcDbEntity
  8
0
  6
CONTINUOUS
 62
               7
100
AcDbLine
 10
-24.000000000000043
 20
-24.000000026713579
 30
0.0
 11
-24.000000000000043
 21
23.999999973286421
 31
0.0
  0
LINE
  5
5C
100
AcDbEntity
  8
0
  6
CONTINUOUS
 62
               7
100
AcDbLine
 10
-24.000000000000043
 20
-24.000000026713579
 30
0.0
 11
23.999999999999957
 21
-24.000000026713579
 31
0.0
  0
LINE
  5
5D
100
AcDbEntity
  8
0
  6
CONTINUOUS
 62
               7
100
AcDbLine
 10
-24.000000000000043
 20
23.999999973286421
 30
0.0
 11
23.999999999999957
 21
23.999999973286421
 31
0.0
  0
LINE
  5
5E
100
AcDbEntity
  8
0
  6
CONTINUOUS
 62
               7
100
AcDbLine
 10
-7.946694904047547
 20
5.4000576810564098
 30
0.0
 11
-8.3137172957588064
 21
5.8374577004477004
 31
0.0
  0
LINE
  5
5F
100
AcDbEntity
  8
0
  6
CONTINUOUS
 62
               7
100
AcDbLine
 10
-11.499875505811062
 20
5.4000576810564098
 30
0.0
 11
-10.978603157901517
 21
5.8374577004477004
 31
0.0
  0
LINE
  5
60
100
AcDbEntity
  8
0
  6
CONTINUOUS
 62
               7
100
AcDbLine
 10
-7.946694904047547
 20
5.4000576810564098
 30
0.0
 11
-11.499875505811062
 21
5.4000576810564098
 31
0.0
  0
LINE
  5
61
100
AcDbEntity
  8
0
  6
CONTINUOUS
 62
               7
100
AcDbLine
 10
-10.978603157901517
 20
5.8374577004477004
 30
0.0
 11
-8.3137172957588064
 21
5.8374577004477004
 31
0.0
  0
LINE
  5
62
100
AcDbEntity
  8
0
  6
CONTINUOUS
 62
               7
100
AcDbLine
 10
-10.548252277222716
 20
8.2780973206487687
 30
0.0
 11
-10.953837568803522
 21
8.4967973303444495
 31
0.0
  0
LINE
  5
63
100
AcDbEntity
  8
0
  6
CONTINUOUS
 62
               7
100
AcDbLine
 10
-10.471127281403511
 20
8.7154973400401303
 30
0.0
 11
-10.953837568803522
 21
8.4967973303444495
 31
0.0
  0
LINE
  5
64
100
AcDbEntity
  8
0
  6
CONTINUOUS
 62
               7
100
AcDbLine
 10
-10.471127281403511
 20
8.7154973400401303
 30
0.0
 11
-10.415940520956951
 21
9.0284728003152566
 31
0.0
  0
LINE
  5
65
100
AcDbEntity
  8
0
  6
CONTINUOUS
 62
               7
100
AcDbLine
 10
-10.03235295115131
 20
11.203908040759096
 30
0.0
 11
-10.399375307422517
 21
11.641308060150322
 31
0.0
  0
LINE
  5
66
100
AcDbEntity
  8
0
  6
CONTINUOUS
 62
               7
100
AcDbLine
 10
-10.846695559253632
 20
9.1044264388825695
 30
0.0
 11
-10.399375307422517
 21
11.641308060150322
 31
0.0
  0
LINE
  5
67
100
AcDbEntity
  8
0
  6
CONTINUOUS
 62
               7
100
AcDbLine
 10
-10.415940520956951
 20
9.0284728003152566
 30
0.0
 11
-10.03235295115131
 21
11.203908040759096
 31
0.0
  0
LINE
  5
68
100
AcDbEntity
  8
0
  6
CONTINUOUS
 62
               7
100
AcDbLine
 10
-7.4006561276800511
 20
8.4967973303444495
 30
0.0
 11
-7.8833664150801042
 21
8.2780973206487687
 31
0.0
  0
LINE
  5
69
100
AcDbEntity
  8
0
  6
CONTINUOUS
 62
               7
100
AcDbLine
 10
-7.4006561276800511
 20
8.4967973303444495
 30
0.0
 11
-7.8062414192608713
 21
8.7154973400401303
 31
0.0
  0
LINE
  5
6A
100
AcDbEntity
  8
0
  6
CONTINUOUS
 62
               7
100
AcDbLine
 10
-7.3674670890085991
 20
11.203908040759096
 30
0.0
 11
-6.8392838207926019
 21
11.641308060150322
 31
0.0
  0
LINE
  5
6B
100
AcDbEntity
  8
0
  6
CONTINUOUS
 62
               7
100
AcDbLine
 10
-7.8062414192608713
 20
8.7154973400401303
 30
0.0
 11
-7.3674670890085991
 21
11.203908040759096
 31
0.0
  0
LINE
  5
6C
100
AcDbEntity
  8
0
  6
CONTINUOUS
 62
               7
100
AcDbLine
 10
-7.4006561276800511
 20
8.4967973303444495
 30
0.0
 11
-6.8461938662989894
 21
11.641308060150322
 31
0.0
  0
LINE
  5
6D
100
AcDbEntity
  8
0
  6
CONTINUOUS
 62
               7
100
AcDbLine
 10
-7.3674670890085991
 20
11.203908040759096
 30
0.0
 11
-10.03235295115131
 21
11.203908040759096
 31
0.0
  0
LINE
  5
6E
100
AcDbEntity
  8
0
  6
CONTINUOUS
 62
               7
100
AcDbLine
 10
-7.8833664150801042
 20
8.2780973206487687
 30
0.0
 11
-10.548252277222716
 21
8.2780973206487687
 31
0.0
  0
LINE
  5
6F
100
AcDbEntity
  8
0
  6
CONTINUOUS
 62
               7
100
AcDbLine
 10
-7.8062414192608713
 20
8.7154973400401303
 30
0.0
 11
-10.471127281403511
 21
8.7154973400401303
 31
0.0
  0
LINE
  5
70
100
AcDbEntity
  8
0
  6
CONTINUOUS
 62
               7
100
AcDbLine
 10
-6.8392838207926019
 20
11.641308060150322
 30
0.0
 11
-10.399375307422517
 21
11.641308060150322
 31
0.0
  0
LINE
  5
71
100
AcDbEntity
  8
0
  6
CONTINUOUS
 62
               7
100
AcDbLine
 10
-7.946694904047547
 20
5.4000576810564098
 30
0.0
 11
-7.4006561276800511
 21
8.4967973303444495
 31
0.0
  0
LINE
  5
72
100
AcDbEntity
  8
0
  6
CONTINUOUS
 62
               7
100
AcDbLine
 10
-8.3137172957588064
 20
5.8374577004477004
 30
0.0
 11
-7.8833664150801042
 21
8.2780973206487687
 31
0.0
  0
LINE
  5
73
100
AcDbEntity
  8
0
  6
CONTINUOUS
 62
               7
100
AcDbLine
 10
-11.499875505811062
 20
5.4000576810564098
 30
0.0
 11
-10.846695559253632
 21
9.1044264388825695
 31
0.0
  0
LINE
  5
74
100
AcDbEntity
  8
0
  6
CONTINUOUS
 62
               7
100
AcDbLine
 10
-10.978603157901517
 20
5.8374577004477004
 30
0.0
 11
-10.548252277222716
 21
8.2780973206487687
 31
0.0
  0
LINE
  5
75
100
AcDbEntity
  8
0
  6
CONTINUOUS
 62
               7
100
AcDbLine
 10
-1.8314949040475454
 20
5.4000576810564098
 30
0.0
 11
-2.1985172957588048
 21
5.8374577004477004
 31
0.0
  0
LINE
  5
76
100
AcDbEntity
  8
0
  6
CONTINUOUS
 62
               7
100
AcDbLine
 10
-5.3846755058110602
 20
5.4000576810564098
 30
0.0
 11
-4.8634031579015158
 21
5.8374577004477004
 31
0.0
  0
LINE
  5
77
100
AcDbEntity
  8
0
  6
CONTINUOUS
 62
               7
100
AcDbLine
 10
-1.8314949040475454
 20
5.4000576810564098
 30
0.0
 11
-5.3846755058110602
 21
5.4000576810564098
 31
0.0
  0
LINE
  5
78
100
AcDbEntity
  8
0
  6
CONTINUOUS
 62
               7
100
AcDbLine
 10
-4.8634031579015158
 20
5.8374577004477004
 30
0.0
 11
-2.1985172957588048
 21
5.8374577004477004
 31
0.0
  0
LINE
  5
79
100
AcDbEntity
  8
0
  6
CONTINUOUS
 62
               7
100
AcDbLine
 10
-4.4330522772226999
 20
8.2780973206487687
 30
0.0
 11
-4.8386375688035201
 21
8.4967973303444495
 31
0.0
  0
LINE
  5
7A
100
AcDbEntity
  8
0
  6
CONTINUOUS
 62
               7
100
AcDbLine
 10
-4.3559272814035097
 20
8.7154973400401303
 30
0.0
 11
-4.8386375688035201
 21
8.4967973303444495
 31
0.0
  0
LINE
  5
7B
100
AcDbEntity
  8
0
  6
CONTINUOUS
 62
               7
100
AcDbLine
 10
-4.3559272814035097
 20
8.7154973400401303
 30
0.0
 11
-4.3007405209569498
 21
9.0284728003152566
 31
0.0
  0
LINE
  5
7C
100
AcDbEntity
  8
0
  6
CONTINUOUS
 62
               7
100
AcDbLine
 10
-3.9171529511512944
 20
11.203908040759096
 30
0.0
 11
-4.2841753074225153
 21
11.641308060150322
 31
0.0
  0
LINE
  5
7D
100
AcDbEntity
  8
0
  6
CONTINUOUS
 62
               7
100
AcDbLine
 10
-4.7314955592536307
 20
9.1044264388825695
 30
0.0
 11
-4.2841753074225153
 21
11.641308060150322
 31
0.0
  0
LINE
  5
7E
100
AcDbEntity
  8
0
  6
CONTINUOUS
 62
               7
100
AcDbLine
 10
-4.3007405209569498
 20
9.0284728003152566
 30
0.0
 11
-3.9171529511512944
 21
11.203908040759096
 31
0.0
  0
LINE
  5
7F
100
AcDbEntity
  8
0
  6
CONTINUOUS
 62
               7
100
AcDbLine
 10
-1.2854561276800496
 20
8.4967973303444495
 30
0.0
 11
-1.7681664150801026
 21
8.2780973206487687
 31
0.0
  0
LINE
  5
80
100
AcDbEntity
  8
0
  6
CONTINUOUS
 62
               7
100
AcDbLine
 10
-1.2854561276800496
 20
8.4967973303444495
 30
0.0
 11
-1.6910414192608698
 21
8.7154973400401303
 31
0.0
  0
LINE
  5
81
100
AcDbEntity
  8
0
  6
CONTINUOUS
 62
               7
100
AcDbLine
 10
-1.2522670890085976
 20
11.203908040759096
 30
0.0
 11
-0.7240838207925862
 21
11.641308060150322
 31
0.0
  0
LINE
  5
82
100
AcDbEntity
  8
0
  6
CONTINUOUS
 62
               7
100
AcDbLine
 10
-1.6910414192608698
 20
8.7154973400401303
 30
0.0
 11
-1.2522670890085976
 21
11.203908040759096
 31
0.0
  0
LINE
  5
83
100
AcDbEntity
  8
0
  6
CONTINUOUS
 62
               7
100
AcDbLine
 10
-1.2854561276800496
 20
8.4967973303444495
 30
0.0
 11
-0.7309938662989879
 21
11.641308060150322
 31
0.0
  0
LINE
  5
84
100
AcDbEntity
  8
0
  6
CONTINUOUS
 62
               7
100
AcDbLine
 10
-1.2522670890085976
 20
11.203908040759096
 30
0.0
 11
-3.9171529511512944
 21
11.203908040759096
 31
0.0
  0
LINE
  5
85
100
AcDbEntity
  8
0
  6
CONTINUOUS
 62
               7
100
AcDbLine
 10
-1.7681664150801026
 20
8.2780973206487687
 30
0.0
 11
-4.4330522772226999
 21
8.2780973206487687
 31
0.0
  0
LINE
  5
86
100
AcDbEntity
  8
0
  6
CONTINUOUS
 62
               7
100
AcDbLine
 10
-1.6910414192608698
 20
8.7154973400401303
 30
0.0
 11
-4.3559272814035097
 21
8.7154973400401303
 31
0.0
  0
LINE
  5
87
100
AcDbEntity
  8
0
  6
CONTINUOUS
 62
               7
100
AcDbLine
 10
-0.7240838207925862
 20
11.641308060150322
 30
0.0
 11
-4.2841753074225153
 21
11.641308060150322
 31
0.0
  0
LINE
  5
88
100
AcDbEntity
  8
0
  6
CONTINUOUS
 62
               7
100
AcDbLine
 10
-1.8314949040475454
 20
5.4000576810564098
 30
0.0
 11
-1.2854561276800496
 21
8.4967973303444495
 31
0.0
  0
LINE
  5
89
100
AcDbEntity
  8
0
  6
CONTINUOUS
 62
               7
100
AcDbLine
 10
-2.1985172957588048
 20
5.8374577004477004
 30
0.0
 11
-1.7681664150801026
 21
8.2780973206487687
 31
0.0
  0
LINE
  5
8A
100
AcDbEntity
  8
0
  6
CONTINUOUS
 62
               7
100
AcDbLine
 10
-5.3846755058110602
 20
5.4000576810564098
 30
0.0
 11
-4.7314955592536307
 21
9.1044264388825695
 31
0.0
  0
LINE
  5
8B
100
AcDbEntity
  8
0
  6
CONTINUOUS
 62
               7
100
AcDbLine
 10
-4.8634031579015158
 20
5.8374577004477004
 30
0.0
 11
-4.4330522772226999
 21
8.2780973206487687
 31
0.0
  0
LINE
  5
8C
100
AcDbEntity
  8
0
  6
CONTINUOUS
 62
               7
100
AcDbLine
 10
1.2517968420985
 20
5.8374577004477004
 30
0.0
 11
1.6821477227773016
 21
8.2780973206487687
 31
0.0
  0
LINE
  5
8D
100
AcDbEntity
  8
0
  6
CONTINUOUS
 62
               7
100
AcDbLine
 10
0.7305244941889413
 20
5.4000576810564098
 30
0.0
 11
1.3837044407463708
 21
9.1044264388825695
 31
0.0
  0
LINE
  5
8E
100
AcDbEntity
  8
0
  6
CONTINUOUS
 62
               7
100
AcDbLine
 10
6.846194703315561
 20
5.3586918864225197
 30
0.0
 11
7.4993746498729621
 21
9.0630606442486794
 31
0.0
  0
LINE
  5
8F
100
AcDbEntity
  8
0
  6
CONTINUOUS
 62
               7
100
AcDbLine
 10
10.399375307422432
 20
5.3586918864225197
 30
0.0
 11
10.945414081446543
 21
8.4554306609106078
 31
0.0
  0
LINE
  5
90
100
AcDbEntity
  8
0
  6
CONTINUOUS
 62
               7
100
AcDbLine
 10
7.3674679260251708
 20
5.7960919058138813
 30
0.0
 11
7.7978179319038787
 21
8.2367306512148559
 31
0.0
  0
LINE
  5
91
100
AcDbEntity
  8
0
  6
CONTINUOUS
 62
               7
100
AcDbLine
 10
10.032353788167711
 20
5.7960919058138813
 30
0.0
 11
10.462703794046519
 21
8.2367306512148559
 31
0.0
  0
LINE
  5
92
100
AcDbEntity
  8
0
  6
CONTINUOUS
 62
               7
100
AcDbLine
 10
3.9166827042411967
 20
5.8374577004477004
 30
0.0
 11
4.3470335849198989
 21
8.2780973206487687
 31
0.0
  0
LINE
  5
93
100
AcDbEntity
  8
0
  6
CONTINUOUS
 62
               7
100
AcDbLine
 10
4.2837050959524561
 20
5.4000576810564098
 30
0.0
 11
4.8297438723199519
 21
8.4967973303444495
 31
0.0
  0
LINE
  5
94
100
AcDbEntity
  8
0
  6
CONTINUOUS
 62
               7
100
AcDbLine
 10
5.3911161792074154
 20
11.641308060150322
 30
0.0
 11
1.8310246925774862
 21
11.641308060150322
 31
0.0
  0
LINE
  5
95
100
AcDbEntity
  8
0
  6
CONTINUOUS
 62
               7
100
AcDbLine
 10
4.4241585807391317
 20
8.7154973400401303
 30
0.0
 11
1.759272718596506
 21
8.7154973400401303
 31
0.0
  0
LINE
  5
96
100
AcDbEntity
  8
0
  6
CONTINUOUS
 62
               7
100
AcDbLine
 10
4.3470335849198989
 20
8.2780973206487687
 30
0.0
 11
1.6821477227773016
 21
8.2780973206487687
 31
0.0
  0
LINE
  5
97
100
AcDbEntity
  8
0
  6
CONTINUOUS
 62
               7
100
AcDbLine
 10
4.8629329109914039
 20
11.203908040759096
 30
0.0
 11
2.1980470488487072
 21
11.203908040759096
 31
0.0
  0
LINE
  5
98
100
AcDbEntity
  8
0
  6
CONTINUOUS
 62
               7
100
AcDbLine
 10
4.8297438723199519
 20
8.4967973303444495
 30
0.0
 11
5.3842061337010279
 21
11.641308060150322
 31
0.0
  0
LINE
  5
99
100
AcDbEntity
  8
0
  6
CONTINUOUS
 62
               7
100
AcDbLine
 10
4.4241585807391317
 20
8.7154973400401303
 30
0.0
 11
4.8629329109914039
 21
11.203908040759096
 31
0.0
  0
LINE
  5
9A
100
AcDbEntity
  8
0
  6
CONTINUOUS
 62
               7
100
AcDbLine
 10
10.945414081446543
 20
8.4554306609106078
 30
0.0
 11
11.499876342827505
 21
11.599941390716481
 31
0.0
  0
LINE
  5
9B
100
AcDbEntity
  8
0
  6
CONTINUOUS
 62
               7
100
AcDbLine
 10
7.4993746498729621
 20
9.0630606442486794
 30
0.0
 11
7.9466957765041712
 21
11.599941390716481
 31
0.0
  0
LINE
  5
9C
100
AcDbEntity
  8
0
  6
CONTINUOUS
 62
               7
100
AcDbLine
 10
7.930129688169643
 20
8.9871070056813736
 30
0.0
 11
8.3137172579753553
 21
11.162541371325183
 31
0.0
  0
LINE
  5
9D
100
AcDbEntity
  8
0
  6
CONTINUOUS
 62
               7
100
AcDbLine
 10
10.539829664665717
 20
8.6741306706062176
 30
0.0
 11
10.978603120117995
 21
11.162541371325183
 31
0.0
  0
LINE
  5
9E
100
AcDbEntity
  8
0
  6
CONTINUOUS
 62
               7
100
AcDbLine
 10
4.8629329109914039
 20
11.203908040759096
 30
0.0
 11
5.3911161792074154
 21
11.641308060150322
 31
0.0
  0
LINE
  5
9F
100
AcDbEntity
  8
0
  6
CONTINUOUS
 62
               7
100
AcDbLine
 10
11.506786388333893
 20
11.599941390716481
 30
0.0
 11
7.9466957765041712
 21
11.599941390716481
 31
0.0
  0
LINE
  5
A0
100
AcDbEntity
  8
0
  6
CONTINUOUS
 62
               7
100
AcDbLine
 10
10.978603120117995
 20
11.162541371325183
 30
0.0
 11
11.506786388333893
 21
11.599941390716481
 31
0.0
  0
LINE
  5
A1
100
AcDbEntity
  8
0
  6
CONTINUOUS
 62
               7
100
AcDbLine
 10
8.3137172579753553
 20
11.162541371325183
 30
0.0
 11
7.9466957765041712
 21
11.599941390716481
 31
0.0
  0
LINE
  5
A2
100
AcDbEntity
  8
0
  6
CONTINUOUS
 62
               7
100
AcDbLine
 10
10.978603120117995
 20
11.162541371325183
 30
0.0
 11
8.3137172579753553
 21
11.162541371325183
 31
0.0
  0
LINE
  5
A3
100
AcDbEntity
  8
0
  6
CONTINUOUS
 62
               7
100
AcDbLine
 10
4.8297438723199519
 20
8.4967973303444495
 30
0.0
 11
4.4241585807391317
 21
8.7154973400401303
 31
0.0
  0
LINE
  5
A4
100
AcDbEntity
  8
0
  6
CONTINUOUS
 62
               7
100
AcDbLine
 10
4.8297438723199519
 20
8.4967973303444495
 30
0.0
 11
4.3470335849198989
 21
8.2780973206487687
 31
0.0
  0
LINE
  5
A5
100
AcDbEntity
  8
0
  6
CONTINUOUS
 62
               7
100
AcDbLine
 10
10.945414081446543
 20
8.4554306609106078
 30
0.0
 11
10.462703794046519
 21
8.2367306512148559
 31
0.0
  0
LINE
  5
A6
100
AcDbEntity
  8
0
  6
CONTINUOUS
 62
               7
100
AcDbLine
 10
10.945414081446543
 20
8.4554306609106078
 30
0.0
 11
10.539829664665717
 21
8.6741306706062176
 31
0.0
  0
LINE
  5
A7
100
AcDbEntity
  8
0
  6
CONTINUOUS
 62
               7
100
AcDbLine
 10
7.7978179319038787
 20
8.2367306512148559
 30
0.0
 11
7.3922335151230669
 21
8.4554306609106078
 31
0.0
  0
LINE
  5
A8
100
AcDbEntity
  8
0
  6
CONTINUOUS
 62
               7
100
AcDbLine
 10
7.8749438025230774
 20
8.6741306706062176
 30
0.0
 11
7.3922335151230669
 21
8.4554306609106078
 31
0.0
  0
LINE
  5
A9
100
AcDbEntity
  8
0
  6
CONTINUOUS
 62
               7
100
AcDbLine
 10
10.462703794046519
 20
8.2367306512148559
 30
0.0
 11
7.7978179319038787
 21
8.2367306512148559
 31
0.0
  0
LINE
  5
AA
100
AcDbEntity
  8
0
  6
CONTINUOUS
 62
               7
100
AcDbLine
 10
10.539829664665717
 20
8.6741306706062176
 30
0.0
 11
7.8749438025230774
 21
8.6741306706062176
 31
0.0
  0
LINE
  5
AB
100
AcDbEntity
  8
0
  6
CONTINUOUS
 62
               7
100
AcDbLine
 10
7.8749438025230774
 20
8.6741306706062176
 30
0.0
 11
7.930129688169643
 21
8.9871070056813736
 31
0.0
  0
LINE
  5
AC
100
AcDbEntity
  8
0
  6
CONTINUOUS
 62
               7
100
AcDbLine
 10
1.8144594790430517
 20
9.0284728003152566
 30
0.0
 11
2.1980470488487072
 21
11.203908040759096
 31
0.0
  0
LINE
  5
AD
100
AcDbEntity
  8
0
  6
CONTINUOUS
 62
               7
100
AcDbLine
 10
1.3837044407463708
 20
9.1044264388825695
 30
0.0
 11
1.8310246925774862
 21
11.641308060150322
 31
0.0
  0
LINE
  5
AE
100
AcDbEntity
  8
0
  6
CONTINUOUS
 62
               7
100
AcDbLine
 10
2.1980470488487072
 20
11.203908040759096
 30
0.0
 11
1.8310246925774862
 21
11.641308060150322
 31
0.0
  0
LINE
  5
AF
100
AcDbEntity
  8
0
  6
CONTINUOUS
 62
               7
100
AcDbLine
 10
1.759272718596506
 20
8.7154973400401303
 30
0.0
 11
1.8144594790430517
 21
9.0284728003152566
 31
0.0
  0
LINE
  5
B0
100
AcDbEntity
  8
0
  6
CONTINUOUS
 62
               7
100
AcDbLine
 10
1.759272718596506
 20
8.7154973400401303
 30
0.0
 11
1.2765624311964814
 21
8.4967973303444495
 31
0.0
  0
LINE
  5
B1
100
AcDbEntity
  8
0
  6
CONTINUOUS
 62
               7
100
AcDbLine
 10
1.6821477227773016
 20
8.2780973206487687
 30
0.0
 11
1.2765624311964814
 21
8.4967973303444495
 31
0.0
  0
LINE
  5
B2
100
AcDbEntity
  8
0
  6
CONTINUOUS
 62
               7
100
AcDbLine
 10
1.2517968420985
 20
5.8374577004477004
 30
0.0
 11
3.9166827042411967
 21
5.8374577004477004
 31
0.0
  0
LINE
  5
B3
100
AcDbEntity
  8
0
  6
CONTINUOUS
 62
               7
100
AcDbLine
 10
7.3674679260251708
 20
5.7960919058138813
 30
0.0
 11
10.032353788167711
 21
5.7960919058138813
 31
0.0
  0
LINE
  5
B4
100
AcDbEntity
  8
0
  6
CONTINUOUS
 62
               7
100
AcDbLine
 10
10.399375307422432
 20
5.3586918864225197
 30
0.0
 11
6.846194703315561
 21
5.3586918864225197
 31
0.0
  0
LINE
  5
B5
100
AcDbEntity
  8
0
  6
CONTINUOUS
 62
               7
100
AcDbLine
 10
4.2837050959524561
 20
5.4000576810564098
 30
0.0
 11
0.7305244941889413
 21
5.4000576810564098
 31
0.0
  0
LINE
  5
B6
100
AcDbEntity
  8
0
  6
CONTINUOUS
 62
               7
100
AcDbLine
 10
0.7305244941889413
 20
5.4000576810564098
 30
0.0
 11
1.2517968420985
 21
5.8374577004477004
 31
0.0
  0
LINE
  5
B7
100
AcDbEntity
  8
0
  6
CONTINUOUS
 62
               7
100
AcDbLine
 10
4.2837050959524561
 20
5.4000576810564098
 30
0.0
 11
3.9166827042411967
 21
5.8374577004477004
 31
0.0
  0
LINE
  5
B8
100
AcDbEntity
  8
0
  6
CONTINUOUS
 62
               7
100
AcDbLine
 10
6.846194703315561
 20
5.3586918864225197
 30
0.0
 11
7.3674679260251708
 21
5.7960919058138813
 31
0.0
  0
LINE
  5
B9
100
AcDbEntity
  8
0
  6
CONTINUOUS
 62
               7
100
AcDbLine
 10
10.399375307422432
 20
5.3586918864225197
 30
0.0
 11
10.032353788167711
 21
5.7960919058138813
 31
0.0
  0
LINE
  5
BA
100
AcDbEntity
  8
0
  6
CONTINUOUS
 62
               7
100
AcDbLine
 10
-18.500000000000043
 20
-18.000000026713579
 30
0.0
 11
-18.500000000000043
 21
17.999999973286421
 31
0.0
  0
LINE
  5
BB
100
AcDbEntity
  8
0
  6
CONTINUOUS
 62
               7
100
AcDbLine
 10
14.999999999999957
 20
14.249999973286421
 30
0.0
 11
14.999999999999957
 21
2.7499999732864211
 31
0.0
  0
LINE
  5
BC
100
AcDbEntity
  8
0
  6
CONTINUOUS
 62
               7
100
AcDbLine
 10
-15.000000000000043
 20
14.249999973286421
 30
0.0
 11
-15.000000000000043
 21
2.7499999732864211
 31
0.0
  0
LINE
  5
BD
100
AcDbEntity
  8
0
  6
CONTINUOUS
 62
               7
100
AcDbLine
 10
14.999999999999957
 20
2.7499999732864211
 30
0.0
 11
-15.000000000000043
 21
2.7499999732864211
 31
0.0
  0
LINE
  5
BE
100
AcDbEntity
  8
0
  6
CONTINUOUS
 62
               7
100
AcDbLine
 10
14.999999999999957
 20
14.249999973286421
 30
0.0
 11
-15.000000000000043
 21
14.249999973286421
 31
0.0
  0
CIRCLE
  5
BF
100
AcDbEntity
  8
0
  6
CONTINUOUS
 62
               7
100
AcDbCircle
 10
-8.5000000000000426
 20
-8.5000000267135789
 30
0.0
 40
2.0
  0
CIRCLE
  5
C0
100
AcDbEntity
  8
0
  6
CONTINUOUS
 62
               7
100
AcDbCircle
 10
-3.5000000000000426
 20
-8.5000000267135789
 30
0.0
 40
2.0
  0
CIRCLE
  5
C1
100
AcDbEntity
  8
0
  6
CONTINUOUS
 62
               7
100
AcDbCircle
 10
1.4999999999999574
 20
-8.5000000267135789
 30
0.0
 40
2.0
  0
CIRCLE
  5
C2
100
AcDbEntity
  8
0
  6
CONTINUOUS
 62
               7
100
AcDbCircle
 10
1.4999999999999574
 20
-15.000000026713579
 30
0.0
 40
2.0
  0
CIRCLE
  5
C3
100
AcDbEntity
  8
0
  6
CONTINUOUS
 62
               7
100
AcDbCircle
 10
-3.5000000000000426
 20
-15.000000026713579
 30
0.0
 40
2.0
  0
CIRCLE
  5
C4
100
AcDbEntity
  8
0
  6
CONTINUOUS
 62
               7
100
AcDbCircle
 10
-8.5000000000000426
 20
-15.000000026713579
 30
0.0
 40
2.0
  0
CIRCLE
  5
C5
100
AcDbEntity
  8
0
  6
CONTINUOUS
 62
               7
100
AcDbCircle
 10
-13.500000000000043
 20
-15.000000026713579
 30
0.0
 40
2.0
  0
CIRCLE
  5
C6
100
AcDbEntity
  8
0
  6
CONTINUOUS
 62
               7
100
AcDbCircle
 10
-13.500000000000043
 20
-8.5000000267135789
 30
0.0
 40
2.0
  0
LINE
  5
C7
100
AcDbEntity
  8
0
  6
CONTINUOUS
 62
               7
100
AcDbLine
 10
-8.0000000000000426
 20
0.9999999732864211
 30
0.0
 11
-8.0000000000000426
 21
-5.0000000267135789
 31
0.0
  0
LINE
  5
C8
100
AcDbEntity
  8
0
  6
CONTINUOUS
 62
               7
100
AcDbLine
 10
-14.000000000000043
 20
-5.0000000267135789
 30
0.0
 11
-8.0000000000000426
 21
-5.0000000267135789
 31
0.0
  0
LINE
  5
C9
100
AcDbEntity
  8
0
  6
CONTINUOUS
 62
               7
100
AcDbLine
 10
-14.000000000000043
 20
0.9999999732864211
 30
0.0
 11
-8.0000000000000426
 21
0.9999999732864211
 31
0.0
  0
LINE
  5
CA
100
AcDbEntity
  8
0
  6
CONTINUOUS
 62
               7
100
AcDbLine
 10
17.999999999999957
 20
18.499999973286421
 30
0.0
 11
-18.000000000000043
 21
18.499999973286421
 31
0.0
  0
LINE
  5
CB
100
AcDbEntity
  8
0
  6
CONTINUOUS
 62
               7
100
AcDbLine
 10
17.999999999999957
 20
-18.500000026713579
 30
0.0
 11
-18.000000000000043
 21
-18.500000026713579
 31
0.0
  0
LINE
  5
CC
100
AcDbEntity
  8
0
  6
CONTINUOUS
 62
               7
100
AcDbLine
 10
18.499999999999957
 20
-18.000000026713579
 30
0.0
 11
18.499999999999957
 21
17.999999973286421
 31
0.0
  0
LINE
  5
CD
100
AcDbEntity
  8
0
  6
CONTINUOUS
 62
               7
100
AcDbLine
 10
-14.000000000000043
 20
0.9999999732864211
 30
0.0
 11
-14.000000000000043
 21
-5.0000000267135789
 31
0.0
  0
LINE
  5
CE
100
AcDbEntity
  8
0
  6
CONTINUOUS
 62
               7
100
AcDbLine
 10
2.9999999999999574
 20
-5.0000000267135789
 30
0.0
 11
2.9999999999999574
 21
0.9999999732864211
 31
0.0
  0
LINE
  5
CF
100
AcDbEntity
  8
0
  6
CONTINUOUS
 62
               7
100
AcDbLine
 10
2.9999999999999574
 20
-5.0000000267135789
 30
0.0
 11
-3.0000000000000426
 21
-5.0000000267135789
 31
0.0
  0
LINE
  5
D0
100
AcDbEntity
  8
0
  6
CONTINUOUS
 62
               7
100
AcDbLine
 10
2.9999999999999574
 20
0.9999999732864211
 30
0.0
 11
-3.0000000000000426
 21
0.9999999732864211
 31
0.0
  0
LINE
  5
D1
100
AcDbEntity
  8
0
  6
CONTINUOUS
 62
               7
100
AcDbLine
 10
-3.0000000000000426
 20
-5.0000000267135789
 30
0.0
 11
-3.0000000000000426
 21
0.9999999732864211
 31
0.0
  0
LINE
  5
D2
100
AcDbEntity
  8
0
  6
CONTINUOUS
 62
               7
100
AcDbLine
 10
7.9999999999999574
 20
0.9999999732864211
 30
0.0
 11
7.9999999999999574
 21
-5.0000000267135789
 31
0.0
  0
LINE
  5
D3
100
AcDbEntity
  8
0
  6
CONTINUOUS
 62
               7
100
AcDbLine
 10
7.9999999999999574
 20
0.9999999732864211
 30
0.0
 11
13.999999999999957
 21
0.9999999732864211
 31
0.0
  0
LINE
  5
D4
100
AcDbEntity
  8
0
  6
CONTINUOUS
 62
               7
100
AcDbLine
 10
7.9999999999999574
 20
-5.0000000267135789
 30
0.0
 11
13.999999999999957
 21
-5.0000000267135789
 31
0.0
  0
LINE
  5
D5
100
AcDbEntity
  8
0
  6
CONTINUOUS
 62
               7
100
AcDbLine
 10
13.999999999999957
 20
0.9999999732864211
 30
0.0
 11
13.999999999999957
 21
-5.0000000267135789
 31
0.0
  0
ARC
  5
D6
100
AcDbEntity
  8
0
  6
CONTINUOUS
 62
               7
100
AcDbCircle
 10
-18.000000000000043
 20
17.999999973286421
 30
0.0
 40
0.5
100
AcDbArc
 50
90.0
 51
180.0
  0
ARC
  5
D7
100
AcDbEntity
  8
0
  6
CONTINUOUS
 62
               7
100
AcDbCircle
 10
17.999999999999957
 20
-18.000000026713579
 30
0.0
 40
0.5
100
AcDbArc
 50
270.0
 51
0.0
  0
LINE
  5
D8
100
AcDbEntity
  8
0
  6
CONTINUOUS
 62
               7
100
AcDbLine
 10
18.499999999999957
 20
2.2499999732864211
 30
0.0
 11
-18.500000000000043
 21
2.2499999732864211
 31
0.0
  0
LINE
  5
D9
100
AcDbEntity
  8
0
  6
CONTINUOUS
 62
               7
100
AcDbLine
 10
-11.000000000000043
 20
0.2499999732864211
 30
0.0
 11
-8.4019237886467266
 21
-4.2500000267135789
 31
0.0
  0
LINE
  5
DA
100
AcDbEntity
  8
0
  6
CONTINUOUS
 62
               7
100
AcDbLine
 10
-8.4019237886467266
 20
-4.2500000267135789
 30
0.0
 11
-13.598076211353359
 21
-4.2500000267135789
 31
0.0
  0
LINE
  5
DB
100
AcDbEntity
  8
0
  6
CONTINUOUS
 62
               7
100
AcDbLine
 10
-13.598076211353359
 20
-4.2500000267135789
 30
0.0
 11
-11.000000000000043
 21
0.2499999732864211
 31
0.0
  0
LINE
  5
DC
100
AcDbEntity
  8
0
  6
CONTINUOUS
 62
               7
100
AcDbLine
 10
-0.0000000000000426
 20
-4.2500000267135789
 30
0.0
 11
-2.5980762113533586
 21
0.2499999732864211
 31
0.0
  0
LINE
  5
DD
100
AcDbEntity
  8
0
  6
CONTINUOUS
 62
               7
100
AcDbLine
 10
-2.5980762113533586
 20
0.2499999732864211
 30
0.0
 11
2.5980762113532734
 21
0.2499999732864211
 31
0.0
  0
LINE
  5
DE
100
AcDbEntity
  8
0
  6
CONTINUOUS
 62
               7
100
AcDbLine
 10
2.5980762113532734
 20
0.2499999732864211
 30
0.0
 11
-0.0000000000000426
 21
-4.2500000267135789
 31
0.0
  0
ARC
  5
DF
100
AcDbEntity
  8
0
  6
CONTINUOUS
 62
               7
100
AcDbCircle
 10
10.999999999999957
 20
-1.4000000267135775
 30
0.0
 40
0.5
100
AcDbArc
 50
180.0
 51
270.0
  0
ARC
  5
E0
100
AcDbEntity
  8
0
  6
CONTINUOUS
 62
               7
100
AcDbCircle
 10
10.999999999999957
 20
-1.4000000267135775
 30
0.0
 40
2.5
100
AcDbArc
 50
180.0
 51
270.0
  0
LINE
  5
E1
100
AcDbEntity
  8
0
  6
CONTINUOUS
 62
               7
100
AcDbLine
 10
10.999999999999957
 20
-1.9000000267135775
 30
0.0
 11
11.499999999999957
 21
-1.9000000267135775
 31
0.0
  0
LINE
  5
E2
100
AcDbEntity
  8
0
  6
CONTINUOUS
 62
               7
100
AcDbLine
 10
10.999999999999957
 20
-3.9000000267135775
 30
0.0
 11
11.499999999999957
 21
-3.9000000267135775
 31
0.0
  0
LINE
  5
E3
100
AcDbEntity
  8
0
  6
CONTINUOUS
 62
               7
100
AcDbLine
 10
10.499999999999957
 20
-1.4000000267135775
 30
0.0
 11
10.499999999999957
 21
0.0999999732864225
 31
0.0
  0
LINE
  5
E4
100
AcDbEntity
  8
0
  6
CONTINUOUS
 62
               7
100
AcDbLine
 10
8.4999999999999574
 20
-1.4000000267135775
 30
0.0
 11
8.4999999999999574
 21
0.0999999732864225
 31
0.0
  0
LINE
  5
E5
100
AcDbEntity
  8
0
  6
CONTINUOUS
 62
               7
100
AcDbLine
 10
11.499999999999957
 20
-3.9000000267135775
 30
0.0
 11
11.499999999999957
 21
-4.4000000267135775
 31
0.0
  0
LINE
  5
E6
100
AcDbEntity
  8
0
  6
CONTINUOUS
 62
               7
100
AcDbLine
 10
11.499999999999957
 20
-1.4000000267135775
 30
0.0
 11
13.665063509461064
 21
-2.9000000267135846
 31
0.0
  0
LINE
  5
E7
100
AcDbEntity
  8
0
  6
CONTINUOUS
 62
               7
100
AcDbLine
 10
11.499999999999957
 20
-4.4000000267135775
 30
0.0
 11
13.665063509461007
 21
-2.9000000267135846
 31
0.0
  0
LINE
  5
E8
100
AcDbEntity
  8
0
  6
CONTINUOUS
 62
               7
100
AcDbLine
 10
11.499999999999957
 20
-1.9000000267135775
 30
0.0
 11
11.499999999999957
 21
-1.4000000267135775
 31
0.0
  0
LINE
  5
E9
100
AcDbEntity
  8
0
  6
CONTINUOUS
 62
               7
100
AcDbLine
 10
8.4999999999999574
 20
0.0999999732864225
 30
0.0
 11
10.499999999999957
 21
0.0999999732864225
 31
0.0
  0
ARC
  5
EA
100
AcDbEntity
  8
0
  6
CONTINUOUS
 62
               7
100
AcDbCircle
 10
17.999999999999957
 20
17.999999973286421
 30
0.0
 40
0.5
100
AcDbArc
 50
0.0
 51
90.0
  0
ARC
  5
EB
100
AcDbEntity
  8
0
  6
CONTINUOUS
 62
               7
100
AcDbCircle
 10
-18.000000000000043
 20
-18.000000026713579
 30
0.0
 40
0.5
100
AcDbArc
 50
180.0
 51
270.0
  0
LINE
  5
EC
100
AcDbEntity
  8
0
  6
CONTINUOUS
 62
               7
100
AcDbLine
 10
-19.000000000000043
 20
18.999999973286421
 30
0.0
 11
-19.707106781186596
 21
19.707106754472967
 31
0.0
  0
LINE
  5
ED
100
AcDbEntity
  8
0
  6
CONTINUOUS
 62
               7
100
AcDbLine
 10
18.999999999999957
 20
-19.000000026713579
 30
0.0
 11
19.707106781186511
 21
-19.707106807900118
 31
0.0
  0
LINE
  5
EE
100
AcDbEntity
  8
0
  6
CONTINUOUS
 62
               7
100
AcDbLine
 10
-19.000000000000043
 20
-19.000000026713579
 30
0.0
 11
-19.707106781186596
 21
-19.707106807900132
 31
0.0
  0
LINE
  5
EF
100
AcDbEntity
  8
0
  6
CONTINUOUS
 62
               7
100
AcDbLine
 10
18.999999999999957
 20
18.999999973286421
 30
0.0
 11
19.707106781186511
 21
19.707106754472967
 31
0.0
  0
LINE
  5
F0
100
AcDbEntity
  8
0
  6
CONTINUOUS
 62
               7
100
AcDbLine
 10
-19.000000000000043
 20
18.999999973286421
 30
0.0
 11
-19.000000000000043
 21
-19.000000026713579
 31
0.0
  0
LINE
  5
F1
100
AcDbEntity
  8
0
  6
CONTINUOUS
 62
               7
100
AcDbLine
 10
18.999999999999957
 20
-19.000000026713579
 30
0.0
 11
-19.000000000000043
 21
-19.000000026713579
 31
0.0
  0
LINE
  5
F2
100
AcDbEntity
  8
0
  6
CONTINUOUS
 62
               7
100
AcDbLine
 10
18.999999999999957
 20
-19.000000026713579
 30
0.0
 11
18.999999999999957
 21
18.999999973286421
 31
0.0
  0
LINE
  5
F3
100
AcDbEntity
  8
0
  6
CONTINUOUS
 62
               7
100
AcDbLine
 10
18.999999999999957
 20
18.999999973286421
 30
0.0
 11
-19.000000000000043
 21
18.999999973286421
 31
0.0
  0
LINE
  5
F4
100
AcDbEntity
  8
0
  6
CONTINUOUS
 62
               7
100
AcDbLine
 10
19.999999999999957
 20
-19.000000026713579
 30
0.0
 11
19.999999999999957
 21
18.999999973286421
 31
0.0
  0
LINE
  5
F5
100
AcDbEntity
  8
0
  6
CONTINUOUS
 62
               7
100
AcDbLine
 10
-20.000000000000043
 20
18.999999973286421
 30
0.0
 11
-20.000000000000043
 21
-19.000000026713579
 31
0.0
  0
LINE
  5
F6
100
AcDbEntity
  8
0
  6
CONTINUOUS
 62
               7
100
AcDbLine
 10
18.999999999999957
 20
-20.000000026713579
 30
0.0
 11
-19.000000000000043
 21
-20.000000026713579
 31
0.0
  0
LINE
  5
F7
100
AcDbEntity
  8
0
  6
CONTINUOUS
 62
               7
100
AcDbLine
 10
18.999999999999957
 20
19.999999973286421
 30
0.0
 11
-19.000000000000043
 21
19.999999973286421
 31
0.0
  0
ARC
  5
F8
100
AcDbEntity
  8
0
  6
CONTINUOUS
 62
               7
100
AcDbCircle
 10
18.999999999999957
 20
18.999999973286421
 30
0.0
 40
1.0
100
AcDbArc
 50
0.0
 51
90.0
  0
ARC
  5
F9
100
AcDbEntity
  8
0
  6
CONTINUOUS
 62
               7
100
AcDbCircle
 10
-19.000000000000043
 20
-19.000000026713579
 30
0.0
 40
1.0
100
AcDbArc
 50
180.0
 51
270.0
  0
ARC
  5
FA
100
AcDbEntity
  8
0
  6
CONTINUOUS
 62
               7
100
AcDbCircle
 10
18.999999999999957
 20
-19.000000026713579
 30
0.0
 40
1.0
100
AcDbArc
 50
270.0
 51
0.0
  0
ARC
  5
FB
100
AcDbEntity
  8
0
  6
CONTINUOUS
 62
               7
100
AcDbCircle
 10
-19.000000000000043
 20
18.999999973286421
 30
0.0
 40
1.0
100
AcDbArc
 50
90.0
 51
180.0
  0
LINE
  5
FC
100
AcDbEntity
  8
0
  6
CONTINUOUS
 62
               7
100
AcDbLine
 10
-24.699999987256334
 20
2.9999999732864211
 30
0.0
 11
-24.000000000000043
 21
2.9999999732864211
 31
0.0
  0
LINE
  5
FD
100
AcDbEntity
  8
0
  6
CONTINUOUS
 62
               7
100
AcDbLine
 10
-24.699999987256334
 20
-3.0000000267135789
 30
0.0
 11
-24.000000000000043
 21
-3.0000000267135789
 31
0.0
  0
LINE
  5
FE
100
AcDbEntity
  8
0
  6
CONTINUOUS
 62
               7
100
AcDbLine
 10
-24.699999987256334
 20
6.9999999732864211
 30
0.0
 11
-24.000000000000043
 21
6.9999999732864211
 31
0.0
  0
LINE
  5
FF
100
AcDbEntity
  8
0
  6
CONTINUOUS
 62
               7
100
AcDbLine
 10
-24.699999987256334
 20
-7.0000000267135789
 30
0.0
 11
-24.000000000000043
 21
-7.0000000267135789
 31
0.0
  0
LINE
  5
100
100
AcDbEntity
  8
0
  6
CONTINUOUS
 62
               7
100
AcDbLine
 10
23.999999999999957
 20
6.9999999732864211
 30
0.0
 11
24.699999988901808
 21
6.9999999732864211
 31
0.0
  0
LINE
  5
101
100
AcDbEntity
  8
0
  6
CONTINUOUS
 62
               7
100
AcDbLine
 10
23.999999999999957
 20
2.9999999732864211
 30
0.0
 11
24.699999988901808
 21
2.9999999732864211
 31
0.0
  0
LINE
  5
102
100
AcDbEntity
  8
0
  6
CONTINUOUS
 62
               7
100
AcDbLine
 10
23.999999999999957
 20
-3.0000000267135789
 30
0.0
 11
24.699999988901808
 21
-3.0000000267135789
 31
0.0
  0
LINE
  5
103
100
AcDbEntity
  8
0
  6
CONTINUOUS
 62
               7
100
AcDbLine
 10
23.999999999999957
 20
-7.0000000267135789
 30
0.0
 11
24.699999988901808
 21
-7.0000000267135789
 31
0.0
  0
LINE
  5
105
100
AcDbEntity
  8
0
  6
CENTER
 62
               2
100
AcDbLine
 10
0.0
 20
-29.145467789071347
 30
0.0
 11
0.0
 21
29.628674828407298
 31
0.0
  0
LINE
  5
106
100
AcDbEntity
  8
0
  6
CENTER
 62
               2
100
AcDbLine
 10
-34.544748027766659
 20
0.0
 30
0.0
 11
35.308226584699973
 21
0.0
 31
0.0
  0
ENDBLK
  5
107
100
AcDbEntity
  8
0
100
AcDbBlockEnd
  0
BLOCK
  5
108
100
AcDbEntity
  8
0
100
AcDbBlockBegin
  2
PSU-P-C-2
 70
               0
 10
0.0
 20
0.0
 30
0.0
  3
PSU-P-C-2
  1

  0
LINE
  5
109
100
AcDbEntity
  8
0
  6
CONTINUOUS
 62
               7
100
AcDbLine
 10
-8.0000000000000284
 20
25.599999973286444
 30
0.0
 11
-0.0000000000000284
 21
25.599999973286444
 31
0.0
  0
LINE
  5
10A
100
AcDbEntity
  8
0
  6
CONTINUOUS
 62
               7
100
AcDbLine
 10
-8.0000000000000284
 20
-25.600000026713573
 30
0.0
 11
-0.0000000000000284
 21
-25.600000026713573
 31
0.0
  0
LINE
  5
10B
100
AcDbEntity
  8
0
  6
CONTINUOUS
 62
               7
100
AcDbLine
 10
-9.5000000000000284
 20
24.099999973286444
 30
0.0
 11
-9.5000000000000284
 21
-24.100000026713573
 31
0.0
  0
ARC
  5
10C
100
AcDbEntity
  8
0
  6
CONTINUOUS
 62
               7
100
AcDbCircle
 10
-8.0000000000000284
 20
24.099999973286444
 30
0.0
 40
1.5
100
AcDbArc
 50
90.0
 51
180.0
  0
ARC
  5
10D
100
AcDbEntity
  8
0
  6
CONTINUOUS
 62
               7
100
AcDbCircle
 10
-8.0000000000000284
 20
-24.100000026713573
 30
0.0
 40
1.5
100
AcDbArc
 50
180.0
 51
270.0
  0
LINE
  5
10E
100
AcDbEntity
  8
0
  6
CONTINUOUS
 62
               7
100
AcDbLine
 10
-6.0000000000000284
 20
10.999999973286421
 30
0.0
 11
-0.0000000000000284
 21
10.999999973286421
 31
0.0
  0
LINE
  5
10F
100
AcDbEntity
  8
0
  6
CONTINUOUS
 62
               7
100
AcDbLine
 10
-6.0000000000000284
 20
16.999999973286421
 30
0.0
 11
-0.0000000000000284
 21
16.999999973286421
 31
0.0
  0
LINE
  5
110
100
AcDbEntity
  8
0
  6
CONTINUOUS
 62
               7
100
AcDbLine
 10
-6.0000000000000284
 20
15.999999973286421
 30
0.0
 11
-0.0000000000000284
 21
15.999999973286421
 31
0.0
  0
LINE
  5
111
100
AcDbEntity
  8
0
  6
CONTINUOUS
 62
               7
100
AcDbLine
 10
-6.0000000000000284
 20
11.999999973286421
 30
0.0
 11
-0.0000000000000284
 21
11.999999973286421
 31
0.0
  0
LINE
  5
112
100
AcDbEntity
  8
0
  6
CONTINUOUS
 62
               7
100
AcDbLine
 10
-6.0000000000000284
 20
16.999999973286421
 30
0.0
 11
-6.0000000000000284
 21
10.999999973286421
 31
0.0
  0
LINE
  5
113
100
AcDbEntity
  8
0
  6
CONTINUOUS
 62
               7
100
AcDbLine
 10
-6.0000000000000284
 20
-11.000000026713579
 30
0.0
 11
-0.0000000000000284
 21
-11.000000026713579
 31
0.0
  0
LINE
  5
114
100
AcDbEntity
  8
0
  6
CONTINUOUS
 62
               7
100
AcDbLine
 10
-6.0000000000000284
 20
-17.000000026713579
 30
0.0
 11
-0.0000000000000284
 21
-17.000000026713579
 31
0.0
  0
LINE
  5
115
100
AcDbEntity
  8
0
  6
CONTINUOUS
 62
               7
100
AcDbLine
 10
-6.0000000000000284
 20
-16.000000026713579
 30
0.0
 11
-0.0000000000000284
 21
-16.000000026713579
 31
0.0
  0
LINE
  5
116
100
AcDbEntity
  8
0
  6
CONTINUOUS
 62
               7
100
AcDbLine
 10
-6.0000000000000284
 20
-12.000000026713579
 30
0.0
 11
-0.0000000000000284
 21
-12.000000026713579
 31
0.0
  0
LINE
  5
117
100
AcDbEntity
  8
0
  6
CONTINUOUS
 62
               7
100
AcDbLine
 10
-6.0000000000000284
 20
-17.000000026713579
 30
0.0
 11
-6.0000000000000284
 21
-11.000000026713579
 31
0.0
  0
LINE
  5
118
100
AcDbEntity
  8
0
  6
CONTINUOUS
 62
               7
100
AcDbLine
 10
-0.0000000000000284
 20
15.999999973286421
 30
0.0
 11
-0.0000000000000284
 21
11.999999973286421
 31
0.0
  0
LINE
  5
119
100
AcDbEntity
  8
0
  6
CONTINUOUS
 62
               7
100
AcDbLine
 10
-0.0000000000000284
 20
-12.000000026713579
 30
0.0
 11
-0.0000000000000284
 21
-16.000000026713579
 31
0.0
  0
ARC
  5
11A
100
AcDbEntity
  8
0
  6
CONTINUOUS
 62
               7
100
AcDbCircle
 10
-48.499999988455194
 20
-0.0000000267135647
 30
0.0
 40
58.500000000000121
100
AcDbArc
 50
337.3801350519596
 51
357.06046551356565
  0
LINE
  5
11B
100
AcDbEntity
  8
0
  6
CONTINUOUS
 62
               7
100
AcDbLine
 10
27.500000011544941
 20
-19.699772909948194
 30
0.0
 11
29.300000011544896
 21
-19.668353793077401
 31
0.0
  0
LINE
  5
11C
100
AcDbEntity
  8
0
  6
CONTINUOUS
 62
               2
100
AcDbLine
 10
20.000000011544941
 20
-2.0000000267135789
 30
0.0
 11
20.000000011544941
 21
-3.0000000267135789
 31
0.0
  0
LINE
  5
11D
100
AcDbEntity
  8
0
  6
CONTINUOUS
 62
               2
100
AcDbLine
 10
20.000000011544941
 20
1.9999999732864211
 30
0.0
 11
20.000000011544941
 21
2.9999999732864211
 31
0.0
  0
LINE
  5
11E
100
AcDbEntity
  8
0
  6
CONTINUOUS
 62
               2
100
AcDbLine
 10
15.000000011544941
 20
-2.0000000267135789
 30
0.0
 11
20.000000011544941
 21
-2.0000000267135789
 31
0.0
  0
LINE
  5
11F
100
AcDbEntity
  8
0
  6
CONTINUOUS
 62
               2
100
AcDbLine
 10
15.000000011544941
 20
1.9999999732864211
 30
0.0
 11
20.000000011544941
 21
1.9999999732864211
 31
0.0
  0
LINE
  5
120
100
AcDbEntity
  8
0
  6
CONTINUOUS
 62
               2
100
AcDbLine
 10
15.000000011544941
 20
-3.0000000267135789
 30
0.0
 11
15.000000011544941
 21
2.9999999732864211
 31
0.0
  0
LINE
  5
121
100
AcDbEntity
  8
0
  6
CONTINUOUS
 62
               2
100
AcDbLine
 10
17.000000011544941
 20
-2.0000000267135789
 30
0.0
 11
17.000000011544941
 21
1.9999999732864211
 31
0.0
  0
LINE
  5
122
100
AcDbEntity
  8
0
  6
CONTINUOUS
 62
               2
100
AcDbLine
 10
0.0
 20
-11.500000026713579
 30
0.0
 11
0.0
 21
-16.500000026713579
 31
0.0
  0
LINE
  5
123
100
AcDbEntity
  8
0
  6
CONTINUOUS
 62
               2
100
AcDbLine
 10
0.0
 20
16.499999973286421
 30
0.0
 11
0.0
 21
11.499999973286421
 31
0.0
  0
ARC
  5
124
100
AcDbEntity
  8
0
  6
CONTINUOUS
 62
               7
100
AcDbCircle
 10
11.062500011544941
 20
-6.8125000267135789
 30
0.0
 40
1.0625
100
AcDbArc
 50
90.0
 51
270.0
  0
LINE
  5
125
100
AcDbEntity
  8
0
  6
CONTINUOUS
 62
               7
100
AcDbLine
 10
11.062500011544941
 20
-7.8750000267135789
 30
0.0
 11
15.500000011544941
 21
-7.8750000267135789
 31
0.0
  0
LINE
  5
126
100
AcDbEntity
  8
0
  6
CONTINUOUS
 62
               7
100
AcDbLine
 10
11.062500011544941
 20
-5.7500000267135789
 30
0.0
 11
15.500000011544941
 21
-5.7500000267135789
 31
0.0
  0
LINE
  5
127
100
AcDbEntity
  8
0
  6
CONTINUOUS
 62
               2
100
AcDbLine
 10
10.000000011544941
 20
-6.8125000267135789
 30
0.0
 11
10.000000011544941
 21
-15.437500026713579
 31
0.0
  0
ARC
  5
128
100
AcDbEntity
  8
0
  6
CONTINUOUS
 62
               7
100
AcDbCircle
 10
11.062500011544941
 20
-15.437500026713579
 30
0.0
 40
1.0625
100
AcDbArc
 50
90.0
 51
270.0
  0
LINE
  5
129
100
AcDbEntity
  8
0
  6
CONTINUOUS
 62
               7
100
AcDbLine
 10
11.062500011544941
 20
-14.375000026713579
 30
0.0
 11
15.500000011544941
 21
-14.375000026713579
 31
0.0
  0
LINE
  5
12A
100
AcDbEntity
  8
0
  6
CONTINUOUS
 62
               7
100
AcDbLine
 10
11.062500011544941
 20
-16.500000026713579
 30
0.0
 11
15.500000011544941
 21
-16.500000026713579
 31
0.0
  0
LINE
  5
12B
100
AcDbEntity
  8
0
  6
CONTINUOUS
 62
               7
100
AcDbLine
 10
25.500000011544941
 20
-7.8750000267135789
 30
0.0
 11
30.000000011544941
 21
-7.8750000267135789
 31
0.0
  0
LINE
  5
12C
100
AcDbEntity
  8
0
  6
CONTINUOUS
 62
               7
100
AcDbLine
 10
25.500000011544941
 20
-14.375000026713579
 30
0.0
 11
30.000000011544941
 21
-14.375000026713579
 31
0.0
  0
LINE
  5
12D
100
AcDbEntity
  8
0
  6
CONTINUOUS
 62
               7
100
AcDbLine
 10
30.000000011544941
 20
-7.8750000267135789
 30
0.0
 11
30.000000011544941
 21
-14.375000026713579
 31
0.0
  0
LINE
  5
12E
100
AcDbEntity
  8
0
  6
CONTINUOUS
 62
               7
100
AcDbLine
 10
25.500000011544941
 20
-16.500000026713579
 30
0.0
 11
27.500000011544941
 21
-16.500000026713579
 31
0.0
  0
LINE
  5
12F
100
AcDbEntity
  8
0
  6
CONTINUOUS
 62
               7
100
AcDbLine
 10
27.500000011544941
 20
-16.500000026713579
 30
0.0
 11
27.500000011544941
 21
-22.500000026713579
 31
0.0
  0
LINE
  5
130
100
AcDbEntity
  8
0
  6
CONTINUOUS
 62
               7
100
AcDbLine
 10
25.500000011544941
 20
7.8749999732864211
 30
0.0
 11
30.000000011544941
 21
7.8749999732864211
 31
0.0
  0
LINE
  5
131
100
AcDbEntity
  8
0
  6
CONTINUOUS
 62
               7
100
AcDbLine
 10
25.500000011544941
 20
14.374999973286421
 30
0.0
 11
30.000000011544941
 21
14.374999973286421
 31
0.0
  0
LINE
  5
132
100
AcDbEntity
  8
0
  6
CONTINUOUS
 62
               7
100
AcDbLine
 10
25.500000011544941
 20
16.499999973286421
 30
0.0
 11
27.500000011544941
 21
16.499999973286421
 31
0.0
  0
ARC
  5
133
100
AcDbEntity
  8
0
  6
CONTINUOUS
 62
               7
100
AcDbCircle
 10
11.062500011544941
 20
6.8124999732864211
 30
0.0
 40
1.0625
100
AcDbArc
 50
90.0
 51
270.0
  0
LINE
  5
134
100
AcDbEntity
  8
0
  6
CONTINUOUS
 62
               7
100
AcDbLine
 10
27.500000011544941
 20
16.499999973286421
 30
0.0
 11
27.500000011544941
 21
22.499999973286421
 31
0.0
  0
ARC
  5
135
100
AcDbEntity
  8
0
  6
CONTINUOUS
 62
               7
100
AcDbCircle
 10
11.062500011544941
 20
15.437499973286421
 30
0.0
 40
1.0625
100
AcDbArc
 50
90.0
 51
270.0
  0
LINE
  5
136
100
AcDbEntity
  8
0
  6
CONTINUOUS
 62
               7
100
AcDbLine
 10
11.062500011544941
 20
7.8749999732864211
 30
0.0
 11
15.500000011544941
 21
7.8749999732864211
 31
0.0
  0
LINE
  5
137
100
AcDbEntity
  8
0
  6
CONTINUOUS
 62
               7
100
AcDbLine
 10
11.062500011544941
 20
14.374999973286421
 30
0.0
 11
15.500000011544941
 21
14.374999973286421
 31
0.0
  0
LINE
  5
138
100
AcDbEntity
  8
0
  6
CONTINUOUS
 62
               7
100
AcDbLine
 10
11.062500011544941
 20
5.7499999732864211
 30
0.0
 11
15.500000011544941
 21
5.7499999732864211
 31
0.0
  0
LINE
  5
139
100
AcDbEntity
  8
0
  6
CONTINUOUS
 62
               7
100
AcDbLine
 10
11.062500011544941
 20
16.499999973286421
 30
0.0
 11
15.500000011544941
 21
16.499999973286421
 31
0.0
  0
LINE
  5
13A
100
AcDbEntity
  8
0
  6
CONTINUOUS
 62
               2
100
AcDbLine
 10
10.000000011544941
 20
6.8124999732864211
 30
0.0
 11
10.000000011544941
 21
15.437499973286421
 31
0.0
  0
LINE
  5
13B
100
AcDbEntity
  8
0
  6
CONTINUOUS
 62
               7
100
AcDbLine
 10
25.500000011544941
 20
6.9999999732864211
 30
0.0
 11
25.500000011544941
 21
23.999999973286421
 31
0.0
  0
LINE
  5
13C
100
AcDbEntity
  8
0
  6
CONTINUOUS
 62
               7
100
AcDbLine
 10
15.500000011544941
 20
2.9999999732864211
 30
0.0
 11
15.500000011544941
 21
23.999999973286421
 31
0.0
  0
LINE
  5
13D
100
AcDbEntity
  8
0
  6
CONTINUOUS
 62
               7
100
AcDbLine
 10
25.500000011544941
 20
-22.500000026713579
 30
0.0
 11
27.500000011544941
 21
-22.500000026713579
 31
0.0
  0
LINE
  5
13E
100
AcDbEntity
  8
0
  6
CONTINUOUS
 62
               7
100
AcDbLine
 10
25.500000011544941
 20
22.499999973286421
 30
0.0
 11
27.500000011544941
 21
22.499999973286421
 31
0.0
  0
LINE
  5
13F
100
AcDbEntity
  8
0
  6
CONTINUOUS
 62
               7
100
AcDbLine
 10
30.000000011544941
 20
7.8749999732864211
 30
0.0
 11
30.000000011544941
 21
14.374999973286421
 31
0.0
  0
LINE
  5
140
100
AcDbEntity
  8
0
  6
CONTINUOUS
 62
               7
100
AcDbLine
 10
15.500000011544941
 20
-24.000000026713579
 30
0.0
 11
25.500000011544941
 21
-24.000000026713579
 31
0.0
  0
LINE
  5
141
100
AcDbEntity
  8
0
  6
CONTINUOUS
 62
               7
100
AcDbLine
 10
15.500000011544941
 20
23.999999973286421
 30
0.0
 11
25.500000011544941
 21
23.999999973286421
 31
0.0
  0
LINE
  5
142
100
AcDbEntity
  8
0
  6
CONTINUOUS
 62
               7
100
AcDbLine
 10
0.0
 20
-22.500000026713579
 30
0.0
 11
15.500000011544941
 21
-22.500000026713579
 31
0.0
  0
LINE
  5
143
100
AcDbEntity
  8
0
  6
CONTINUOUS
 62
               7
100
AcDbLine
 10
0.0
 20
22.499999973286421
 30
0.0
 11
15.500000011544941
 21
22.499999973286421
 31
0.0
  0
LINE
  5
144
100
AcDbEntity
  8
0
  6
CONTINUOUS
 62
               7
100
AcDbLine
 10
20.000000011544941
 20
-3.0000000267135789
 30
0.0
 11
24.000000011544941
 21
-7.0000000267135789
 31
0.0
  0
LINE
  5
145
100
AcDbEntity
  8
0
  6
CONTINUOUS
 62
               7
100
AcDbLine
 10
20.000000011544941
 20
2.9999999732864211
 30
0.0
 11
24.000000011544941
 21
6.9999999732864211
 31
0.0
  0
LINE
  5
146
100
AcDbEntity
  8
0
  6
CONTINUOUS
 62
               7
100
AcDbLine
 10
9.9230262939962728
 20
-3.0000000267135789
 30
0.0
 11
20.000000011544941
 21
-3.0000000267135789
 31
0.0
  0
LINE
  5
147
100
AcDbEntity
  8
0
  6
CONTINUOUS
 62
               7
100
AcDbLine
 10
9.9230262939962728
 20
2.9999999732864211
 30
0.0
 11
20.000000011544941
 21
2.9999999732864211
 31
0.0
  0
LINE
  5
148
100
AcDbEntity
  8
0
  6
CONTINUOUS
 62
               7
100
AcDbLine
 10
30.000000011544941
 20
-7.0000000267135789
 30
0.0
 11
24.000000011544941
 21
-7.0000000267135789
 31
0.0
  0
LINE
  5
149
100
AcDbEntity
  8
0
  6
CONTINUOUS
 62
               7
100
AcDbLine
 10
30.000000011544941
 20
6.9999999732864211
 30
0.0
 11
24.000000011544941
 21
6.9999999732864211
 31
0.0
  0
LINE
  5
14A
100
AcDbEntity
  8
0
  6
CONTINUOUS
 62
               7
100
AcDbLine
 10
15.500000011544941
 20
-24.000000026713579
 30
0.0
 11
15.500000011544941
 21
-3.0000000267135789
 31
0.0
  0
LINE
  5
14B
100
AcDbEntity
  8
0
  6
CONTINUOUS
 62
               7
100
AcDbLine
 10
25.500000011544941
 20
-24.000000026713579
 30
0.0
 11
25.500000011544941
 21
-7.0000000267135789
 31
0.0
  0
LINE
  5
14C
100
AcDbEntity
  8
0
  6
CONTINUOUS
 62
               7
100
AcDbLine
 10
30.000000011544941
 20
-7.0000000267135789
 30
0.0
 11
30.000000011544941
 21
6.9999999732864211
 31
0.0
  0
CIRCLE
  5
14D
100
AcDbEntity
  8
0
  6
CONTINUOUS
 62
               7
100
AcDbCircle
 10
3.500000005772506
 20
-20.000000026713579
 30
0.0
 40
0.9
  0
CIRCLE
  5
14E
100
AcDbEntity
  8
0
  6
CONTINUOUS
 62
               7
100
AcDbCircle
 10
3.5000000057724776
 20
19.999999973286421
 30
0.0
 40
0.9
  0
ARC
  5
14F
100
AcDbEntity
  8
0
  6
CONTINUOUS
 62
               7
100
AcDbCircle
 10
-48.499999988455194
 20
-0.0000000267135647
 30
0.0
 40
58.500000000000121
100
AcDbArc
 50
2.93953448643432
 51
22.619864948040362
  0
ARC
  5
150
100
AcDbEntity
  8
0
  6
CONTINUOUS
 62
               7
100
AcDbCircle
 10
-45.041666655121595
 20
-0.0000000267135647
 30
0.0
 40
52.541666666666536
100
AcDbArc
 50
340.5448428971967
 51
19.455157102803241
  0
LINE
  5
151
100
AcDbEntity
  8
0
  6
CONTINUOUS
 62
               7
100
AcDbLine
 10
1.500000011544941
 20
-17.500000026713579
 30
0.0
 11
1.500000011544941
 21
-22.500000026713579
 31
0.0
  0
LINE
  5
152
100
AcDbEntity
  8
0
  6
CONTINUOUS
 62
               7
100
AcDbLine
 10
1.5
 20
-17.500000026713579
 30
0.0
 11
4.500000011544941
 21
-17.500000026713579
 31
0.0
  0
LINE
  5
153
100
AcDbEntity
  8
0
  6
CONTINUOUS
 62
               7
100
AcDbLine
 10
1.5
 20
17.499999973286421
 30
0.0
 11
4.500000011544941
 21
17.499999973286421
 31
0.0
  0
LINE
  5
154
100
AcDbEntity
  8
0
  6
CONTINUOUS
 62
               7
100
AcDbLine
 10
1.500000011544941
 20
17.499999973286421
 30
0.0
 11
1.500000011544941
 21
22.499999973286421
 31
0.0
  0
LINE
  5
155
100
AcDbEntity
  8
0
  6
CONTINUOUS
 62
               7
100
AcDbLine
 10
-2.499999988455059
 20
-11.500000026713579
 30
0.0
 11
-2.499999988455059
 21
-16.500000026713579
 31
0.0
  0
LINE
  5
156
100
AcDbEntity
  8
0
  6
CONTINUOUS
 62
               7
100
AcDbLine
 10
-2.499999988455059
 20
-11.500000026713579
 30
0.0
 11
0.0
 21
-11.500000026713579
 31
0.0
  0
LINE
  5
157
100
AcDbEntity
  8
0
  6
CONTINUOUS
 62
               7
100
AcDbLine
 10
-2.499999988455059
 20
-16.500000026713579
 30
0.0
 11
0.0
 21
-16.500000026713579
 31
0.0
  0
LINE
  5
158
100
AcDbEntity
  8
0
  6
CONTINUOUS
 62
               7
100
AcDbLine
 10
0.0
 20
11.499999973286421
 30
0.0
 11
0.0
 21
-11.500000026713579
 31
0.0
  0
LINE
  5
159
100
AcDbEntity
  8
0
  6
CONTINUOUS
 62
               7
100
AcDbLine
 10
-2.499999988455059
 20
11.499999973286421
 30
0.0
 11
0.0
 21
11.499999973286421
 31
0.0
  0
LINE
  5
15A
100
AcDbEntity
  8
0
  6
CONTINUOUS
 62
               7
100
AcDbLine
 10
-2.499999988455059
 20
16.499999973286421
 30
0.0
 11
0.0
 21
16.499999973286421
 31
0.0
  0
LINE
  5
15B
100
AcDbEntity
  8
0
  6
CONTINUOUS
 62
               7
100
AcDbLine
 10
-2.499999988455059
 20
11.499999973286421
 30
0.0
 11
-2.499999988455059
 21
16.499999973286421
 31
0.0
  0
LINE
  5
15C
100
AcDbEntity
  8
0
  6
CONTINUOUS
 62
               7
100
AcDbLine
 10
32.700000011544944
 20
-2.2000000267136031
 30
0.0
 11
30.000000011544941
 21
-2.2000000267136031
 31
0.0
  0
LINE
  5
15D
100
AcDbEntity
  8
0
  6
CONTINUOUS
 62
               7
100
AcDbLine
 10
32.700000011544944
 20
13.599999973286394
 30
0.0
 11
30.000000011544941
 21
13.599999973286394
 31
0.0
  0
LINE
  5
15E
100
AcDbEntity
  8
0
  6
CONTINUOUS
 62
               7
100
AcDbLine
 10
31.700000011544944
 20
-1.0000000267136002
 30
0.0
 11
31.700000011544944
 21
0.1999999732863884
 31
0.0
  0
LINE
  5
15F
100
AcDbEntity
  8
0
  6
CONTINUOUS
 62
               7
100
AcDbLine
 10
32.700000011544944
 20
11.899999973286391
 30
0.0
 11
32.700000011544944
 21
13.599999973286394
 31
0.0
  0
LINE
  5
160
100
AcDbEntity
  8
0
  6
CONTINUOUS
 62
               7
100
AcDbLine
 10
30.000000011544941
 20
0.1999999732863884
 30
0.0
 11
31.700000011544944
 21
0.1999999732863884
 31
0.0
  0
LINE
  5
161
100
AcDbEntity
  8
0
  6
CONTINUOUS
 62
               7
100
AcDbLine
 10
30.000000011544941
 20
10.199999973286388
 30
0.0
 11
31.700000011544944
 21
10.199999973286388
 31
0.0
  0
LINE
  5
162
100
AcDbEntity
  8
0
  6
CONTINUOUS
 62
               7
100
AcDbLine
 10
31.700000011544944
 20
11.899999973286391
 30
0.0
 11
32.700000011544944
 21
11.899999973286391
 31
0.0
  0
LINE
  5
163
100
AcDbEntity
  8
0
  6
CONTINUOUS
 62
               7
100
AcDbLine
 10
31.700000011544944
 20
-1.0000000267136002
 30
0.0
 11
32.700000011544944
 21
-1.0000000267136002
 31
0.0
  0
LINE
  5
164
100
AcDbEntity
  8
0
  6
CONTINUOUS
 62
               7
100
AcDbLine
 10
27.758926355208018
 20
6.9999999732864211
 30
0.0
 11
27.758926355208018
 21
7.8749999732864211
 31
0.0
  0
LINE
  5
165
100
AcDbEntity
  8
0
  6
CONTINUOUS
 62
               7
100
AcDbLine
 10
31.700000011544944
 20
10.199999973286388
 30
0.0
 11
31.700000011544944
 21
11.899999973286391
 31
0.0
  0
LINE
  5
166
100
AcDbEntity
  8
0
  6
CONTINUOUS
 62
               7
100
AcDbLine
 10
32.700000011544944
 20
-2.2000000267136031
 30
0.0
 11
32.700000011544944
 21
-1.0000000267136002
 31
0.0
  0
LINE
  5
167
100
AcDbEntity
  8
0
  6
CONTINUOUS
 62
               7
100
AcDbLine
 10
28.500000011544955
 20
-7.8000000267136045
 30
0.0
 11
25.500000011544941
 21
-7.8000000267136045
 31
0.0
  0
LINE
  5
168
100
AcDbEntity
  8
0
  6
CONTINUOUS
 62
               7
100
AcDbLine
 10
28.500000011544955
 20
-7.8000000267136045
 30
0.0
 11
28.500000011544955
 21
-7.8750000267135789
 31
0.0
  0
LINE
  5
169
100
AcDbEntity
  8
0
  6
CONTINUOUS
 62
               7
100
AcDbLine
 10
28.30000001154491
 20
-19.684063351512805
 30
0.0
 11
28.30000001154491
 21
-15.000000026713565
 31
0.0
  0
LINE
  5
16A
100
AcDbEntity
  8
0
  6
CONTINUOUS
 62
               7
100
AcDbLine
 10
29.30000001154491
 20
-19.666608286584591
 30
0.0
 11
29.30000001154491
 21
-14.700000026713582
 31
0.0
  0
LINE
  5
16B
100
AcDbEntity
  8
0
  6
CONTINUOUS
 62
               7
100
AcDbLine
 10
29.30000001154491
 20
-15.000000026713565
 30
0.0
 11
25.500000011544941
 21
-15.000000026713565
 31
0.0
  0
LINE
  5
16C
100
AcDbEntity
  8
0
  6
CONTINUOUS
 62
               7
100
AcDbLine
 10
29.30000001154491
 20
-14.700000026713582
 30
0.0
 11
25.500000011544941
 21
-14.700000026713582
 31
0.0
  0
LINE
  5
16D
100
AcDbEntity
  8
0
  6
CONTINUOUS
 62
               7
100
AcDbLine
 10
-0.0000000000000284
 20
25.599999973286444
 30
0.0
 11
0.0
 21
16.499999973286421
 31
0.0
  0
LINE
  5
16E
100
AcDbEntity
  8
0
  6
CONTINUOUS
 62
               7
100
AcDbLine
 10
0.0
 20
-16.500000026713579
 30
0.0
 11
-0.0000000000000284
 21
-25.600000026713573
 31
0.0
  0
LINE
  5
16F
100
AcDbEntity
  8
0
  6
CENTER
 62
               2
100
AcDbLine
 10
-17.055045901087873
 20
0.0
 30
0.0
 11
37.212453193005828
 21
0.0
 31
0.0
  0
ENDBLK
  5
170
100
AcDbEntity
  8
0
100
AcDbBlockEnd
  0
BLOCK
  5
171
100
AcDbEntity
  8
0
100
AcDbBlockBegin
  2
PSU-P-C-3
 70
               0
 10
0.0
 20
0.0
 30
0.0
  3
PSU-P-C-3
  1

  0
ARC
  5
172
100
AcDbEntity
  8
0
  6
CONTINUOUS
 62
               7
100
AcDbCircle
 10
24.100000000000051
 20
-8.0
 30
0.0
 40
1.5
100
AcDbArc
 50
270.0
 51
0.0
  0
ARC
  5
173
100
AcDbEntity
  8
0
  6
CONTINUOUS
 62
               7
100
AcDbCircle
 10
-24.099999999999966
 20
-8.0
 30
0.0
 40
1.5
100
AcDbArc
 50
180.0
 51
270.0
  0
LINE
  5
174
100
AcDbEntity
  8
0
  6
CONTINUOUS
 62
               7
100
AcDbLine
 10
-25.599999999999966
 20
0.0
 30
0.0
 11
25.600000000000051
 21
0.0
 31
0.0
  0
LINE
  5
175
100
AcDbEntity
  8
0
  6
CONTINUOUS
 62
               7
100
AcDbLine
 10
-24.099999999999966
 20
-9.5
 30
0.0
 11
24.100000000000051
 21
-9.5
 31
0.0
  0
LINE
  5
176
100
AcDbEntity
  8
0
  6
CONTINUOUS
 62
               7
100
AcDbLine
 10
25.600000000000051
 20
-8.0
 30
0.0
 11
25.600000000000051
 21
0.0
 31
0.0
  0
LINE
  5
177
100
AcDbEntity
  8
0
  6
CONTINUOUS
 62
               7
100
AcDbLine
 10
-25.599999999999966
 20
-8.0
 30
0.0
 11
-25.599999999999966
 21
0.0
 31
0.0
  0
LINE
  5
178
100
AcDbEntity
  8
0
  6
CONTINUOUS
 62
               7
100
AcDbLine
 10
-6.0
 20
6.5000000000000142
 30
0.0
 11
6.0
 21
6.4999999999999858
 31
0.0
  0
LINE
  5
179
100
AcDbEntity
  8
0
  6
CONTINUOUS
 62
               7
100
AcDbLine
 10
13.5
 20
32.700000000000003
 30
0.0
 11
-13.5
 21
32.700000000000003
 31
0.0
  0
LINE
  5
17A
100
AcDbEntity
  8
0
  6
CONTINUOUS
 62
               7
100
AcDbLine
 10
13.5
 20
27.500000011544941
 30
0.0
 11
13.5
 21
32.700000000000003
 31
0.0
  0
LINE
  5
17B
100
AcDbEntity
  8
0
  6
CONTINUOUS
 62
               7
100
AcDbLine
 10
-13.5
 20
27.500000011544941
 30
0.0
 11
-13.5
 21
32.700000000000003
 31
0.0
  0
LINE
  5
17C
100
AcDbEntity
  8
0
  6
CONTINUOUS
 62
               7
100
AcDbLine
 10
-17.0
 20
29.300000000000011
 30
0.0
 11
-17.0
 21
27.500000011544941
 31
0.0
  0
LINE
  5
17D
100
AcDbEntity
  8
0
  6
CONTINUOUS
 62
               7
100
AcDbLine
 10
17.0
 20
29.300000000000011
 30
0.0
 11
17.0
 21
27.500000011544941
 31
0.0
  0
LINE
  5
17E
100
AcDbEntity
  8
0
  6
CONTINUOUS
 62
               7
100
AcDbLine
 10
19.0
 20
29.300000000000011
 30
0.0
 11
13.5
 21
29.300000000000011
 31
0.0
  0
LINE
  5
17F
100
AcDbEntity
  8
0
  6
CONTINUOUS
 62
               7
100
AcDbLine
 10
-13.5
 20
29.300000000000011
 30
0.0
 11
-19.000000000000512
 21
29.300000000000011
 31
0.0
  0
LINE
  5
180
100
AcDbEntity
  8
0
  6
CONTINUOUS
 62
               7
100
AcDbLine
 10
19.739999994612361
 20
28.56000000538765
 30
0.0
 11
19.0
 21
29.300000000000011
 31
0.0
  0
LINE
  5
181
100
AcDbEntity
  8
0
  6
CONTINUOUS
 62
               7
100
AcDbLine
 10
-19.739999994612418
 20
28.560000005387721
 30
0.0
 11
-19.000000000000512
 21
29.300000000000011
 31
0.0
  0
ARC
  5
182
100
AcDbEntity
  8
0
  6
CONTINUOUS
 62
               7
100
AcDbCircle
 10
-7.0
 20
12.399999999999991
 30
0.0
 40
1.0
100
AcDbArc
 50
0.0
 51
180.0
  0
LINE
  5
183
100
AcDbEntity
  8
0
  6
CONTINUOUS
 62
               7
100
AcDbLine
 10
-8.0
 20
-0.0000000000000142
 30
0.0
 11
-8.0
 21
12.399999999999991
 31
0.0
  0
LINE
  5
184
100
AcDbEntity
  8
0
  6
CONTINUOUS
 62
               7
100
AcDbLine
 10
-6.0
 20
2.9999999999999858
 30
0.0
 11
-6.0
 21
12.399999999999991
 31
0.0
  0
ARC
  5
185
100
AcDbEntity
  8
0
  6
CONTINUOUS
 62
               7
100
AcDbCircle
 10
7.0
 20
12.399999999999991
 30
0.0
 40
1.0
100
AcDbArc
 50
0.0
 51
180.0
  0
LINE
  5
186
100
AcDbEntity
  8
0
  6
CONTINUOUS
 62
               7
100
AcDbLine
 10
-6.0
 20
3.0000000000000142
 30
0.0
 11
6.0
 21
2.9999999999999858
 31
0.0
  0
LINE
  5
187
100
AcDbEntity
  8
0
  6
CONTINUOUS
 62
               7
100
AcDbLine
 10
8.0
 20
-0.0000000000000142
 30
0.0
 11
8.0
 21
12.399999999999991
 31
0.0
  0
LINE
  5
188
100
AcDbEntity
  8
0
  6
CONTINUOUS
 62
               7
100
AcDbLine
 10
-22.0
 20
27.500000011544941
 30
0.0
 11
-22.0
 21
30.000000011544941
 31
0.0
  0
LINE
  5
189
100
AcDbEntity
  8
0
  6
CONTINUOUS
 62
               7
100
AcDbLine
 10
-22.0
 20
30.000000011544941
 30
0.0
 11
-21.0
 21
30.000000011544941
 31
0.0
  0
LINE
  5
18A
100
AcDbEntity
  8
0
  6
CONTINUOUS
 62
               7
100
AcDbLine
 10
-21.0
 20
30.000000011544941
 30
0.0
 11
-18.8125
 21
27.500000011544941
 31
0.0
  0
LINE
  5
18B
100
AcDbEntity
  8
0
  6
CONTINUOUS
 62
               7
100
AcDbLine
 10
-23.500000014483987
 20
30.000000011544941
 30
0.0
 11
-22.5
 21
25.500000011544941
 31
0.0
  0
LINE
  5
18C
100
AcDbEntity
  8
0
  6
CONTINUOUS
 62
               7
100
AcDbLine
 10
-22.5
 20
25.500000011544941
 30
0.0
 11
-22.5
 21
27.500000011544941
 31
0.0
  0
LINE
  5
18D
100
AcDbEntity
  8
0
  6
CONTINUOUS
 62
               7
100
AcDbLine
 10
-24.700000000000003
 20
1.5000000139176137
 30
0.0
 11
-24.700000000000003
 21
15.500000011544941
 31
0.0
  0
LINE
  5
18E
100
AcDbEntity
  8
0
  6
CONTINUOUS
 62
               7
100
AcDbLine
 10
-27.700000000000003
 20
1.5000000139176137
 30
0.0
 11
-27.700000000000003
 21
16.500000011544941
 31
0.0
  0
LINE
  5
18F
100
AcDbEntity
  8
0
  6
CONTINUOUS
 62
               7
100
AcDbLine
 10
-25.0
 20
20.000000011544941
 30
0.0
 11
-25.0
 21
30.000000011544941
 31
0.0
  0
LINE
  5
190
100
AcDbEntity
  8
0
  6
CONTINUOUS
 62
               7
100
AcDbLine
 10
-25.0
 20
20.000000011544941
 30
0.0
 11
-27.700000000000003
 21
16.500000011544941
 31
0.0
  0
LINE
  5
191
100
AcDbEntity
  8
0
  6
CONTINUOUS
 62
               7
100
AcDbLine
 10
-25.000000014483987
 20
30.000000011544941
 30
0.0
 11
-23.500000014483987
 21
30.000000011544941
 31
0.0
  0
LINE
  5
192
100
AcDbEntity
  8
0
  6
CONTINUOUS
 62
               7
100
AcDbLine
 10
-24.700000002563058
 20
9.9230262939962728
 30
0.0
 11
-27.700000002563058
 21
9.9230262939962728
 31
0.0
  0
LINE
  5
193
100
AcDbEntity
  8
0
  6
CONTINUOUS
 62
               7
100
AcDbLine
 10
-24.700000002563058
 20
5.500000011544941
 30
0.0
 11
-27.700000002563058
 21
5.500000011544941
 31
0.0
  0
LINE
  5
194
100
AcDbEntity
  8
0
  6
CONTINUOUS
 62
               7
100
AcDbLine
 10
-24.700000002563058
 20
1.500000011544941
 30
0.0
 11
-27.700000002563058
 21
1.500000011544941
 31
0.0
  0
LINE
  5
195
100
AcDbEntity
  8
0
  6
CONTINUOUS
 62
               7
100
AcDbLine
 10
21.0
 20
30.000000011544941
 30
0.0
 11
18.8125
 21
27.500000011544941
 31
0.0
  0
LINE
  5
196
100
AcDbEntity
  8
0
  6
CONTINUOUS
 62
               7
100
AcDbLine
 10
22.0
 20
30.000000011544941
 30
0.0
 11
21.0
 21
30.000000011544941
 31
0.0
  0
LINE
  5
197
100
AcDbEntity
  8
0
  6
CONTINUOUS
 62
               7
100
AcDbLine
 10
22.0
 20
27.500000011544941
 30
0.0
 11
22.0
 21
30.000000011544941
 31
0.0
  0
LINE
  5
198
100
AcDbEntity
  8
0
  6
CONTINUOUS
 62
               7
100
AcDbLine
 10
-5.0
 20
16.000000011544941
 30
0.0
 11
5.0
 21
16.000000011544941
 31
0.0
  0
LINE
  5
199
100
AcDbEntity
  8
0
  6
CONTINUOUS
 62
               7
100
AcDbLine
 10
5.0
 20
15.500000011544941
 30
0.0
 11
24.700000000000003
 21
15.500000011544941
 31
0.0
  0
LINE
  5
19A
100
AcDbEntity
  8
0
  6
CONTINUOUS
 62
               7
100
AcDbLine
 10
5.0
 20
15.500000011544941
 30
0.0
 11
5.0
 21
16.000000011544941
 31
0.0
  0
LINE
  5
19B
100
AcDbEntity
  8
0
  6
CONTINUOUS
 62
               7
100
AcDbLine
 10
-5.0
 20
15.500000011544941
 30
0.0
 11
-5.0
 21
16.000000011544941
 31
0.0
  0
LINE
  5
19C
100
AcDbEntity
  8
0
  6
CONTINUOUS
 62
               7
100
AcDbLine
 10
6.0
 20
2.9999999999999858
 30
0.0
 11
6.0
 21
12.399999999999991
 31
0.0
  0
LINE
  5
19D
100
AcDbEntity
  8
0
  6
CONTINUOUS
 62
               7
100
AcDbLine
 10
23.500000014483987
 20
30.000000011544941
 30
0.0
 11
22.5
 21
25.500000011544941
 31
0.0
  0
LINE
  5
19E
100
AcDbEntity
  8
0
  6
CONTINUOUS
 62
               7
100
AcDbLine
 10
25.000000014483987
 20
30.000000011544941
 30
0.0
 11
23.500000014483987
 21
30.000000011544941
 31
0.0
  0
LINE
  5
19F
100
AcDbEntity
  8
0
  6
CONTINUOUS
 62
               7
100
AcDbLine
 10
25.0
 20
20.000000011544941
 30
0.0
 11
27.700000000000003
 21
16.500000011544941
 31
0.0
  0
LINE
  5
1A0
100
AcDbEntity
  8
0
  6
CONTINUOUS
 62
               7
100
AcDbLine
 10
25.0
 20
20.000000011544941
 30
0.0
 11
25.0
 21
30.000000011544941
 31
0.0
  0
LINE
  5
1A1
100
AcDbEntity
  8
0
  6
CONTINUOUS
 62
               7
100
AcDbLine
 10
24.700000002563058
 20
9.9230262939962728
 30
0.0
 11
27.700000002563058
 21
9.9230262939962728
 31
0.0
  0
LINE
  5
1A2
100
AcDbEntity
  8
0
  6
CONTINUOUS
 62
               7
100
AcDbLine
 10
24.700000002563058
 20
5.500000011544941
 30
0.0
 11
27.700000002563058
 21
5.500000011544941
 31
0.0
  0
LINE
  5
1A3
100
AcDbEntity
  8
0
  6
CONTINUOUS
 62
               7
100
AcDbLine
 10
24.700000002563058
 20
1.500000011544941
 30
0.0
 11
27.700000002563058
 21
1.500000011544941
 31
0.0
  0
LINE
  5
1A4
100
AcDbEntity
  8
0
  6
CONTINUOUS
 62
               7
100
AcDbLine
 10
27.700000000000003
 20
1.5000000139176137
 30
0.0
 11
27.700000000000003
 21
16.500000011544941
 31
0.0
  0
LINE
  5
1A5
100
AcDbEntity
  8
0
  6
CONTINUOUS
 62
               7
100
AcDbLine
 10
-11.5
 20
-2.499999988455059
 30
0.0
 11
-16.5
 21
-2.499999988455059
 31
0.0
  0
LINE
  5
1A6
100
AcDbEntity
  8
0
  6
CONTINUOUS
 62
               7
100
AcDbLine
 10
-16.5
 20
-2.499999988455059
 30
0.0
 11
-16.5
 21
0.0000000000000142
 31
0.0
  0
LINE
  5
1A7
100
AcDbEntity
  8
0
  6
CONTINUOUS
 62
               7
100
AcDbLine
 10
-11.5
 20
-2.499999988455059
 30
0.0
 11
-11.5
 21
0.0000000000000142
 31
0.0
  0
LINE
  5
1A8
100
AcDbEntity
  8
0
  6
CONTINUOUS
 62
               7
100
AcDbLine
 10
16.5
 20
-2.499999988455059
 30
0.0
 11
16.5
 21
-0.0000000000000142
 31
0.0
  0
LINE
  5
1A9
100
AcDbEntity
  8
0
  6
CONTINUOUS
 62
               7
100
AcDbLine
 10
11.5
 20
-2.499999988455059
 30
0.0
 11
11.5
 21
-0.0000000000000142
 31
0.0
  0
LINE
  5
1AA
100
AcDbEntity
  8
0
  6
CONTINUOUS
 62
               7
100
AcDbLine
 10
11.5
 20
-2.499999988455059
 30
0.0
 11
16.5
 21
-2.499999988455059
 31
0.0
  0
LINE
  5
1AB
100
AcDbEntity
  8
0
  6
CENTER
 62
               2
100
AcDbLine
 10
0.0
 20
-13.87149871949206
 30
0.0
 11
0.0
 21
34.576663965411484
 31
0.0
  0
LINE
  5
1AC
100
AcDbEntity
  8
0
  6
CONTINUOUS
 62
               7
100
AcDbLine
 10
-22.5
 20
0.0000000000000142
 30
0.0
 11
-22.5
 21
15.500000011544941
 31
0.0
  0
LINE
  5
1AD
100
AcDbEntity
  8
0
  6
CONTINUOUS
 62
               7
100
AcDbLine
 10
22.5
 20
-0.0000000000000142
 30
0.0
 11
22.5
 21
15.500000011544941
 31
0.0
  0
LINE
  5
1AE
100
AcDbEntity
  8
0
  6
CONTINUOUS
 62
               7
100
AcDbLine
 10
-24.0
 20
15.500000011544941
 30
0.0
 11
-24.0
 21
25.500000011544941
 31
0.0
  0
LINE
  5
1AF
100
AcDbEntity
  8
0
  6
CONTINUOUS
 62
               7
100
AcDbLine
 10
24.0
 20
15.500000011544941
 30
0.0
 11
24.0
 21
25.500000011544941
 31
0.0
  0
LINE
  5
1B0
100
AcDbEntity
  8
0
  6
CONTINUOUS
 62
               7
100
AcDbLine
 10
22.5
 20
25.500000011544941
 30
0.0
 11
22.5
 21
27.500000011544941
 31
0.0
  0
LINE
  5
1B1
100
AcDbEntity
  8
0
  6
CONTINUOUS
 62
               7
100
AcDbLine
 10
-24.700000000000003
 20
15.500000011544941
 30
0.0
 11
-5.0
 21
15.500000011544941
 31
0.0
  0
LINE
  5
1B2
100
AcDbEntity
  8
0
  6
CONTINUOUS
 62
               7
100
AcDbLine
 10
-24.0
 20
25.500000011544941
 30
0.0
 11
24.0
 21
25.500000011544941
 31
0.0
  0
LINE
  5
1B3
100
AcDbEntity
  8
0
  6
CONTINUOUS
 62
               7
100
AcDbLine
 10
-22.5
 20
27.500000011544941
 30
0.0
 11
22.5
 21
27.500000011544941
 31
0.0
  0
LINE
  5
1B4
100
AcDbEntity
  8
0
  6
CONTINUOUS
 62
               7
100
AcDbLine
 10
24.700000000000003
 20
1.5000000139176137
 30
0.0
 11
24.700000000000003
 21
15.500000011544941
 31
0.0
  0
ENDBLK
  5
1B5
100
AcDbEntity
  8
0
100
AcDbBlockEnd
  0
ENDSEC
  0
SECTION
  2
ENTITIES
  0
MTEXT
  5
1B6
100
AcDbEntity
  8
0
  6
CONTINUOUS
 62
               7
100
AcDbMText
 10
-110.26666057904561
 20
69.5
 30
0.0
 40
3.2000000476837158
 41
0.0
 71
               4
 72
               1
  1
\A1;PSU-D-P-C
  0
MTEXT
  5
1B7
100
AcDbEntity
  8
0
  6
CONTINUOUS
 62
               7
100
AcDbMText
 10
-97.866644032796231
 20
87.0
 30
0.0
 40
3.1999950408935547
 41
0.0
 71
               4
 72
               1
  1
\A1;PSU-P-C
  0
INSERT
  5
1B8
100
AcDbEntity
  8
0
  6
ByBlock
100
AcDbBlockReference
  2
PSU-P-C-3
 10
-30.0
 20
30.0
 30
0.0
  0
INSERT
  5
1B9
100
AcDbEntity
  8
0
  6
ByBlock
100
AcDbBlockReference
  2
PSU-P-C-2
 10
60.0
 20
-40.0
 30
0.0
  0
INSERT
  5
1BA
100
AcDbEntity
  8
0
  6
ByBlock
100
AcDbBlockReference
  2
PSU-P-C-1
 10
-30.0
 20
-40.0
 30
0.0
  0
LINE
  5
1BB
100
AcDbEntity
  8
0
  6
CONTINUOUS
 62
               7
100
AcDbLine
 10
-35.999993896484369
 20
94.5
 30
0.0
 11
-35.999993896484369
 21
84.5
 31
0.0
  0
LINE
  5
1BC
100
AcDbEntity
  8
0
  6
CONTINUOUS
 62
               7
100
AcDbLine
 10
-138.39999389648437
 20
94.5
 30
0.0
 11
138.35000610351562
 21
94.5
 31
0.0
  0
LINE
  5
1BD
100
AcDbEntity
  8
0
  6
CONTINUOUS
 62
               7
100
AcDbLine
 10
138.35000610351562
 20
94.5
 30
0.0
 11
138.35000610351562
 21
-94.800003051757812
 31
0.0
  0
LINE
  5
1BE
100
AcDbEntity
  8
0
  6
CONTINUOUS
 62
               7
100
AcDbLine
 10
-138.39999389648437
 20
-94.800003051757812
 30
0.0
 11
138.35000610351562
 21
-94.800003051757812
 31
0.0
  0
LINE
  5
1BF
100
AcDbEntity
  8
0
  6
CONTINUOUS
 62
               7
100
AcDbLine
 10
-138.39999389648437
 20
94.5
 30
0.0
 11
-138.39999389648437
 21
-94.800003051757812
 31
0.0
  0
LINE
  5
1C0
100
AcDbEntity
  8
0
  6
CONTINUOUS
 62
               7
100
AcDbLine
 10
73.350006103515625
 20
-84.800003051757813
 30
0.0
 11
138.35000610351562
 21
-84.800003051757813
 31
0.0
  0
LINE
  5
1C1
100
AcDbEntity
  8
0
  6
CONTINUOUS
 62
               7
100
AcDbLine
 10
-138.39999389648437
 20
84.5
 30
0.0
 11
-35.999993896484369
 21
84.5
 31
0.0
  0
LINE
  5
1C2
100
AcDbEntity
  8
0
  6
CONTINUOUS
 62
               7
100
AcDbLine
 10
73.350006103515625
 20
84.5
 30
0.0
 11
138.35000610351562
 21
84.5
 31
0.0
  0
LINE
  5
1C3
100
AcDbEntity
  8
0
  6
CONTINUOUS
 62
               7
100
AcDbLine
 10
73.350006103515625
 20
-84.800003051757813
 30
0.0
 11
73.350006103515625
 21
-94.800003051757812
 31
0.0
  0
LINE
  5
1C4
100
AcDbEntity
  8
0
  6
CONTINUOUS
 62
               7
100
AcDbLine
 10
73.350006103515625
 20
94.5
 30
0.0
 11
73.350006103515625
 21
84.5
 31
0.0
  0
MTEXT
  5
1C5
100
AcDbEntity
  8
0
  6
CONTINUOUS
 62
               7
100
AcDbMText
 10
77.440523342735503
 20
-89.800003051757812
 30
0.0
 40
4.5
 41
0.0
 71
               4
 72
               1
  1
\W1.121;\A1;KOGANEI CORP.
  0
MTEXT
  5
1C6
100
AcDbEntity
  8
0
  6
CONTINUOUS
 62
               7
100
AcDbMText
 10
93.749460369842424
 20
89.5
 30
0.0
 40
3.1999998092651367
 41
0.0
 71
               4
 72
               1
  1
\W1.311;\A1;Ver. 1.0
  0
MTEXT
  5
1C7
100
AcDbEntity
  8
0
  6
CONTINUOUS
 62
               7
100
AcDbMText
 10
-136.24641954488627
 20
93.599999904632568
 30
0.0
 40
3.1999998092651367
 41
0.0
 71
               1
 72
               1
  1
\W1.038;\A1;MULTI-CHANNEL SENSOR CONTROLLER
  0
MTEXT
  5
1C8
100
AcDbEntity
  8
0
  6
CONTINUOUS
 62
               7
100
AcDbMText
 10
-129.43783175024001
 20
74.5
 30
0.0
 40
3.2000000476837158
 41
0.0
 71
               4
 72
               1
  1
\W1.054;\A1;MODEL:PSU-P-C
  0
ENDSEC
  0
SECTION
  2
OBJECTS
  0
DICTIONARY
  5
19
100
AcDbDictionary
  3
ACAD_GROUP
350
1A
  3
ACAD_MLINESTYLE
350
1B
  0
DICTIONARY
  5
1A
102
{ACAD_REACTORS
330
19
102
}
100
AcDbDictionary
  0
DICTIONARY
  5
1B
102
{ACAD_REACTORS
330
19
102
}
100
AcDbDictionary
  3
STANDARD
350
1C
  0
MLINESTYLE
  5
1C
102
{ACAD_REACTORS
330
1B
102
}
100
AcDbMlineStyle
  2
Standard
 70
               0
  3

 62
               0
 51
90.0
 52
90.0
 71
               2
 49
0.5
 62
             256
  6
ByLayer
 49
-0.5
 62
             256
  6
ByLayer
  0
ENDSEC
  0
EOF
