  0
SECTION
  2
HEADER
  9
$ACADVER
  1
AC1009
  9
$DWGCODEPAGE
  3
dos932
  9
$INSBASE
 10
0.0
 20
0.0
 30
0.0
  9
$EXTMIN
 10
-138.3999939
 20
-94.80000305
 30
0.0
  9
$EXTMAX
 10
138.3500061
 20
94.5
 30
0.0
  9
$LIMMIN
 10
-148.5
 20
-105.0
  9
$LIMMAX
 10
148.5
 20
105.0
  9
$ORTHOMODE
 70
       0
  9
$REGENMODE
 70
       1
  9
$FILLMODE
 70
       1
  9
$QTEXTMODE
 70
       0
  9
$MIRRTEXT
 70
       1
  9
$DRAGMODE
 70
       2
  9
$LTSCALE
 40
1.0
  9
$OSMODE
 70
       0
  9
$ATTMODE
 70
       1
  9
$TEXTSIZE
 40
3.20000005
  9
$TRACEWID
 40
0.05
  9
$TEXTSTYLE
  7
MX_NOTE_STANDARD
  9
$CLAYER
  8
0
  9
$CELTYPE
  6
CONTINUOUS
  9
$CECOLOR
 62
     256
  9
$DIMSCALE
 40
1.0
  9
$DIMASZ
 40
2.5
  9
$DIMEXO
 40
1.5
  9
$DIMDLI
 40
3.75
  9
$DIMRND
 40
0.0
  9
$DIMDLE
 40
0.0
  9
$DIMEXE
 40
1.5
  9
$DIMTP
 40
0.0
  9
$DIMTM
 40
0.0
  9
$DIMTXT
 40
3.20000005
  9
$DIMCEN
 40
2.5
  9
$DIMTSZ
 40
0.0
  9
$DIMTOL
 70
       0
  9
$DIMLIM
 70
       0
  9
$DIMTIH
 70
       0
  9
$DIMTOH
 70
       0
  9
$DIMSE1
 70
       0
  9
$DIMSE2
 70
       0
  9
$DIMTAD
 70
       1
  9
$DIMZIN
 70
       8
  9
$DIMBLK
  1

  9
$DIMASO
 70
       1
  9
$DIMSHO
 70
       1
  9
$DIMPOST
  1

  9
$DIMAPOST
  1

  9
$DIMALT
 70
       0
  9
$DIMALTD
 70
       4
  9
$DIMALTF
 40
0.03937008
  9
$DIMLFAC
 40
1.0
  9
$DIMTOFL
 70
       1
  9
$DIMTVP
 40
0.0
  9
$DIMTIX
 70
       0
  9
$DIMSOXD
 70
       0
  9
$DIMSAH
 70
       1
  9
$DIMBLK1
  1
_OPEN30
  9
$DIMBLK2
  1
_OPEN30
  9
$DIMSTYLE
  2
MXDIMSTYLE
  9
$DIMCLRD
 70
       0
  9
$DIMCLRE
 70
       0
  9
$DIMCLRT
 70
       0
  9
$DIMTFAC
 40
1.0
  9
$DIMGAP
 40
1.0
  9
$LUNITS
 70
       2
  9
$LUPREC
 70
       4
  9
$AXISMODE
 70
       0
  9
$AXISUNIT
 10
0.0
 20
0.0
  9
$SKETCHINC
 40
0.1
  9
$FILLETRAD
 40
0.0
  9
$AUNITS
 70
       0
  9
$AUPREC
 70
       0
  9
$MENU
  1
acad
  9
$ELEVATION
 40
0.0
  9
$PELEVATION
 40
0.0
  9
$THICKNESS
 40
0.0
  9
$LIMCHECK
 70
       0
  9
$BLIPMODE
 70
       1
  9
$CHAMFERA
 40
0.0
  9
$CHAMFERB
 40
0.0
  9
$SKPOLY
 70
       0
  9
$TDCREATE
 40
2454161.481759260
  9
$TDUPDATE
 40
2454161.481759260
  9
$TDINDWG
 40
0.0000000000
  9
$TDUSRTIMER
 40
0.0000000000
  9
$USRTIMER
 70
       1
  9
$ANGBASE
 50
0.0
  9
$ANGDIR
 70
       0
  9
$PDMODE
 70
       0
  9
$PDSIZE
 40
0.0
  9
$PLINEWID
 40
0.0
  9
$COORDS
 70
       1
  9
$SPLFRAME
 70
       0
  9
$SPLINETYPE
 70
       6
  9
$SPLINESEGS
 70
       8
  9
$ATTDIA
 70
       0
  9
$ATTREQ
 70
       1
  9
$HANDLING
 70
       1
  9
$HANDSEED
  5
EB
  9
$SURFTAB1
 70
       6
  9
$SURFTAB2
 70
       6
  9
$SURFTYPE
 70
       6
  9
$SURFU
 70
       6
  9
$SURFV
 70
       6
  9
$UCSNAME
  2

  9
$UCSORG
 10
0.0
 20
0.0
 30
0.0
  9
$UCSXDIR
 10
1.0
 20
0.0
 30
0.0
  9
$UCSYDIR
 10
0.0
 20
1.0
 30
0.0
  9
$PUCSNAME
  2

  9
$PUCSORG
 10
0.0
 20
0.0
 30
0.0
  9
$PUCSXDIR
 10
1.0
 20
0.0
 30
0.0
  9
$PUCSYDIR
 10
0.0
 20
1.0
 30
0.0
  9
$USERI1
 70
       0
  9
$USERI2
 70
       0
  9
$USERI3
 70
       0
  9
$USERI4
 70
       0
  9
$USERI5
 70
       0
  9
$USERR1
 40
0.0
  9
$USERR2
 40
0.0
  9
$USERR3
 40
0.0
  9
$USERR4
 40
0.0
  9
$USERR5
 40
0.0
  9
$WORLDVIEW
 70
       1
  9
$SHADEDGE
 70
       3
  9
$SHADEDIF
 70
      70
  9
$TILEMODE
 70
       1
  9
$MAXACTVP
 70
      16
  9
$PINSBASE
 10
0.0
 20
0.0
 30
0.0
  9
$PLIMCHECK
 70
       0
  9
$PEXTMIN
 10
1.00000000E+20
 20
1.00000000E+20
 30
1.00000000E+20
  9
$PEXTMAX
 10
-1.00000000E+20
 20
-1.00000000E+20
 30
-1.00000000E+20
  9
$PLIMMIN
 10
0.0
 20
0.0
  9
$PLIMMAX
 10
12.0
 20
9.0
  9
$UNITMODE
 70
       0
  9
$VISRETAIN
 70
       0
  9
$PLINEGEN
 70
       1
  9
$PSLTSCALE
 70
       0
  9
$TREEDEPTH
 70
    3020
  0
ENDSEC
  0
SECTION
  2
TABLES
  0
TABLE
  2
VPORT
 70
       1
  0
VPORT
  2
*ACTIVE
 70
       0
 10
0.0
 20
0.0
 11
1.0
 21
1.0
 12
0.0
 22
0.0
 13
0.0
 23
0.0
 14
1.0
 24
1.0
 15
0.0
 25
0.0
 16
0.0
 26
0.0
 36
1.0
 17
0.0
 27
0.0
 37
0.0
 40
212.1
 41
1.73205081
 42
50.0
 43
0.0
 44
0.0
 50
0.0
 51
0.0
 71
       0
 72
     100
 73
       1
 74
       1
 75
       0
 76
       0
 77
       0
 78
       0
  0
ENDTAB
  0
TABLE
  2
LTYPE
 70
       1
  0
LTYPE
  2
CONTINUOUS
 70
      64
  3
Solid line
 72
      65
 73
       0
 40
0.0
  0
ENDTAB
  0
TABLE
  2
LAYER
 70
       2
  0
LAYER
  2
0
 70
       0
 62
       7
  6
CONTINUOUS
  0
LAYER
  2
DEFPOINTS
 70
       0
 62
       7
  6
CONTINUOUS
  0
ENDTAB
  0
TABLE
  2
STYLE
 70
       1
  0
STYLE
  2
MX_NOTE_STANDARD
 70
       0
 40
0.0
 41
1.0
 50
0.0
 71
       0
 42
3.20000005
  3
txt.shx
  4
extfont.shx
  0
ENDTAB
  0
TABLE
  2
VIEW
 70
       0
  0
ENDTAB
  0
TABLE
  2
UCS
 70
       0
  0
ENDTAB
  0
TABLE
  2
APPID
 70
       1
  0
APPID
  2
ACAD
 70
       0
  0
ENDTAB
  0
TABLE
  2
DIMSTYLE
 70
       1
  0
DIMSTYLE
  2
MXDIMSTYLE
 70
       0
  3

  4

  5

  6
_OPEN30
  7
_OPEN30
 40
1.0
 41
2.5
 42
1.5
 43
3.75
 44
1.5
 45
0.0
 46
0.0
 47
0.0
 48
0.0
 71
       0
 72
       0
 73
       0
 74
       0
 75
       0
 76
       0
 77
       1
 78
       8
140
3.20000005
141
2.5
142
0.0
143
0.03937008
144
1.0
145
0.0
146
1.0
147
1.0
170
       0
171
       4
172
       1
173
       1
174
       0
175
       0
176
       0
177
       0
178
       0
  0
ENDTAB
  0
ENDSEC
  0
SECTION
  2
BLOCKS
  0
BLOCK
  8
0
  6
BYBLOCK
 62
       0
  5
1F
  2
_OPEN30
 70
       2
 10
0.0
 20
0.0
 30
0.0
  3
_OPEN30
  0
LINE
  8
0
  6
BYBLOCK
 62
       0
  5
20
 10
-1.0
 20
0.267949
 30
0.0
 11
0.0
 21
0.0
 31
0.0
  0
LINE
  8
0
  6
BYBLOCK
 62
       0
  5
21
 10
0.0
 20
0.0
 30
0.0
 11
-1.0
 21
-0.267949
 31
0.0
  0
LINE
  8
0
  6
BYBLOCK
 62
       0
  5
22
 10
0.0
 20
0.0
 30
0.0
 11
-1.0
 21
0.0
 31
0.0
  0
ENDBLK
  8
0
  6
BYBLOCK
 62
       0
  5
23
  0
ENDSEC
  0
SECTION
  2
ENTITIES
  0
TEXT
  8
0
  6
CONTINUOUS
 62
       7
  5
24
 10
-110.2514222
 20
67.89999998
 30
0.0
 40
3.20000005
  1
PS420A
 41
1.02857143
  7
MX_NOTE_STANDARD
 11
-110.2514222
 21
69.5
 31
0.0
 73
       2
  0
TEXT
  8
0
  6
CONTINUOUS
 62
       7
  5
25
 10
-110.21817544
 20
72.89999998
 30
0.0
 40
3.20000005
  1
PS410A
 41
1.09090909
  7
MX_NOTE_STANDARD
 11
-110.21817544
 21
74.5
 31
0.0
 73
       2
  0
TEXT
  8
0
  6
CONTINUOUS
 62
       7
  5
26
 10
-110.24826949
 20
77.89999998
 30
0.0
 40
3.20000005
  1
PS420
 41
1.03448276
  7
MX_NOTE_STANDARD
 11
-110.24826949
 21
79.5
 31
0.0
 73
       2
  0
LINE
  8
0
  6
CONTINUOUS
 62
       7
  5
27
 10
-38.48530639
 20
30.45934096
 30
0.0
 11
-38.48530639
 21
45.45934096
 31
0.0
  0
LINE
  8
0
  6
CONTINUOUS
 62
       7
  5
28
 10
6.51469361
 20
30.95934096
 30
0.0
 11
6.51469361
 21
32.20934096
 31
0.0
  0
LINE
  8
0
  6
CONTINUOUS
 62
       7
  5
29
 10
-31.48530639
 20
30.45934096
 30
0.0
 11
-31.48530639
 21
45.45934096
 31
0.0
  0
LINE
  8
0
  6
CONTINUOUS
 62
       7
  5
2A
 10
-38.48530639
 20
45.45934096
 30
0.0
 11
6.01469361
 21
45.45934096
 31
0.0
  0
LINE
  8
0
  6
CONTINUOUS
 62
       7
  5
2B
 10
-38.48530639
 20
30.45934096
 30
0.0
 11
6.01469361
 21
30.45934096
 31
0.0
  0
LINE
  8
0
  6
CONTINUOUS
 62
       2
  5
2C
 10
-20.08530639
 20
33.55934096
 30
0.0
 11
-12.08530639
 21
33.55934096
 31
0.0
  0
LINE
  8
0
  6
CONTINUOUS
 62
       2
  5
2D
 10
-9.08530639
 20
33.55934096
 30
0.0
 11
-1.08530639
 21
33.55934096
 31
0.0
  0
LINE
  8
0
  6
CONTINUOUS
 62
       2
  5
2E
 10
-16.08530639
 20
29.55934096
 30
0.0
 11
-16.08530639
 21
37.64560245
 31
0.0
  0
LINE
  8
0
  6
CONTINUOUS
 62
       2
  5
2F
 10
-5.08530639
 20
29.55934096
 30
0.0
 11
-5.08530639
 21
37.55934096
 31
0.0
  0
CIRCLE
  8
0
  6
CONTINUOUS
 62
       7
  5
30
 10
-16.08530639
 20
33.55934096
 30
0.0
 40
1.65
  0
CIRCLE
  8
0
  6
CONTINUOUS
 62
       7
  5
31
 10
-5.08530639
 20
33.55934096
 30
0.0
 40
1.65
  0
LINE
  8
0
  6
CONTINUOUS
 62
       7
  5
32
 10
-8.08530639
 20
30.45934096
 30
0.0
 11
-8.08530639
 21
33.45934096
 31
0.0
  0
LINE
  8
0
  6
CONTINUOUS
 62
       7
  5
33
 10
-2.08530639
 20
30.45934096
 30
0.0
 11
-2.08530639
 21
33.45934096
 31
0.0
  0
LINE
  8
0
  6
CONTINUOUS
 62
       7
  5
34
 10
-19.08530639
 20
30.45934096
 30
0.0
 11
-19.08530639
 21
33.45934096
 31
0.0
  0
LINE
  8
0
  6
CONTINUOUS
 62
       7
  5
35
 10
-13.08530639
 20
30.45934096
 30
0.0
 11
-13.08530639
 21
33.45934096
 31
0.0
  0
ARC
  8
0
  6
CONTINUOUS
 62
       7
  5
36
 10
-5.08530639
 20
33.45934096
 30
0.0
 40
3.0
 50
0.0
 51
90.0
  0
ARC
  8
0
  6
CONTINUOUS
 62
       7
  5
37
 10
-5.08530639
 20
33.45934096
 30
0.0
 40
3.0
 50
90.0
 51
180.0
  0
ARC
  8
0
  6
CONTINUOUS
 62
       7
  5
38
 10
-16.08530639
 20
33.45934096
 30
0.0
 40
3.0
 50
0.0
 51
90.0
  0
ARC
  8
0
  6
CONTINUOUS
 62
       7
  5
39
 10
-16.08530639
 20
33.45934096
 30
0.0
 40
3.0
 50
90.0
 51
180.0
  0
LINE
  8
0
  6
CONTINUOUS
 62
       7
  5
3A
 10
-1.36201872
 20
32.20934096
 30
0.0
 11
-1.36201872
 21
43.70934096
 31
0.0
  0
LINE
  8
0
  6
CONTINUOUS
 62
       7
  5
3B
 10
-0.86201872
 20
32.20934096
 30
0.0
 11
-0.86201872
 21
43.70934096
 31
0.0
  0
LINE
  8
0
  6
CONTINUOUS
 62
       7
  5
3C
 10
4.63798128
 20
32.20934096
 30
0.0
 11
4.63798128
 21
43.70934096
 31
0.0
  0
LINE
  8
0
  6
CONTINUOUS
 62
       7
  5
3D
 10
7.51469361
 20
33.20934096
 30
0.0
 11
7.51469361
 21
42.70934096
 31
0.0
  0
LINE
  8
0
  6
CONTINUOUS
 62
       2
  5
3E
 10
-48.98565023
 20
37.95934096
 30
0.0
 11
8.51469361
 21
37.95934096
 31
0.0
  0
LINE
  8
0
  6
CONTINUOUS
 62
       7
  5
3F
 10
-1.36201872
 20
43.70934096
 30
0.0
 11
6.51469361
 21
43.70934096
 31
0.0
  0
LINE
  8
0
  6
CONTINUOUS
 62
       7
  5
40
 10
-1.36201872
 20
32.20934096
 30
0.0
 11
6.51469361
 21
32.20934096
 31
0.0
  0
LINE
  8
0
  6
CONTINUOUS
 62
       7
  5
41
 10
6.51469361
 20
43.70934096
 30
0.0
 11
6.51469361
 21
44.95934096
 31
0.0
  0
ARC
  8
0
  6
CONTINUOUS
 62
       7
  5
42
 10
6.51469361
 20
33.20934096
 30
0.0
 40
1.0
 50
270.0
 51
0.0
  0
ARC
  8
0
  6
CONTINUOUS
 62
       7
  5
43
 10
6.51469361
 20
42.70934096
 30
0.0
 40
1.0
 50
0.0
 51
90.0
  0
LINE
  8
0
  6
CONTINUOUS
 62
       7
  5
44
 10
3.01469361
 20
30.45934096
 30
0.0
 11
3.01469361
 21
32.20934096
 31
0.0
  0
LINE
  8
0
  6
CONTINUOUS
 62
       7
  5
45
 10
3.01469361
 20
43.70934096
 30
0.0
 11
3.01469361
 21
45.45934096
 31
0.0
  0
ARC
  8
0
  6
CONTINUOUS
 62
       7
  5
46
 10
6.01469361
 20
30.95934096
 30
0.0
 40
0.5
 50
270.0
 51
0.0
  0
ARC
  8
0
  6
CONTINUOUS
 62
       7
  5
47
 10
6.01469361
 20
44.95934096
 30
0.0
 40
0.5
 50
0.0
 51
90.0
  0
LINE
  8
0
  6
CONTINUOUS
 62
       7
  5
48
 10
-38.48530639
 20
42.91478672
 30
0.0
 11
-46.98564987
 21
42.64915099
 31
0.0
  0
LINE
  8
0
  6
CONTINUOUS
 62
       2
  5
49
 10
-38.48530639
 20
42.32884848
 30
0.0
 11
-46.9856502
 21
42.06321274
 31
0.0
  0
LINE
  8
0
  6
CONTINUOUS
 62
       7
  5
4A
 10
-46.98565023
 20
33.30888109
 30
0.0
 11
-46.98565023
 21
42.64915018
 31
0.0
  0
LINE
  8
0
  6
CONTINUOUS
 62
       2
  5
4B
 10
-38.48530639
 20
33.62924566
 30
0.0
 11
-46.98565163
 21
33.89488145
 31
0.0
  0
LINE
  8
0
  6
CONTINUOUS
 62
       7
  5
4C
 10
-38.48530639
 20
33.04324635
 30
0.0
 11
-46.98565035
 21
33.3088821
 31
0.0
  0
LINE
  8
0
  6
CONTINUOUS
 62
       7
  5
4D
 10
6.51469361
 20
44.45934096
 30
0.0
 11
16.43304427
 21
44.45934096
 31
0.0
  0
LINE
  8
0
  6
CONTINUOUS
 62
       7
  5
4E
 10
7.51469361
 20
40.65934096
 30
0.0
 11
18.62697529
 21
40.65934096
 31
0.0
  0
LINE
  8
0
  6
CONTINUOUS
 62
       7
  5
4F
 10
31.71469359
 20
44.45934094
 30
0.0
 11
31.71469359
 21
40.65934096
 31
0.0
  0
LINE
  8
0
  6
CONTINUOUS
 62
       2
  5
50
 10
15.37608249
 20
46.29005256
 30
0.0
 11
20.18831216
 21
37.95502628
 31
0.0
  0
LINE
  8
0
  6
CONTINUOUS
 62
       2
  5
51
 10
18.14249369
 20
46.49848777
 30
0.0
 11
22.96734326
 21
38.14160318
 31
0.0
  0
LINE
  8
0
  6
CONTINUOUS
 62
       7
  5
52
 10
21.51372661
 20
40.65934096
 30
0.0
 11
31.71469359
 21
40.65934096
 31
0.0
  0
LINE
  8
0
  6
CONTINUOUS
 62
       7
  5
53
 10
19.31979559
 20
44.45934096
 30
0.0
 11
31.71469359
 21
44.45934096
 31
0.0
  0
LINE
  8
0
  6
CONTINUOUS
 62
       7
  5
54
 10
37.44869418
 20
40.95934096
 30
0.0
 11
31.71469359
 21
40.95934096
 31
0.0
  0
LINE
  8
0
  6
CONTINUOUS
 62
       7
  5
55
 10
31.71469348
 20
43.97235879
 30
0.0
 11
40.19197494
 21
44.71402482
 31
0.0
  0
LINE
  8
0
  6
CONTINUOUS
 62
       7
  5
56
 10
40.03931573
 20
44.69923221
 30
0.0
 11
57.34083058
 21
47.74995608
 31
0.0
  0
LINE
  8
0
  6
CONTINUOUS
 62
       7
  5
57
 10
40.21296391
 20
43.71442445
 30
0.0
 11
57.68812694
 21
46.79576719
 31
0.0
  0
LINE
  8
0
  6
CONTINUOUS
 62
       7
  5
58
 10
37.45788043
 20
40.95934094
 30
0.0
 11
40.21296393
 21
43.71442444
 31
0.0
  0
LINE
  8
0
  6
CONTINUOUS
 62
       7
  5
59
 10
57.34083058
 20
47.74995608
 30
0.0
 11
57.68812694
 21
46.7957672
 31
0.0
  0
LINE
  8
0
  6
CONTINUOUS
 62
       7
  5
5A
 10
39.73948788
 20
43.24094838
 30
0.0
 11
57.61591556
 21
43.24094838
 31
0.0
  0
LINE
  8
0
  6
CONTINUOUS
 62
       7
  5
5B
 10
38.73948788
 20
42.24094838
 30
0.0
 11
57.61591556
 21
42.24094838
 31
0.0
  0
LINE
  8
0
  6
CONTINUOUS
 62
       7
  5
5C
 10
37.73948788
 20
41.24094838
 30
0.0
 11
57.61591556
 21
41.24094838
 31
0.0
  0
LINE
  8
0
  6
CONTINUOUS
 62
       7
  5
5D
 10
57.61591556
 20
44.17781226
 30
0.0
 11
57.61591556
 21
43.24094838
 31
0.0
  0
LINE
  8
0
  6
CONTINUOUS
 62
       7
  5
5E
 10
50.61591556
 20
43.8109578
 30
0.0
 11
50.61591556
 21
40.5661234
 31
0.0
  0
LINE
  8
0
  6
CONTINUOUS
 62
       7
  5
5F
 10
57.61591556
 20
43.24094838
 30
0.0
 11
57.61591556
 21
41.24094838
 31
0.0
  0
LINE
  8
0
  6
CONTINUOUS
 62
       7
  5
60
 10
57.61591556
 20
41.24094838
 30
0.0
 11
57.61591556
 21
40.19926895
 31
0.0
  0
LINE
  8
0
  6
CONTINUOUS
 62
       7
  5
61
 10
37.73948782
 20
41.24094839
 30
0.0
 11
57.61591556
 21
40.19926895
 31
0.0
  0
LINE
  8
0
  6
CONTINUOUS
 62
       7
  5
62
 10
39.73948782
 20
43.24094838
 30
0.0
 11
57.61591556
 21
44.17781226
 31
0.0
  0
LINE
  8
0
  6
CONTINUOUS
 62
       7
  5
63
 10
86.51469361
 20
-25.0355264
 30
0.0
 11
86.51469361
 21
-1.18930084
 31
0.0
  0
LINE
  8
0
  6
CONTINUOUS
 62
       7
  5
64
 10
101.51469361
 20
-25.20962635
 30
0.0
 11
101.51469361
 21
-1.18930084
 31
0.0
  0
LINE
  8
0
  6
CONTINUOUS
 62
       7
  5
65
 10
87.01469361
 20
-25.48930084
 30
0.0
 11
101.01469361
 21
-25.48930084
 31
0.0
  0
LINE
  8
0
  6
CONTINUOUS
 62
       7
  5
66
 10
87.01469361
 20
-0.68930084
 30
0.0
 11
88.26469361
 21
-0.68930084
 31
0.0
  0
ARC
  8
0
  6
CONTINUOUS
 62
       7
  5
67
 10
101.01469361
 20
-1.18930084
 30
0.0
 40
0.5
 50
0.0
 51
90.0
  0
ARC
  8
0
  6
CONTINUOUS
 62
       7
  5
68
 10
101.01469361
 20
-24.98930084
 30
0.0
 40
0.5
 50
270.0
 51
0.0
  0
ARC
  8
0
  6
CONTINUOUS
 62
       7
  5
69
 10
87.01469361
 20
-24.98930084
 30
0.0
 40
0.5
 50
180.0
 51
270.0
  0
ARC
  8
0
  6
CONTINUOUS
 62
       7
  5
6A
 10
87.01469361
 20
-1.18930084
 30
0.0
 40
0.5
 50
90.0
 51
180.0
  0
LINE
  8
0
  6
CONTINUOUS
 62
       7
  5
6B
 10
88.26469361
 20
-8.68930084
 30
0.0
 11
88.26469361
 21
-0.18930084
 31
0.0
  0
LINE
  8
0
  6
CONTINUOUS
 62
       7
  5
6C
 10
99.76469361
 20
-0.12900431
 30
0.0
 11
99.76469361
 21
-8.68930084
 31
0.0
  0
LINE
  8
0
  6
CONTINUOUS
 62
       7
  5
6D
 10
88.76469361
 20
0.31069916
 30
0.0
 11
99.26469361
 21
0.31069916
 31
0.0
  0
ARC
  8
0
  6
CONTINUOUS
 62
       7
  5
6E
 10
99.26469361
 20
-0.18930084
 30
0.0
 40
0.5
 50
0.0
 51
90.0
  0
ARC
  8
0
  6
CONTINUOUS
 62
       7
  5
6F
 10
88.76469361
 20
-0.18930084
 30
0.0
 40
0.5
 50
90.0
 51
180.0
  0
LINE
  8
0
  6
CONTINUOUS
 62
       7
  5
70
 10
99.76469361
 20
-0.68930084
 30
0.0
 11
101.01469361
 21
-0.68930084
 31
0.0
  0
LINE
  8
0
  6
CONTINUOUS
 62
       7
  5
71
 10
88.76469361
 20
-5.68930084
 30
0.0
 11
99.26469361
 21
-5.68930084
 31
0.0
  0
LINE
  8
0
  6
CONTINUOUS
 62
       7
  5
72
 10
88.26469361
 20
-8.68930084
 30
0.0
 11
99.76469361
 21
-8.68930084
 31
0.0
  0
LINE
  8
0
  6
CONTINUOUS
 62
       7
  5
73
 10
87.01469361
 20
-7.98930084
 30
0.0
 11
88.26469361
 21
-7.98930084
 31
0.0
  0
ARC
  8
0
  6
CONTINUOUS
 62
       7
  5
74
 10
99.26469361
 20
-5.18930084
 30
0.0
 40
0.5
 50
270.0
 51
0.0
  0
ARC
  8
0
  6
CONTINUOUS
 62
       7
  5
75
 10
88.76469361
 20
-5.18930084
 30
0.0
 40
0.5
 50
180.0
 51
270.0
  0
LINE
  8
0
  6
CONTINUOUS
 62
       7
  5
76
 10
99.76469361
 20
-7.98930084
 30
0.0
 11
101.01469361
 21
-7.98930084
 31
0.0
  0
ARC
  8
0
  6
CONTINUOUS
 62
       7
  5
77
 10
101.01469361
 20
-7.48930084
 30
0.0
 40
0.5
 50
270.0
 51
0.0
  0
ARC
  8
0
  6
CONTINUOUS
 62
       7
  5
78
 10
87.01469361
 20
-7.48930084
 30
0.0
 40
0.5
 50
180.0
 51
270.0
  0
LINE
  8
0
  6
CONTINUOUS
 62
       2
  5
79
 10
87.01469361
 20
-10.98930084
 30
0.0
 11
92.01469361
 21
-10.98930084
 31
0.0
  0
LINE
  8
0
  6
CONTINUOUS
 62
       2
  5
7A
 10
89.51469361
 20
-13.48930084
 30
0.0
 11
89.51469361
 21
-8.48930084
 31
0.0
  0
LINE
  8
0
  6
CONTINUOUS
 62
       2
  5
7B
 10
89.51469361
 20
-21.48930084
 30
0.0
 11
89.51469361
 21
-16.48930084
 31
0.0
  0
LINE
  8
0
  6
CONTINUOUS
 62
       2
  5
7C
 10
87.01469361
 20
-18.98930084
 30
0.0
 11
92.01469361
 21
-18.98930084
 31
0.0
  0
CIRCLE
  8
0
  6
CONTINUOUS
 62
       7
  5
7D
 10
89.51469361
 20
-10.98930084
 30
0.0
 40
1.75
  0
CIRCLE
  8
0
  6
CONTINUOUS
 62
       7
  5
7E
 10
89.51469361
 20
-18.98930084
 30
0.0
 40
1.75
  0
CIRCLE
  8
0
  6
CONTINUOUS
 62
       7
  5
7F
 10
89.51469361
 20
-10.98930084
 30
0.0
 40
1.0
  0
CIRCLE
  8
0
  6
CONTINUOUS
 62
       7
  5
80
 10
89.51469361
 20
-18.98930084
 30
0.0
 40
1.0
  0
LINE
  8
0
  6
CONTINUOUS
 62
       2
  5
81
 10
88.57512763
 20
-10.68930084
 30
0.0
 11
90.47043919
 21
-10.68930084
 31
0.0
  0
LINE
  8
0
  6
CONTINUOUS
 62
       2
  5
82
 10
88.62135474
 20
-11.28930084
 30
0.0
 11
90.47043919
 21
-11.28930084
 31
0.0
  0
LINE
  8
0
  6
CONTINUOUS
 62
       2
  5
83
 10
88.52890052
 20
-18.68930084
 30
0.0
 11
90.5166663
 21
-18.68930084
 31
0.0
  0
LINE
  8
0
  6
CONTINUOUS
 62
       2
  5
84
 10
88.52890052
 20
-19.28930084
 30
0.0
 11
90.5166663
 21
-19.28930084
 31
0.0
  0
LINE
  8
0
  6
CONTINUOUS
 62
       7
  5
85
 10
96.31469361
 20
-25.38930084
 30
0.0
 11
100.91469361
 21
-25.38930084
 31
0.0
  0
LINE
  8
0
  6
CONTINUOUS
 62
       7
  5
86
 10
101.41469361
 20
-24.88930084
 30
0.0
 11
101.41469361
 21
-18.28930084
 31
0.0
  0
LINE
  8
0
  6
CONTINUOUS
 62
       7
  5
87
 10
96.31469361
 20
-17.78930084
 30
0.0
 11
100.91469361
 21
-17.78930084
 31
0.0
  0
LINE
  8
0
  6
CONTINUOUS
 62
       7
  5
88
 10
95.81469361
 20
-24.88930084
 30
0.0
 11
95.81469361
 21
-18.28930084
 31
0.0
  0
ARC
  8
0
  6
CONTINUOUS
 62
       7
  5
89
 10
96.31469361
 20
-18.28930084
 30
0.0
 40
0.5
 50
90.0
 51
180.0
  0
ARC
  8
0
  6
CONTINUOUS
 62
       7
  5
8A
 10
100.91469361
 20
-18.28930084
 30
0.0
 40
0.5
 50
0.0
 51
90.0
  0
ARC
  8
0
  6
CONTINUOUS
 62
       7
  5
8B
 10
96.31469361
 20
-24.88930084
 30
0.0
 40
0.5
 50
180.0
 51
270.0
  0
ARC
  8
0
  6
CONTINUOUS
 62
       7
  5
8C
 10
100.91469361
 20
-24.88930084
 30
0.0
 40
0.5
 50
270.0
 51
0.0
  0
CIRCLE
  8
0
  6
CONTINUOUS
 62
       7
  5
8D
 10
98.61469361
 20
-21.58930084
 30
0.0
 40
1.9
  0
LINE
  8
0
  6
CONTINUOUS
 62
       7
  5
8E
 10
91.48122656
 20
-12.82387018
 30
0.0
 11
93.65532858
 21
-12.82387018
 31
0.0
  0
ARC
  8
0
  6
CONTINUOUS
 62
       7
  5
8F
 10
89.01469361
 20
-10.98930084
 30
0.0
 40
3.1
 50
323.71539848
 51
31.59007018
  0
ARC
  8
0
  6
CONTINUOUS
 62
       7
  5
90
 10
90.14565074
 20
-12.54595959
 30
0.0
 40
3.52066369
 50
355.47253358
 51
64.4461689
  0
ARC
  8
0
  6
CONTINUOUS
 62
       7
  5
91
 10
89.01469361
 20
-18.98930084
 30
0.0
 40
3.1
 50
323.71539848
 51
31.59007018
  0
ARC
  8
0
  6
CONTINUOUS
 62
       7
  5
92
 10
90.14565074
 20
-20.54595959
 30
0.0
 40
3.52066369
 50
355.47253358
 51
64.4461689
  0
LINE
  8
0
  6
CONTINUOUS
 62
       7
  5
93
 10
91.48122656
 20
-20.82387018
 30
0.0
 11
93.65532858
 21
-20.82387018
 31
0.0
  0
LINE
  8
0
  6
CONTINUOUS
 62
       7
  5
94
 10
31.51469361
 20
-23.48930082
 30
0.0
 11
31.51469361
 21
-19.68930084
 31
0.0
  0
LINE
  8
0
  6
CONTINUOUS
 62
       2
  5
95
 10
15.17608251
 20
-25.32001244
 30
0.0
 11
19.98831218
 21
-16.98498615
 31
0.0
  0
LINE
  8
0
  6
CONTINUOUS
 62
       2
  5
96
 10
17.94249371
 20
-25.52844765
 30
0.0
 11
22.76734328
 21
-17.17156306
 31
0.0
  0
LINE
  8
0
  6
CONTINUOUS
 62
       7
  5
97
 10
21.31372663
 20
-19.68930084
 30
0.0
 11
31.51469361
 21
-19.68930084
 31
0.0
  0
LINE
  8
0
  6
CONTINUOUS
 62
       7
  5
98
 10
19.11979561
 20
-23.48930084
 30
0.0
 11
31.51469361
 21
-23.48930084
 31
0.0
  0
LINE
  8
0
  6
CONTINUOUS
 62
       7
  5
99
 10
37.24869419
 20
-19.98930084
 30
0.0
 11
31.51469361
 21
-19.98930084
 31
0.0
  0
LINE
  8
0
  6
CONTINUOUS
 62
       7
  5
9A
 10
31.51469349
 20
-23.00231867
 30
0.0
 11
39.99197496
 21
-23.74398469
 31
0.0
  0
LINE
  8
0
  6
CONTINUOUS
 62
       7
  5
9B
 10
39.83931575
 20
-23.72919208
 30
0.0
 11
57.14083059
 21
-26.77991596
 31
0.0
  0
LINE
  8
0
  6
CONTINUOUS
 62
       7
  5
9C
 10
40.01296392
 20
-22.74438433
 30
0.0
 11
57.48812696
 21
-25.82572707
 31
0.0
  0
LINE
  8
0
  6
CONTINUOUS
 62
       7
  5
9D
 10
37.25788044
 20
-19.98930082
 30
0.0
 11
40.01296395
 21
-22.74438432
 31
0.0
  0
LINE
  8
0
  6
CONTINUOUS
 62
       7
  5
9E
 10
57.1408306
 20
-26.77991596
 30
0.0
 11
57.48812696
 21
-25.82572707
 31
0.0
  0
LINE
  8
0
  6
CONTINUOUS
 62
       7
  5
9F
 10
39.53948789
 20
-22.27090826
 30
0.0
 11
57.41591558
 21
-22.27090826
 31
0.0
  0
LINE
  8
0
  6
CONTINUOUS
 62
       7
  5
A0
 10
38.53948789
 20
-21.27090826
 30
0.0
 11
57.41591558
 21
-21.27090826
 31
0.0
  0
LINE
  8
0
  6
CONTINUOUS
 62
       7
  5
A1
 10
37.53948789
 20
-20.27090826
 30
0.0
 11
57.41591558
 21
-20.27090826
 31
0.0
  0
LINE
  8
0
  6
CONTINUOUS
 62
       7
  5
A2
 10
57.41591558
 20
-23.20777214
 30
0.0
 11
57.41591558
 21
-22.27090826
 31
0.0
  0
LINE
  8
0
  6
CONTINUOUS
 62
       7
  5
A3
 10
50.41591558
 20
-22.84091768
 30
0.0
 11
50.41591558
 21
-19.59608328
 31
0.0
  0
LINE
  8
0
  6
CONTINUOUS
 62
       7
  5
A4
 10
57.41591558
 20
-22.27090826
 30
0.0
 11
57.41591558
 21
-20.27090826
 31
0.0
  0
LINE
  8
0
  6
CONTINUOUS
 62
       7
  5
A5
 10
57.41591558
 20
-20.27090826
 30
0.0
 11
57.41591558
 21
-19.22922883
 31
0.0
  0
LINE
  8
0
  6
CONTINUOUS
 62
       7
  5
A6
 10
37.53948783
 20
-20.27090826
 30
0.0
 11
57.41591558
 21
-19.22922883
 31
0.0
  0
LINE
  8
0
  6
CONTINUOUS
 62
       7
  5
A7
 10
39.53948783
 20
-22.27090826
 30
0.0
 11
57.41591558
 21
-23.20777214
 31
0.0
  0
LINE
  8
0
  6
CONTINUOUS
 62
       7
  5
A8
 10
-99.65821171
 20
-24.98930084
 30
0.0
 11
-99.65821171
 21
-1.18930084
 31
0.0
  0
LINE
  8
0
  6
CONTINUOUS
 62
       7
  5
A9
 10
-99.15821171
 20
-0.68930084
 30
0.0
 11
-85.15821171
 21
-0.68930084
 31
0.0
  0
LINE
  8
0
  6
CONTINUOUS
 62
       7
  5
AA
 10
-99.15821171
 20
-25.48930084
 30
0.0
 11
-85.15821171
 21
-25.48930084
 31
0.0
  0
LINE
  8
0
  6
CONTINUOUS
 62
       7
  5
AB
 10
-84.65821171
 20
-24.98930084
 30
0.0
 11
-84.65821171
 21
-1.18930084
 31
0.0
  0
LINE
  8
0
  6
CONTINUOUS
 62
       7
  5
AC
 10
-38.48530639
 20
-25.48930084
 30
0.0
 11
-38.48530639
 21
-0.68930084
 31
0.0
  0
LINE
  8
0
  6
CONTINUOUS
 62
       7
  5
AD
 10
6.51469361
 20
-25.48930084
 30
0.0
 11
6.51469361
 21
-7.98930084
 31
0.0
  0
LINE
  8
0
  6
CONTINUOUS
 62
       7
  5
AE
 10
-38.48530639
 20
-0.68930084
 30
0.0
 11
3.01469361
 21
-0.68930084
 31
0.0
  0
LINE
  8
0
  6
CONTINUOUS
 62
       7
  5
AF
 10
-38.48530639
 20
-25.48930084
 30
0.0
 11
7.11469361
 21
-25.48930084
 31
0.0
  0
LINE
  8
0
  6
CONTINUOUS
 62
       7
  5
B0
 10
-31.48530639
 20
-25.48930084
 30
0.0
 11
-31.48530639
 21
-0.68930084
 31
0.0
  0
LINE
  8
0
  6
CONTINUOUS
 62
       7
  5
B1
 10
-19.08530639
 20
-2.68930086
 30
0.0
 11
-19.08530639
 21
-0.68930084
 31
0.0
  0
LINE
  8
0
  6
CONTINUOUS
 62
       7
  5
B2
 10
-13.08530639
 20
-2.68930086
 30
0.0
 11
-13.08530639
 21
-0.68930084
 31
0.0
  0
LINE
  8
0
  6
CONTINUOUS
 62
       7
  5
B3
 10
-8.08530639
 20
-2.68930086
 30
0.0
 11
-8.08530639
 21
-0.68930084
 31
0.0
  0
LINE
  8
0
  6
CONTINUOUS
 62
       7
  5
B4
 10
-2.08530639
 20
-2.68930086
 30
0.0
 11
-2.08530639
 21
-0.68930084
 31
0.0
  0
LINE
  8
0
  6
CONTINUOUS
 62
       7
  5
B5
 10
-19.08530639
 20
-2.68930084
 30
0.0
 11
-13.08530639
 21
-2.68930084
 31
0.0
  0
LINE
  8
0
  6
CONTINUOUS
 62
       7
  5
B6
 10
-8.08530639
 20
-2.68930084
 30
0.0
 11
-2.08530639
 21
-2.68930084
 31
0.0
  0
LINE
  8
0
  6
CONTINUOUS
 62
       7
  5
B7
 10
-29.48530639
 20
-21.48930084
 30
0.0
 11
-29.48530639
 21
-5.98930084
 31
0.0
  0
LINE
  8
0
  6
CONTINUOUS
 62
       7
  5
B8
 10
-0.48530639
 20
-21.48930084
 30
0.0
 11
-0.48530639
 21
-5.98930084
 31
0.0
  0
LINE
  8
0
  6
CONTINUOUS
 62
       7
  5
B9
 10
-27.48530639
 20
-23.48930084
 30
0.0
 11
-2.48530639
 21
-23.48930084
 31
0.0
  0
LINE
  8
0
  6
CONTINUOUS
 62
       7
  5
BA
 10
-27.48530639
 20
-3.98930084
 30
0.0
 11
-2.48530639
 21
-3.98930084
 31
0.0
  0
ARC
  8
0
  6
CONTINUOUS
 62
       7
  5
BB
 10
-27.48530639
 20
-5.98930084
 30
0.0
 40
2.0
 50
90.0
 51
180.0
  0
ARC
  8
0
  6
CONTINUOUS
 62
       7
  5
BC
 10
-2.48530639
 20
-21.48930084
 30
0.0
 40
2.0
 50
270.0
 51
0.0
  0
ARC
  8
0
  6
CONTINUOUS
 62
       7
  5
BD
 10
-2.48530639
 20
-5.98930084
 30
0.0
 40
2.0
 50
0.0
 51
90.0
  0
ARC
  8
0
  6
CONTINUOUS
 62
       7
  5
BE
 10
-27.48530639
 20
-21.48930084
 30
0.0
 40
2.0
 50
180.0
 51
270.0
  0
CIRCLE
  8
0
  6
CONTINUOUS
 62
       7
  5
BF
 10
2.01469361
 20
-4.18930084
 30
0.0
 40
1.0
  0
LINE
  8
0
  6
CONTINUOUS
 62
       7
  5
C0
 10
3.01469361
 20
-0.68930084
 30
0.0
 11
6.51469361
 21
-7.98930084
 31
0.0
  0
LINE
  8
0
  6
CONTINUOUS
 62
       7
  5
C1
 10
-0.86201872
 20
0.31069916
 30
0.0
 11
4.63798128
 21
0.31069916
 31
0.0
  0
LINE
  8
0
  6
CONTINUOUS
 62
       7
  5
C2
 10
7.31469361
 20
-25.28930084
 30
0.0
 11
7.31469361
 21
-18.08930084
 31
0.0
  0
LINE
  8
0
  6
CONTINUOUS
 62
       2
  5
C3
 10
-33.98530639
 20
-22.08930084
 30
0.0
 11
-33.98530639
 21
-16.08930084
 31
0.0
  0
LINE
  8
0
  6
CONTINUOUS
 62
       7
  5
C4
 10
7.51469361
 20
-8.68930084
 30
0.0
 11
6.51469361
 21
-8.68930084
 31
0.0
  0
LINE
  8
0
  6
CONTINUOUS
 62
       7
  5
C5
 10
7.51469361
 20
-5.68930084
 30
0.0
 11
7.51469361
 21
-8.68930084
 31
0.0
  0
LINE
  8
0
  6
CONTINUOUS
 62
       7
  5
C6
 10
4.63798128
 20
0.31069916
 30
0.0
 11
7.51469361
 21
-5.68930084
 31
0.0
  0
LINE
  8
0
  6
CONTINUOUS
 62
       7
  5
C7
 10
-1.36201872
 20
-0.68930084
 30
0.0
 11
-0.86201872
 21
0.31069916
 31
0.0
  0
LINE
  8
0
  6
CONTINUOUS
 62
       7
  5
C8
 10
6.51469361
 20
-17.88930084
 30
0.0
 11
7.11469361
 21
-17.88930084
 31
0.0
  0
ARC
  8
0
  6
CONTINUOUS
 62
       7
  5
C9
 10
7.11469361
 20
-18.08930084
 30
0.0
 40
0.2
 50
0.0
 51
90.0
  0
ARC
  8
0
  6
CONTINUOUS
 62
       7
  5
CA
 10
7.11469361
 20
-25.28930084
 30
0.0
 40
0.2
 50
270.0
 51
0.0
  0
LINE
  8
0
  6
CONTINUOUS
 62
       2
  5
CB
 10
-36.98530639
 20
-7.08930084
 30
0.0
 11
-30.98530639
 21
-7.08930084
 31
0.0
  0
LINE
  8
0
  6
CONTINUOUS
 62
       2
  5
CC
 10
-36.98530639
 20
-19.08930084
 30
0.0
 11
-30.98530639
 21
-19.08930084
 31
0.0
  0
LINE
  8
0
  6
CONTINUOUS
 62
       2
  5
CD
 10
-33.98530639
 20
-10.08930084
 30
0.0
 11
-33.98530639
 21
-4.08930084
 31
0.0
  0
CIRCLE
  8
0
  6
CONTINUOUS
 62
       7
  5
CE
 10
-33.98530639
 20
-7.08930084
 30
0.0
 40
1.65
  0
CIRCLE
  8
0
  6
CONTINUOUS
 62
       7
  5
CF
 10
-33.98530639
 20
-19.08930084
 30
0.0
 40
1.65
  0
LINE
  8
0
  6
CONTINUOUS
 62
       2
  5
D0
 10
-92.15821171
 20
-21.08930084
 30
0.0
 11
-92.15821171
 21
-5.08930084
 31
0.0
  0
LINE
  8
0
  6
CONTINUOUS
 62
       2
  5
D1
 10
-100.15821171
 20
-13.08930084
 30
0.0
 11
-84.15821171
 21
-13.08930084
 31
0.0
  0
LINE
  8
0
  6
CONTINUOUS
 62
       7
  5
D2
 10
-96.90821171
 20
0.31069916
 30
0.0
 11
-87.40821171
 21
0.31069916
 31
0.0
  0
ARC
  8
0
  6
CONTINUOUS
 62
       7
  5
D3
 10
-87.40821171
 20
-0.68930084
 30
0.0
 40
1.0
 50
0.0
 51
90.0
  0
ARC
  8
0
  6
CONTINUOUS
 62
       7
  5
D4
 10
-96.90821171
 20
-0.68930084
 30
0.0
 40
1.0
 50
90.0
 51
180.0
  0
ARC
  8
0
  6
CONTINUOUS
 62
       7
  5
D5
 10
-85.15821171
 20
-24.98930084
 30
0.0
 40
0.5
 50
270.0
 51
0.0
  0
ARC
  8
0
  6
CONTINUOUS
 62
       7
  5
D6
 10
-85.15821171
 20
-1.18930084
 30
0.0
 40
0.5
 50
0.0
 51
90.0
  0
ARC
  8
0
  6
CONTINUOUS
 62
       7
  5
D7
 10
-99.15821171
 20
-1.18930084
 30
0.0
 40
0.5
 50
90.0
 51
180.0
  0
ARC
  8
0
  6
CONTINUOUS
 62
       7
  5
D8
 10
-99.15821171
 20
-24.98930084
 30
0.0
 40
0.5
 50
180.0
 51
270.0
  0
CIRCLE
  8
0
  6
CONTINUOUS
 62
       7
  5
D9
 10
-92.15821171
 20
-13.08930084
 30
0.0
 40
2.5
  0
CIRCLE
  8
0
  6
CONTINUOUS
 62
       7
  5
DA
 10
-92.15821171
 20
-13.08930084
 30
0.0
 40
4.86399937
  0
CIRCLE
  8
0
  6
CONTINUOUS
 62
       2
  5
DB
 10
-92.15821171
 20
-13.08930084
 30
0.0
 40
4.27799988
  0
LINE
  8
0
  6
CONTINUOUS
 62
       7
  5
DC
 10
-38.48530639
 20
-18.00539545
 30
0.0
 11
-46.98565035
 21
-17.7397597
 31
0.0
  0
LINE
  8
0
  6
CONTINUOUS
 62
       2
  5
DD
 10
-38.48530639
 20
-17.41939614
 30
0.0
 11
-46.98565163
 21
-17.15376035
 31
0.0
  0
LINE
  8
0
  6
CONTINUOUS
 62
       7
  5
DE
 10
-46.98565023
 20
-17.73976071
 30
0.0
 11
-46.98565023
 21
-8.39949162
 31
0.0
  0
LINE
  8
0
  6
CONTINUOUS
 62
       2
  5
DF
 10
-38.48530639
 20
-8.71979332
 30
0.0
 11
-46.9856502
 21
-8.98542906
 31
0.0
  0
LINE
  8
0
  6
CONTINUOUS
 62
       7
  5
E0
 10
-38.48530639
 20
-8.13385508
 30
0.0
 11
-46.98564987
 21
-8.39949081
 31
0.0
  0
LINE
  8
0
  6
CONTINUOUS
 62
       7
  5
E1
 10
7.31469363
 20
-19.68930084
 30
0.0
 11
18.42697531
 21
-19.68930084
 31
0.0
  0
LINE
  8
0
  6
CONTINUOUS
 62
       7
  5
E2
 10
7.31469363
 20
-23.48930084
 30
0.0
 11
16.23304428
 21
-23.48930084
 31
0.0
  0
LINE
  8
0
  6
CONTINUOUS
 62
       2
  5
E3
 10
-48.98565023
 20
-13.08930084
 30
0.0
 11
8.51469361
 21
-13.08930084
 31
0.0
  0
LINE
  8
0
  6
CONTINUOUS
 62
       7
  5
E4
 10
-138.3999939
 20
94.5
 30
0.0
 11
138.3500061
 21
94.5
 31
0.0
  0
LINE
  8
0
  6
CONTINUOUS
 62
       7
  5
E5
 10
138.3500061
 20
94.5
 30
0.0
 11
138.3500061
 21
-94.80000305
 31
0.0
  0
LINE
  8
0
  6
CONTINUOUS
 62
       7
  5
E6
 10
-138.3999939
 20
-94.80000305
 30
0.0
 11
138.3500061
 21
-94.80000305
 31
0.0
  0
LINE
  8
0
  6
CONTINUOUS
 62
       7
  5
E7
 10
-138.3999939
 20
94.5
 30
0.0
 11
-138.3999939
 21
-94.80000305
 31
0.0
  0
TEXT
  8
0
  6
CONTINUOUS
 62
       7
  5
E8
 10
-129.40338374
 20
82.89999998
 30
0.0
 40
3.20000005
  1
MODEL:PS410
 41
1.11864407
  7
MX_NOTE_STANDARD
 11
-129.40338374
 21
84.5
 31
0.0
 73
       2
  0
ENDSEC
  0
EOF
