  0
SECTION
  2
HEADER
  0
ENDSEC
  0
SECTION
  2
TABLES
  0
TABLE
  2
LTYPE
 70
     4
  0
LTYPE
  2
CONTINUOUS
 70
    64
  3
Solid line
 72
    65
 73
     0
 40
0.000000
  0
LTYPE
  2
DASHED
 70
    64
  3
__ __ __ __ __ __ __ __ __ __ __ __ __ __ __
 72
    65
 73
     2
 40
3.500000
 49
2.000000
 49
-1.500000
  0
LTYPE
  2
CENTER
 70
    64
  3
____ _ ____ _ ____ _ ____ _ ____ _ ____ _ ____
 72
    65
 73
     4
 40
17.500000
 49
13.000000
 49
-1.500000
 49
1.500000
 49
-1.500000
  0
LTYPE
  2
PHANTOM
 70
    64
  3
_____ _ _ _____ _ _ _____ _ _ _____ _ _ ____  
 72
    65
 73
     6
 40
15.500000
 49
8.000000
 49
-1.500000
 49
1.500000
 49
-1.500000
 49
1.500000
 49
-1.500000
  0
LTYPE
  2
DASHED1
 70
    64
  3
__ __ __ __ __ __ __ __ __ __ __ __ __ __ __
 72
    65
 73
     2
 40
1.500000
 49
1.000000
 49
-0.500000
  0
LTYPE
  2
DASHED2
 70
    64
  3
__ __ __ __ __ __ __ __ __ __ __ __ __ __ __
 72
    65
 73
     2
 40
3.500000
 49
2.500000
 49
-1.000000
  0
LTYPE
  2
DASHED3
 70
    64
  3
__ __ __ __ __ __ __ __ __ __ __ __ __ __ __
 72
    65
 73
     2
 40
6.000000
 49
4.000000
 49
-2.000000
  0
LTYPE
  2
DASHED4
 70
    64
  3
__ __ __ __ __ __ __ __ __ __ __ __ __ __ __
 72
    65
 73
     2
 40
12.000000
 49
10.000000
 49
-2.000000
  0
LTYPE
  2
DASHED5
 70
    64
  3
__ __ __ __ __ __ __ __ __ __ __ __ __ __ __
 72
    65
 73
     2
 40
17.000000
 49
15.000000
 49
-2.000000
  0
LTYPE
  2
DASHED6
 70
    64
  3
__ __ __ __ __ __ __ __ __ __ __ __ __ __ __
 72
    65
 73
     2
 40
29.000000
 49
27.000000
 49
-2.000000
  0
LTYPE
  2
PHANTOM1
 70
    64
  3
_____ _ _ _____ _ _ _____ _ _ _____ _ _ ____  
 72
    65
 73
     6
 40
31.000000
 49
25.000000
 49
-1.500000
 49
1.000000
 49
-1.000000
 49
1.000000
 49
-1.500000
  0
LTYPE
  2
PHANTOM2
 70
    64
  3
_____ _ _ _____ _ _ _____ _ _ _____ _ _ ____  
 72
    65
 73
     6
 40
36.000000
 49
27.000000
 49
-1.500000
 49
2.500000
 49
-1.000000
 49
2.500000
 49
-1.500000
  0
LTYPE
  2
PHANTOM3
 70
    64
  3
_____ _ _ _____ _ _ _____ _ _ _____ _ _ ____  
 72
    65
 73
     6
 40
78.000000
 49
64.000000
 49
-2.000000
 49
4.000000
 49
-2.000000
 49
4.000000
 49
-2.000000
  0
LTYPE
  2
CENTER1
 70
    64
  3
____ _ ____ _ ____ _ ____ _ ____ _ ____ _ ____
 72
    65
 73
     4
 40
19.000000
 49
14.000000
 49
-1.000000
 49
3.000000
 49
-1.000000
  0
LTYPE
  2
CENTER2
 70
    64
  3
____ _ ____ _ ____ _ ____ _ ____ _ ____ _ ____
 72
    65
 73
     4
 40
28.500000
 49
25.000000
 49
-1.000000
 49
1.500000
 49
-1.000000
  0
LTYPE
  2
CENTER3
 70
    64
  3
____ _ ____ _ ____ _ ____ _ ____ _ ____ _ ____
 72
    65
 73
     4
 40
31.500000
 49
27.000000
 49
-1.000000
 49
2.500000
 49
-1.000000
  0
LTYPE
  2
CENTER4
 70
    64
  3
____ _ ____ _ ____ _ ____ _ ____ _ ____ _ ____
 72
    65
 73
     4
 40
50.000000
 49
45.000000
 49
-1.000000
 49
3.000000
 49
-1.000000
  0
LTYPE
  2
CENTER5
 70
    64
  3
____ _ ____ _ ____ _ ____ _ ____ _ ____ _ ____
 72
    65
 73
     4
 40
100.000000
 49
92.000000
 49
-2.000000
 49
4.000000
 49
-2.000000
  0
LTYPE
  2
SBK1
 70
    64
  3
______ _ _ _ ______ _ _ _ ______ _ _ _ _____  
 72
    65
 73
     8
 40
60.500000
 49
45.000000
 49
-2.000000
 49
2.500000
 49
-2.000000
 49
2.500000
 49
-2.000000
 49
2.500000
 49
-2.000000
  0
LTYPE
  2
SBK2
 70
    64
  3
______ _ _ _ ______ _ _ _ ______ _ _ _ _____  
 72
    65
 73
     8
 40
84.000000
 49
64.000000
 49
-2.000000
 49
4.000000
 49
-2.000000
 49
4.000000
 49
-2.000000
 49
4.000000
 49
-2.000000
  0
LTYPE
  2
STCH
 70
    64
  3
__ __ __ __ __ __ __ __ __ __ __ __ __ __ __
 72
    65
 73
     2
 40
3.000000
 49
1.000000
 49
-2.000000
  0
LTYPE
  2
MTCH
 70
    64
  3
_____ _ _ _____ _ _ _____ _ _ _____ _ _ ____  
 72
    65
 73
     6
 40
80.000000
 49
66.000000
 49
-2.000000
 49
4.000000
 49
-2.000000
 49
4.000000
 49
-2.000000
  0
ENDTAB
  0
TABLE
  2
LAYER
 70
     1
  0
LAYER
  2
0
 70
     0
 62
     7
  6
CONTINUOUS
  0
ENDTAB
  0
TABLE
  2
STYLE
 70
     1
  0
STYLE
  2
STANDARD
 70
     0
 40
0.000000
 41
1.000000
 50
0.000000
 71
     0
 42
0.200000
  3
txt
  4
BIGFONT
  0
ENDTAB
  0
TABLE
  2
VIEW
 70
     0
  0
ENDTAB
  0
ENDSEC
  0
SECTION
  2
BLOCKS
  0
ENDSEC
  0
SECTION
  2
ENTITIES
  0
LINE
  8
0
  6
CENTER
 62
     2
 10
102.904152
 20
21.665390
 11
122.904152
 21
21.665390
  0
LINE
  8
0
  6
CENTER
 62
     2
 10
59.162506
 20
21.665390
 11
79.162506
 21
21.665390
  0
LINE
  8
0
 10
34.568756
 20
94.500000
 11
34.568756
 21
-94.800003
  0
LINE
  8
0
 10
34.568756
 20
-0.150002
 11
138.350006
 21
-0.150002
  0
LINE
  8
0
  6
CENTER
 62
     2
 10
120.629776
 20
-66.189758
 11
120.629776
 21
-46.189754
  0
LINE
  8
0
  6
CENTER
 62
     2
 10
120.629776
 20
-35.162094
 11
120.629776
 21
-15.162095
  0
LINE
  8
0
  6
CENTER
 62
     2
 10
96.599777
 20
-25.162096
 11
126.099777
 21
-25.162096
  0
LINE
  8
0
 10
116.599777
 20
-20.172161
 11
124.100021
 21
-20.406542
  0
LINE
  8
0
 62
     2
 10
118.099770
 20
-20.805042
 11
124.599770
 21
-21.008165
  0
LINE
  8
0
 62
     2
 10
118.099770
 20
-29.518980
 11
124.599770
 21
-29.315853
  0
LINE
  8
0
 10
116.575302
 20
-30.152565
 11
124.100014
 21
-29.917416
  0
LINE
  8
0
 10
124.599770
 20
-29.385424
 11
124.599770
 21
-20.938540
  0
LINE
  8
0
 62
     2
 10
118.099770
 20
-30.104937
 11
118.099770
 21
-20.219027
  0
LINE
  8
0
 10
116.599770
 20
-30.162096
 11
116.599770
 21
-20.162096
  0
LINE
  8
0
 10
124.100014
 20
-29.917419
 11
124.599777
 21
-29.385420
  0
LINE
  8
0
 10
124.100052
 20
-20.406481
 11
124.599808
 21
-20.938480
  0
LINE
  8
0
 10
98.599777
 20
-14.662095
 11
98.599777
 21
-35.662094
  0
LINE
  8
0
 10
101.599777
 20
-14.262101
 11
111.599770
 21
-14.262101
  0
LINE
  8
0
 10
98.599777
 20
-14.662095
 11
101.599777
 21
-14.662095
  0
LINE
  8
0
 10
101.599777
 20
-14.447160
 11
108.830711
 21
-14.447160
  0
LINE
  8
0
 10
101.599777
 20
-14.969575
 11
108.599770
 21
-14.969575
  0
LINE
  8
0
 10
100.099777
 20
-16.171297
 11
108.830711
 21
-16.171297
  0
LINE
  8
0
 10
100.330719
 20
-18.999712
 11
108.830711
 21
-18.999712
  0
LINE
  8
0
 10
100.099777
 20
-19.738527
 11
108.599770
 21
-19.738527
  0
LINE
  8
0
 10
100.099777
 20
-22.639681
 11
108.599770
 21
-22.639681
  0
LINE
  8
0
 10
100.330719
 20
-23.162111
 11
108.830711
 21
-23.162111
  0
LINE
  8
0
 10
108.830711
 20
-14.447145
 11
108.830711
 21
-16.171297
  0
LINE
  8
0
 10
108.599770
 20
-14.969575
 11
108.599770
 21
-16.171297
  0
LINE
  8
0
 10
108.599770
 20
-19.738527
 11
108.599770
 21
-22.639681
  0
LINE
  8
0
 10
108.830711
 20
-18.999697
 11
108.830711
 21
-23.162111
  0
LINE
  8
0
 10
100.099777
 20
-16.171297
 11
100.099777
 21
-19.738527
  0
LINE
  8
0
 10
100.330719
 20
-16.171297
 11
100.330719
 21
-18.999697
  0
LINE
  8
0
 10
108.599762
 20
-22.639687
 11
108.830704
 21
-23.162117
  0
LINE
  8
0
 10
108.599770
 20
-19.738527
 11
108.830711
 21
-18.999702
  0
LINE
  8
0
 10
100.330719
 20
-18.999706
 11
100.099785
 21
-19.738518
  0
LINE
  8
0
 10
108.599792
 20
-14.969586
 11
108.830734
 21
-14.447157
  0
LINE
  8
0
 10
100.099777
 20
-27.684511
 11
100.099777
 21
-22.639681
  0
LINE
  8
0
 10
100.330719
 20
-27.162081
 11
108.830711
 21
-27.162081
  0
LINE
  8
0
 10
100.099777
 20
-27.684511
 11
108.599770
 21
-27.684511
  0
LINE
  8
0
 10
108.830711
 20
-31.324495
 11
108.830711
 21
-27.162081
  0
LINE
  8
0
 10
108.599770
 20
-30.585665
 11
108.599770
 21
-27.684511
  0
LINE
  8
0
 10
108.599770
 20
-27.684513
 11
108.830711
 21
-27.162083
  0
LINE
  8
0
 10
100.099777
 20
-30.585665
 11
108.599770
 21
-30.585665
  0
LINE
  8
0
 10
100.330719
 20
-31.324495
 11
108.830711
 21
-31.324495
  0
LINE
  8
0
 10
108.599762
 20
-30.585670
 11
108.830704
 21
-31.324495
  0
LINE
  8
0
 10
100.099777
 20
-34.152893
 11
100.099777
 21
-30.585665
  0
LINE
  8
0
 10
100.330719
 20
-34.152893
 11
100.330719
 21
-31.324495
  0
LINE
  8
0
 10
100.330727
 20
-31.324509
 11
100.099785
 21
-30.585682
  0
LINE
  8
0
 10
100.099777
 20
-34.152893
 11
108.830711
 21
-34.152893
  0
LINE
  8
0
 10
108.830711
 20
-35.877045
 11
108.830711
 21
-34.152893
  0
LINE
  8
0
 10
108.599770
 20
-35.354614
 11
108.599770
 21
-34.152893
  0
LINE
  8
0
 10
101.599777
 20
-35.354614
 11
108.599770
 21
-35.354614
  0
LINE
  8
0
 10
108.599770
 20
-35.354607
 11
108.830704
 21
-35.877022
  0
LINE
  8
0
 10
101.599777
 20
-35.877045
 11
108.830711
 21
-35.877045
  0
LINE
  8
0
 10
101.599777
 20
-36.062103
 11
111.599777
 21
-36.062103
  0
LINE
  8
0
 10
100.099777
 20
-35.662094
 11
100.099777
 21
-35.469864
  0
LINE
  8
0
 10
98.599777
 20
-35.662094
 11
101.599777
 21
-35.662094
  0
LINE
  8
0
 10
111.599777
 20
-36.062103
 11
111.599777
 21
-14.262101
  0
LINE
  8
0
 62
     2
 10
118.099785
 20
-29.519012
 11
116.575310
 21
-30.152596
  0
LINE
  8
0
 62
     2
 10
118.099808
 20
-20.804966
 11
116.599808
 21
-20.172091
  0
LINE
  8
0
 10
124.100014
 20
-29.917421
 11
124.100014
 21
-20.406542
  0
LINE
  8
0
 10
100.330719
 20
-23.162111
 11
100.330719
 21
-27.162081
  0
LINE
  8
0
 10
100.099762
 20
-27.684519
 11
100.330704
 21
-27.162088
  0
LINE
  8
0
 10
100.330719
 20
-23.162102
 11
100.099777
 21
-22.639673
  0
LINE
  8
0
 10
101.599777
 20
-35.354614
 11
101.599777
 21
-36.062103
  0
LINE
  8
0
 10
101.599777
 20
-35.469864
 11
100.099777
 21
-35.469864
  0
LINE
  8
0
 10
101.599777
 20
-14.854325
 11
100.099777
 21
-14.854325
  0
LINE
  8
0
 10
100.099777
 20
-14.662095
 11
100.099777
 21
-14.854325
  0
LINE
  8
0
 10
101.599777
 20
-14.969575
 11
101.599777
 21
-14.262101
  0
LINE
  8
0
 10
111.599777
 20
-20.162096
 11
116.599770
 21
-20.162096
  0
LINE
  8
0
 10
111.599777
 20
-30.162096
 11
116.599770
 21
-30.162096
  0
LINE
  8
0
 10
116.599770
 20
-25.162096
 11
111.599777
 21
-25.162096
  0
LINE
  8
0
  6
CENTER
 62
     2
 10
96.599777
 20
-56.189754
 11
126.099777
 21
-56.189754
  0
LINE
  8
0
 10
98.599777
 20
-45.689754
 11
98.599777
 21
-66.689751
  0
LINE
  8
0
 10
100.330704
 20
-45.289753
 11
111.599777
 21
-45.289753
  0
LINE
  8
0
 10
98.599777
 20
-45.689754
 11
100.099777
 21
-45.689754
  0
LINE
  8
0
 10
100.099785
 20
-45.689754
 11
100.330719
 21
-45.289757
  0
LINE
  8
0
 10
100.330704
 20
-45.474812
 11
108.830719
 21
-45.474812
  0
LINE
  8
0
 10
100.099777
 20
-45.997238
 11
108.599777
 21
-45.997238
  0
LINE
  8
0
 10
100.099777
 20
-47.198952
 11
108.830719
 21
-47.198952
  0
LINE
  8
0
 10
100.330704
 20
-50.027363
 11
108.830719
 21
-50.027363
  0
LINE
  8
0
 10
100.099777
 20
-50.766186
 11
108.599777
 21
-50.766186
  0
LINE
  8
0
 10
101.599777
 20
-53.667339
 11
108.599777
 21
-53.667339
  0
LINE
  8
0
 10
100.099777
 20
-54.189766
 11
108.830719
 21
-54.189766
  0
LINE
  8
0
 10
100.099777
 20
-45.689754
 11
100.099777
 21
-45.997238
  0
LINE
  8
0
 10
100.330704
 20
-45.289753
 11
100.330704
 21
-45.474812
  0
LINE
  8
0
 10
108.830719
 20
-45.474812
 11
108.830719
 21
-47.198952
  0
LINE
  8
0
 10
108.599777
 20
-45.997238
 11
108.599777
 21
-47.198952
  0
LINE
  8
0
 10
108.599777
 20
-50.766186
 11
108.599777
 21
-53.667339
  0
LINE
  8
0
 10
108.830719
 20
-50.027363
 11
108.830719
 21
-54.189766
  0
LINE
  8
0
 10
100.099777
 20
-47.198952
 11
100.099777
 21
-50.766186
  0
LINE
  8
0
 10
100.330704
 20
-47.198952
 11
100.330704
 21
-50.027363
  0
LINE
  8
0
 10
108.599808
 20
-53.667324
 11
108.830750
 21
-54.189754
  0
LINE
  8
0
 10
108.599739
 20
-50.766182
 11
108.830673
 21
-50.027363
  0
LINE
  8
0
 10
100.330704
 20
-50.027370
 11
100.099762
 21
-50.766190
  0
LINE
  8
0
 10
108.599823
 20
-45.997261
 11
108.830765
 21
-45.474834
  0
LINE
  8
0
 10
100.330635
 20
-45.474785
 11
100.099701
 21
-45.997215
  0
LINE
  8
0
 10
100.099777
 20
-58.189743
 11
100.099777
 21
-54.189766
  0
LINE
  8
0
 10
101.599777
 20
-58.712170
 11
101.599777
 21
-53.667339
  0
LINE
  8
0
 10
100.099777
 20
-58.189743
 11
108.830719
 21
-58.189743
  0
LINE
  8
0
 10
101.599777
 20
-58.712170
 11
108.599777
 21
-58.712170
  0
LINE
  8
0
 10
108.830719
 20
-62.352146
 11
108.830719
 21
-58.189743
  0
LINE
  8
0
 10
108.599777
 20
-61.613323
 11
108.599777
 21
-58.712170
  0
LINE
  8
0
 10
108.599762
 20
-58.712162
 11
108.830696
 21
-58.189732
  0
LINE
  8
0
 10
100.099777
 20
-61.613323
 11
108.599777
 21
-61.613323
  0
LINE
  8
0
 10
100.330704
 20
-62.352146
 11
108.830719
 21
-62.352146
  0
LINE
  8
0
 10
108.599777
 20
-61.613323
 11
108.830719
 21
-62.352142
  0
LINE
  8
0
 10
100.099777
 20
-65.180557
 11
100.099777
 21
-61.613323
  0
LINE
  8
0
 10
100.330704
 20
-65.180557
 11
100.330704
 21
-62.352146
  0
LINE
  8
0
 10
100.330742
 20
-62.352161
 11
100.099800
 21
-61.613335
  0
LINE
  8
0
 10
100.099777
 20
-65.180557
 11
108.830719
 21
-65.180557
  0
LINE
  8
0
 10
108.830719
 20
-66.904694
 11
108.830719
 21
-65.180557
  0
LINE
  8
0
 10
108.599777
 20
-66.382271
 11
108.599777
 21
-65.180557
  0
LINE
  8
0
 10
100.099777
 20
-66.382271
 11
108.599777
 21
-66.382271
  0
LINE
  8
0
 10
108.599800
 20
-66.382256
 11
108.830742
 21
-66.904686
  0
LINE
  8
0
 10
100.330704
 20
-66.904694
 11
108.830719
 21
-66.904694
  0
LINE
  8
0
 10
100.330704
 20
-67.089752
 11
111.599777
 21
-67.089752
  0
LINE
  8
0
 10
100.330635
 20
-66.904732
 11
100.099701
 21
-66.382309
  0
LINE
  8
0
 10
100.099785
 20
-66.689758
 11
100.330727
 21
-67.089760
  0
LINE
  8
0
 10
100.099777
 20
-66.689751
 11
100.099777
 21
-66.382271
  0
LINE
  8
0
 10
100.330704
 20
-67.089752
 11
100.330704
 21
-66.904694
  0
LINE
  8
0
 10
98.599777
 20
-66.689751
 11
100.099777
 21
-66.689751
  0
LINE
  8
0
 10
111.599777
 20
-67.089752
 11
111.599777
 21
-45.289753
  0
LINE
  8
0
 10
116.599785
 20
-51.199818
 11
124.100029
 21
-51.434196
  0
LINE
  8
0
 62
     2
 10
118.099777
 20
-51.832691
 11
124.599777
 21
-52.035816
  0
LINE
  8
0
 62
     2
 10
118.099777
 20
-60.546646
 11
124.599777
 21
-60.343521
  0
LINE
  8
0
 10
116.575287
 20
-61.180229
 11
124.100014
 21
-60.945080
  0
LINE
  8
0
 10
124.599777
 20
-60.413082
 11
124.599777
 21
-51.966194
  0
LINE
  8
0
 62
     2
 10
118.099777
 20
-61.132591
 11
118.099777
 21
-51.246693
  0
LINE
  8
0
 10
116.599777
 20
-61.963257
 11
116.599777
 21
-50.416252
  0
LINE
  8
0
 10
124.099998
 20
-60.945068
 11
124.599762
 21
-60.413067
  0
LINE
  8
0
 10
124.100006
 20
-51.434200
 11
124.599762
 21
-51.966202
  0
LINE
  8
0
 62
     2
 10
118.099770
 20
-60.546654
 11
116.575310
 21
-61.180233
  0
LINE
  8
0
 62
     2
 10
118.099762
 20
-51.832703
 11
116.599754
 21
-51.199821
  0
LINE
  8
0
 10
124.100021
 20
-60.945080
 11
124.100021
 21
-51.434196
  0
LINE
  8
0
 10
116.599777
 20
-61.963257
 11
111.599777
 21
-61.963257
  0
LINE
  8
0
 10
116.599777
 20
-50.416252
 11
111.599777
 21
-50.416252
  0
LINE
  8
0
 10
111.599777
 20
-53.303001
 11
116.599777
 21
-53.303001
  0
LINE
  8
0
 10
111.599777
 20
-59.076504
 11
116.599777
 21
-59.076504
  0
LINE
  8
0
 10
63.000107
 20
-65.180557
 11
63.738937
 21
-65.180557
  0
LINE
  8
0
 10
60.171631
 20
-62.352146
 11
60.171631
 21
-61.613323
  0
LINE
  8
0
 10
71.162498
 20
-66.904701
 11
71.684929
 21
-66.382263
  0
LINE
  8
0
 10
67.162468
 20
-66.904739
 11
66.640038
 21
-66.382309
  0
LINE
  8
0
 10
78.153305
 20
-62.352154
 11
78.153305
 21
-61.613323
  0
LINE
  8
0
 10
75.324905
 20
-65.180626
 11
74.586075
 21
-65.180626
  0
LINE
  8
0
 10
79.877403
 20
-54.189789
 11
79.354980
 21
-53.667362
  0
LINE
  8
0
 10
79.877487
 20
-58.189789
 11
79.355057
 21
-58.712219
  0
LINE
  8
0
 10
75.324905
 20
-47.198956
 11
74.586075
 21
-47.198956
  0
LINE
  8
0
 10
78.153381
 20
-50.027363
 11
78.153381
 21
-50.766186
  0
LINE
  8
0
 10
67.162521
 20
-45.474823
 11
66.640091
 21
-45.997257
  0
LINE
  8
0
 10
71.162552
 20
-45.474785
 11
71.684982
 21
-45.997215
  0
LINE
  8
0
 10
60.171692
 20
-50.027363
 11
60.171692
 21
-50.766186
  0
LINE
  8
0
 10
63.000122
 20
-47.198879
 11
63.738937
 21
-47.198879
  0
LINE
  8
0
 10
58.447586
 20
-58.189754
 11
58.970013
 21
-58.712181
  0
LINE
  8
0
 10
58.447525
 20
-54.189701
 11
58.969959
 21
-53.667271
  0
LINE
  8
0
  6
CENTER
 62
     2
 10
81.662506
 20
-56.189754
 11
56.662506
 21
-56.189754
  0
LINE
  8
0
  6
CENTER
 62
     2
 10
69.162506
 20
-68.689758
 11
69.162506
 21
-43.689754
  0
LINE
  8
0
  6
CENTER
 62
     2
 10
97.904160
 20
73.087494
 11
120.404160
 21
73.087494
  0
LINE
  8
0
 10
99.904152
 20
83.587494
 11
99.904152
 21
62.587494
  0
LINE
  8
0
 10
102.904152
 20
83.987488
 11
112.904152
 21
83.987488
  0
LINE
  8
0
 10
99.904152
 20
83.587494
 11
102.904152
 21
83.587494
  0
LINE
  8
0
 10
102.904152
 20
83.802429
 11
110.135094
 21
83.802429
  0
LINE
  8
0
 10
102.904152
 20
83.280014
 11
109.904152
 21
83.280014
  0
LINE
  8
0
 10
101.404152
 20
82.078293
 11
110.135094
 21
82.078293
  0
LINE
  8
0
 10
101.635094
 20
79.249878
 11
110.135094
 21
79.249878
  0
LINE
  8
0
 10
101.404152
 20
78.511063
 11
109.904152
 21
78.511063
  0
LINE
  8
0
 10
101.404152
 20
75.609909
 11
109.904152
 21
75.609909
  0
LINE
  8
0
 10
101.635094
 20
75.087479
 11
110.135094
 21
75.087479
  0
LINE
  8
0
 10
110.135094
 20
83.802444
 11
110.135094
 21
82.078293
  0
LINE
  8
0
 10
109.904152
 20
83.280014
 11
109.904152
 21
82.078293
  0
LINE
  8
0
 10
109.904152
 20
78.511063
 11
109.904152
 21
75.609909
  0
LINE
  8
0
 10
110.135094
 20
79.249893
 11
110.135094
 21
75.087479
  0
LINE
  8
0
 10
101.404152
 20
82.078293
 11
101.404152
 21
78.511063
  0
LINE
  8
0
 10
101.635094
 20
82.078293
 11
101.635094
 21
79.249893
  0
LINE
  8
0
 10
109.904144
 20
75.609909
 11
110.135086
 21
75.087479
  0
LINE
  8
0
 10
109.904205
 20
78.511047
 11
110.135147
 21
79.249870
  0
LINE
  8
0
 10
101.635139
 20
79.249893
 11
101.404198
 21
78.511063
  0
LINE
  8
0
 10
109.904099
 20
83.280067
 11
110.135033
 21
83.802483
  0
LINE
  8
0
 10
101.404152
 20
70.565079
 11
101.404152
 21
75.609909
  0
LINE
  8
0
 10
101.635094
 20
71.087509
 11
110.135094
 21
71.087509
  0
LINE
  8
0
 10
101.404152
 20
70.565079
 11
109.904152
 21
70.565079
  0
LINE
  8
0
 10
110.135094
 20
66.925095
 11
110.135094
 21
71.087509
  0
LINE
  8
0
 10
109.904152
 20
67.663925
 11
109.904152
 21
70.565079
  0
LINE
  8
0
 10
109.904160
 20
70.565086
 11
110.135101
 21
71.087517
  0
LINE
  8
0
 10
101.404152
 20
67.663925
 11
109.904152
 21
67.663925
  0
LINE
  8
0
 10
101.635094
 20
66.925095
 11
110.135094
 21
66.925095
  0
LINE
  8
0
 10
109.904144
 20
67.663910
 11
110.135078
 21
66.925079
  0
LINE
  8
0
 10
101.404152
 20
64.096695
 11
101.404152
 21
67.663925
  0
LINE
  8
0
 10
101.635094
 20
64.096695
 11
101.635094
 21
66.925095
  0
LINE
  8
0
 10
101.635086
 20
66.925102
 11
101.404152
 21
67.663910
  0
LINE
  8
0
 10
101.404152
 20
64.096695
 11
110.135094
 21
64.096695
  0
LINE
  8
0
 10
110.135094
 20
62.372543
 11
110.135094
 21
64.096695
  0
LINE
  8
0
 10
109.904152
 20
62.894974
 11
109.904152
 21
64.096695
  0
LINE
  8
0
 10
102.904152
 20
62.894974
 11
109.904152
 21
62.894974
  0
LINE
  8
0
 10
109.904152
 20
62.894981
 11
110.135086
 21
62.372566
  0
LINE
  8
0
 10
102.904152
 20
62.372543
 11
110.135094
 21
62.372543
  0
LINE
  8
0
 10
102.904152
 20
62.187485
 11
112.904160
 21
62.187485
  0
LINE
  8
0
 10
101.404152
 20
62.587494
 11
101.404152
 21
62.779724
  0
LINE
  8
0
 10
99.904152
 20
62.587494
 11
102.904152
 21
62.587494
  0
LINE
  8
0
 10
112.904160
 20
62.187485
 11
112.904160
 21
83.987488
  0
LINE
  8
0
 10
115.790916
 20
78.087502
 11
118.677666
 21
73.087502
  0
LINE
  8
0
 10
118.677696
 20
73.087494
 11
115.790947
 21
68.087494
  0
LINE
  8
0
 10
115.790909
 20
68.087494
 11
112.904160
 21
68.087494
  0
LINE
  8
0
 10
115.790916
 20
78.087494
 11
112.904160
 21
78.087494
  0
LINE
  8
0
 10
101.635094
 20
75.087479
 11
101.635094
 21
71.087509
  0
LINE
  8
0
 10
101.404175
 20
70.565071
 11
101.635117
 21
71.087494
  0
LINE
  8
0
 10
101.635094
 20
75.087471
 11
101.404152
 21
75.609901
  0
LINE
  8
0
 10
102.904152
 20
62.894974
 11
102.904152
 21
62.187485
  0
LINE
  8
0
 10
102.904152
 20
62.779724
 11
101.404152
 21
62.779724
  0
LINE
  8
0
 10
102.904152
 20
83.395264
 11
101.404152
 21
83.395264
  0
LINE
  8
0
 10
101.404152
 20
83.587494
 11
101.404152
 21
83.395264
  0
LINE
  8
0
 10
102.904152
 20
83.280014
 11
102.904152
 21
83.987488
  0
LINE
  8
0
 10
117.894089
 20
25.695389
 11
117.659714
 21
18.195145
  0
LINE
  8
0
 62
     2
 10
117.261208
 20
24.195389
 11
117.058083
 21
17.695389
  0
LINE
  8
0
 62
     2
 10
108.547264
 20
24.195400
 11
108.750389
 21
17.695400
  0
LINE
  8
0
 10
107.913681
 20
25.719866
 11
108.148834
 21
18.195141
  0
LINE
  8
0
 10
108.680824
 20
17.695389
 11
117.127708
 21
17.695389
  0
LINE
  8
0
 62
     2
 10
107.961311
 20
24.195389
 11
117.847221
 21
24.195389
  0
LINE
  8
0
 10
107.130653
 20
25.695389
 11
118.677650
 21
25.695389
  0
LINE
  8
0
 10
108.148834
 20
18.195162
 11
108.680832
 21
17.695408
  0
LINE
  8
0
 10
117.659706
 20
18.195127
 11
117.127708
 21
17.695368
  0
LINE
  8
0
 62
     2
 10
108.547256
 20
24.195400
 11
107.913681
 21
25.719870
  0
LINE
  8
0
 62
     2
 10
117.261223
 20
24.195385
 11
117.894104
 21
25.695391
  0
LINE
  8
0
 10
108.148827
 20
18.195145
 11
117.659706
 21
18.195145
  0
LINE
  8
0
  6
CENTER
 62
     2
 10
97.904152
 20
41.595383
 11
120.404152
 21
41.595383
  0
LINE
  8
0
  6
CENTER
 62
     2
 10
112.904152
 20
55.428726
 11
112.904152
 21
15.465393
  0
LINE
  8
0
 10
112.904152
 20
49.195389
 11
118.677650
 21
49.195389
  0
LINE
  8
0
 10
99.904152
 20
52.095383
 11
99.904152
 21
31.095390
  0
LINE
  8
0
 10
101.635094
 20
52.495392
 11
112.904152
 21
52.495392
  0
LINE
  8
0
 10
99.904152
 20
52.095383
 11
101.404152
 21
52.095383
  0
LINE
  8
0
 10
101.404144
 20
52.095387
 11
101.635086
 21
52.495392
  0
LINE
  8
0
 10
101.635094
 20
52.310333
 11
110.135094
 21
52.310333
  0
LINE
  8
0
 10
101.404152
 20
51.787903
 11
109.904152
 21
51.787903
  0
LINE
  8
0
 10
101.404152
 20
50.586197
 11
110.135094
 21
50.586197
  0
LINE
  8
0
 10
101.635094
 20
47.757782
 11
110.135094
 21
47.757782
  0
LINE
  8
0
 10
101.404152
 20
47.018951
 11
109.904152
 21
47.018951
  0
LINE
  8
0
 10
102.904152
 20
44.117798
 11
109.904152
 21
44.117798
  0
LINE
  8
0
 10
101.404152
 20
43.595383
 11
110.135094
 21
43.595383
  0
LINE
  8
0
 10
101.404152
 20
52.095383
 11
101.404152
 21
51.787903
  0
LINE
  8
0
 10
101.635094
 20
52.495392
 11
101.635094
 21
52.310333
  0
LINE
  8
0
 10
110.135094
 20
52.310333
 11
110.135094
 21
50.586197
  0
LINE
  8
0
 10
109.904152
 20
51.787903
 11
109.904152
 21
50.586197
  0
LINE
  8
0
 10
109.904152
 20
47.018951
 11
109.904152
 21
44.117798
  0
LINE
  8
0
 10
110.135094
 20
47.757782
 11
110.135094
 21
43.595383
  0
LINE
  8
0
 10
101.404152
 20
50.586197
 11
101.404152
 21
47.018951
  0
LINE
  8
0
 10
101.635094
 20
50.586197
 11
101.635094
 21
47.757782
  0
LINE
  8
0
 10
109.904099
 20
44.117783
 11
110.135040
 21
43.595352
  0
LINE
  8
0
 10
109.904167
 20
47.018940
 11
110.135109
 21
47.757767
  0
LINE
  8
0
 10
101.635101
 20
47.757774
 11
101.404167
 21
47.018948
  0
LINE
  8
0
 10
109.904152
 20
51.787922
 11
110.135094
 21
52.310352
  0
LINE
  8
0
 10
101.635109
 20
52.310326
 11
101.404167
 21
51.787895
  0
LINE
  8
0
 10
101.404152
 20
39.595398
 11
101.404152
 21
43.595383
  0
LINE
  8
0
 10
102.904152
 20
39.072968
 11
102.904152
 21
44.117798
  0
LINE
  8
0
 10
101.404152
 20
39.595398
 11
110.135094
 21
39.595398
  0
LINE
  8
0
 10
102.904152
 20
39.072968
 11
109.904152
 21
39.072968
  0
LINE
  8
0
 10
110.135094
 20
35.432999
 11
110.135094
 21
39.595398
  0
LINE
  8
0
 10
109.904152
 20
36.171822
 11
109.904152
 21
39.072968
  0
LINE
  8
0
 10
109.904175
 20
39.072971
 11
110.135109
 21
39.595387
  0
LINE
  8
0
 10
101.404152
 20
36.171822
 11
109.904152
 21
36.171822
  0
LINE
  8
0
 10
101.635094
 20
35.432999
 11
110.135094
 21
35.432999
  0
LINE
  8
0
 10
109.904152
 20
36.171818
 11
110.135086
 21
35.432991
  0
LINE
  8
0
 10
101.404152
 20
32.604584
 11
101.404152
 21
36.171822
  0
LINE
  8
0
 10
101.635094
 20
32.604584
 11
101.635094
 21
35.432999
  0
LINE
  8
0
 10
101.635101
 20
35.432999
 11
101.404160
 21
36.171822
  0
LINE
  8
0
 10
101.404152
 20
32.604584
 11
110.135094
 21
32.604584
  0
LINE
  8
0
 10
110.135094
 20
31.327370
 11
110.135094
 21
32.604584
  0
LINE
  8
0
 10
109.904152
 20
31.402878
 11
109.904152
 21
32.604584
  0
LINE
  8
0
 10
101.404152
 20
31.402878
 11
109.904152
 21
31.402878
  0
LINE
  8
0
 10
109.904144
 20
31.402863
 11
109.954323
 21
31.289337
  0
LINE
  8
0
 10
101.635094
 20
30.880447
 11
108.010414
 21
30.880447
  0
LINE
  8
0
 10
101.635094
 20
30.695389
 11
107.130653
 21
30.695389
  0
LINE
  8
0
 10
101.635124
 20
30.880470
 11
101.404182
 21
31.402897
  0
LINE
  8
0
 10
101.404182
 20
31.095394
 11
101.635124
 21
30.695395
  0
LINE
  8
0
 10
101.404152
 20
31.095390
 11
101.404152
 21
31.402878
  0
LINE
  8
0
 10
101.635094
 20
30.695389
 11
101.635094
 21
30.880447
  0
LINE
  8
0
 10
99.904152
 20
31.095390
 11
101.404152
 21
31.095390
  0
LINE
  8
0
 10
118.677650
 20
25.695389
 11
118.677650
 21
49.195389
  0
LINE
  8
0
 10
115.790901
 20
25.695389
 11
115.790901
 21
49.195389
  0
LINE
  8
0
 10
107.130653
 20
25.695389
 11
107.130653
 21
30.695389
  0
LINE
  8
0
 10
112.904129
 20
31.909817
 11
107.130638
 21
30.695374
  0
LINE
  8
0
 10
112.904152
 20
31.909836
 11
112.904152
 21
52.495392
  0
LINE
  8
0
 10
110.017403
 20
25.695389
 11
110.017403
 21
31.302612
  0
LINE
  8
0
  6
CENTER
 62
     2
 10
69.162506
 20
55.262054
 11
69.162506
 21
15.465385
  0
LINE
  8
0
 10
75.324898
 20
50.586182
 11
74.586075
 21
50.586182
  0
LINE
  8
0
 10
78.153381
 20
47.757782
 11
78.153381
 21
47.018951
  0
LINE
  8
0
 10
67.162506
 20
52.310333
 11
66.640083
 21
51.787910
  0
LINE
  8
0
 10
71.162537
 20
52.310345
 11
71.684959
 21
51.787922
  0
LINE
  8
0
 10
60.171707
 20
47.757782
 11
60.171707
 21
47.018951
  0
LINE
  8
0
 10
63.000114
 20
50.586258
 11
63.738937
 21
50.586258
  0
LINE
  8
0
 10
58.447594
 20
39.595402
 11
58.970016
 21
39.072983
  0
LINE
  8
0
 10
58.447536
 20
43.595432
 11
58.969955
 21
44.117855
  0
LINE
  8
0
 10
63.000114
 20
32.604591
 11
63.738937
 21
32.604591
  0
LINE
  8
0
 10
60.171638
 20
35.432999
 11
60.171638
 21
36.171822
  0
LINE
  8
0
 10
71.162483
 20
30.880463
 11
71.684914
 21
31.402895
  0
LINE
  8
0
 10
67.162468
 20
30.880417
 11
66.640045
 21
31.402843
  0
LINE
  8
0
 10
78.153313
 20
35.432999
 11
78.153313
 21
36.171822
  0
LINE
  8
0
 10
75.324898
 20
32.604515
 11
74.586075
 21
32.604515
  0
LINE
  8
0
 10
79.877441
 20
43.595387
 11
79.355011
 21
44.117813
  0
LINE
  8
0
 10
79.877480
 20
39.595364
 11
79.355049
 21
39.072933
  0
LINE
  8
0
 10
74.152443
 20
25.695389
 11
73.918060
 21
18.195145
  0
LINE
  8
0
 62
     2
 10
73.519554
 20
24.195391
 11
73.316429
 21
17.695389
  0
LINE
  8
0
 62
     2
 10
64.805603
 20
24.195393
 11
65.008728
 21
17.695391
  0
LINE
  8
0
 10
64.172806
 20
25.695387
 11
64.407196
 21
18.195143
  0
LINE
  8
0
 10
64.939178
 20
17.695389
 11
73.386063
 21
17.695389
  0
LINE
  8
0
 62
     2
 10
64.219673
 20
24.195389
 11
74.105568
 21
24.195389
  0
LINE
  8
0
 10
64.162506
 20
25.695389
 11
74.162506
 21
25.695389
  0
LINE
  8
0
 10
73.918053
 20
18.195148
 11
73.386055
 21
17.695391
  0
LINE
  8
0
 10
64.407188
 20
18.195150
 11
64.939186
 21
17.695395
  0
LINE
  8
0
 62
     2
 10
64.805603
 20
24.195389
 11
64.172798
 21
25.695391
  0
LINE
  8
0
 62
     2
 10
73.519554
 20
24.195391
 11
74.152428
 21
25.695391
  0
LINE
  8
0
 10
74.162506
 20
31.909836
 11
74.162506
 21
25.695389
  0
LINE
  8
0
 10
64.162506
 20
31.909836
 11
64.162506
 21
25.695389
  0
LINE
  8
0
 62
     2
 10
69.162506
 20
25.695389
 11
69.162506
 21
30.695389
  0
LINE
  8
0
 10
64.407181
 20
18.195145
 11
73.918060
 21
18.195145
  0
LINE
  8
0
  6
CENTER
 62
     2
 10
56.662506
 20
41.595383
 11
81.662506
 21
41.595383
  0
LINE
  8
0
 10
-82.437904
 20
29.502686
 11
-99.867905
 21
29.502686
  0
LINE
  8
0
 10
-81.437904
 20
28.512688
 11
-81.417908
 21
27.502686
  0
LINE
  8
0
 10
-100.867912
 20
28.512688
 11
-100.877914
 21
27.502686
  0
LINE
  8
0
 10
-81.417900
 20
27.502686
 11
-80.447906
 21
26.942686
  0
LINE
  8
0
 10
-100.877907
 20
27.502687
 11
-101.847908
 21
26.942690
  0
LINE
  8
0
 10
-80.647903
 20
9.502687
 11
-101.647903
 21
9.502687
  0
LINE
  8
0
 10
-77.147903
 20
-5.597313
 11
-77.147903
 21
-28.487314
  0
LINE
  8
0
 10
-104.147903
 20
-4.597313
 11
-103.147903
 21
-4.597313
  0
LINE
  8
0
 10
-101.147903
 20
5.402687
 11
-81.147903
 21
5.402687
  0
LINE
  8
0
 10
-102.147903
 20
4.402687
 11
-102.147903
 21
3.402686
  0
LINE
  8
0
 10
-80.147903
 20
4.402687
 11
-80.147903
 21
3.402686
  0
LINE
  8
0
 10
-101.147903
 20
5.402684
 11
-102.147903
 21
4.402683
  0
LINE
  8
0
 10
-80.147903
 20
4.402685
 11
-81.147903
 21
5.402687
  0
LINE
  8
0
 10
-102.147903
 20
3.402682
 11
-103.147903
 21
2.402686
  0
LINE
  8
0
 10
-80.147903
 20
3.402684
 11
-79.147903
 21
2.402686
  0
LINE
  8
0
 10
-82.147903
 20
9.502687
 11
-82.147903
 21
5.402687
  0
LINE
  8
0
 10
-99.647903
 20
9.502687
 11
-99.647903
 21
5.402687
  0
LINE
  8
0
 10
-80.447906
 20
26.942686
 11
-80.157906
 21
9.992686
  0
LINE
  8
0
 10
-101.847900
 20
26.942686
 11
-102.137901
 21
9.992686
  0
LINE
  8
0
 10
-80.647903
 20
9.502686
 11
-80.157906
 21
9.992684
  0
LINE
  8
0
 10
-101.647903
 20
9.502686
 11
-102.137901
 21
9.992684
  0
LINE
  8
0
 10
-77.147903
 20
-10.597314
 11
-105.147903
 21
-10.597314
  0
LINE
  8
0
  6
CENTER
 62
     2
 10
-91.147903
 20
-30.787313
 11
-91.147903
 21
31.922686
  0
LINE
  8
0
 10
-83.147903
 20
-7.597313
 11
-83.147903
 21
-5.597313
  0
LINE
  8
0
 10
-99.147903
 20
-7.597313
 11
-99.147903
 21
-5.597313
  0
LINE
  8
0
 10
-77.197906
 20
-7.597313
 11
-83.147903
 21
-7.597313
  0
LINE
  8
0
 10
-99.147903
 20
-7.597313
 11
-105.097908
 21
-7.597313
  0
LINE
  8
0
  6
CENTER
 62
     2
 10
-80.147903
 20
-8.487313
 11
-80.147903
 21
-3.657314
  0
LINE
  8
0
  6
CENTER
 62
     2
 10
-102.147903
 20
-8.917314
 11
-102.147903
 21
-3.447314
  0
LINE
  8
0
 10
-102.147903
 20
4.402687
 11
-80.147903
 21
4.402687
  0
LINE
  8
0
 10
-102.147903
 20
3.402686
 11
-80.147903
 21
3.402686
  0
LINE
  8
0
 10
-104.647903
 20
2.402686
 11
-77.647903
 21
2.402686
  0
LINE
  8
0
 10
-105.097908
 20
-7.597313
 11
-105.097908
 21
-6.897314
  0
LINE
  8
0
 10
-99.197906
 20
-7.597313
 11
-99.197906
 21
-6.897314
  0
LINE
  8
0
 10
-99.347908
 20
-5.727314
 11
-99.347908
 21
-6.897314
  0
LINE
  8
0
 10
-104.947906
 20
-5.727314
 11
-104.947906
 21
-6.897314
  0
LINE
  8
0
 10
-99.197906
 20
-6.897314
 11
-105.097908
 21
-6.897314
  0
LINE
  8
0
  6
CENTER
 62
     2
 10
-107.147903
 20
-4.597313
 11
-103.147903
 21
-4.597313
  0
LINE
  8
0
 10
-77.197906
 20
-6.897314
 11
-83.097908
 21
-6.897314
  0
LINE
  8
0
 10
-77.347908
 20
-5.727314
 11
-77.347908
 21
-6.897314
  0
LINE
  8
0
 10
-82.947906
 20
-5.727314
 11
-82.947906
 21
-6.897314
  0
LINE
  8
0
 10
-77.197906
 20
-7.597313
 11
-77.197906
 21
-6.897314
  0
LINE
  8
0
 10
-83.097908
 20
-7.597313
 11
-83.097908
 21
-6.897314
  0
LINE
  8
0
 10
-100.757904
 20
26.942686
 11
-96.507904
 21
26.942686
  0
LINE
  8
0
 10
-101.737907
 20
11.432687
 11
-100.757904
 21
11.432687
  0
LINE
  8
0
 10
-94.147903
 20
11.432687
 11
-94.147903
 21
26.942686
  0
LINE
  8
0
 10
-88.147903
 20
11.432687
 11
-88.147903
 21
26.942686
  0
LINE
  8
0
 10
-87.747910
 20
12.002687
 11
-87.747910
 21
27.502686
  0
LINE
  8
0
 10
-94.547905
 20
12.002687
 11
-94.547905
 21
27.502686
  0
LINE
  8
0
 10
-95.167908
 20
12.002687
 11
-95.167908
 21
27.502686
  0
LINE
  8
0
 10
-96.507904
 20
11.432687
 11
-96.507904
 21
26.942686
  0
LINE
  8
0
 10
-100.757904
 20
11.432687
 11
-100.757904
 21
26.942686
  0
LINE
  8
0
 10
-87.127907
 20
12.002687
 11
-87.127907
 21
27.502686
  0
LINE
  8
0
 10
-85.787903
 20
11.432687
 11
-85.787903
 21
26.942686
  0
LINE
  8
0
 10
-81.547905
 20
11.432687
 11
-81.547905
 21
26.942686
  0
LINE
  8
0
 10
-94.547905
 20
27.502686
 11
-87.747910
 21
27.502686
  0
LINE
  8
0
 10
-87.127907
 20
27.502686
 11
-82.317909
 21
27.502686
  0
LINE
  8
0
 10
-99.977905
 20
27.502686
 11
-95.167908
 21
27.502686
  0
LINE
  8
0
 10
-94.147903
 20
26.942686
 11
-88.147903
 21
26.942686
  0
LINE
  8
0
 10
-85.787903
 20
26.942686
 11
-81.547905
 21
26.942686
  0
LINE
  8
0
 10
-80.567909
 20
11.432687
 11
-80.567909
 21
26.942686
  0
LINE
  8
0
 10
-101.737907
 20
11.432687
 11
-101.737907
 21
26.942686
  0
LINE
  8
0
 10
-82.317909
 20
27.502687
 11
-81.547905
 21
26.942688
  0
LINE
  8
0
 10
-99.977913
 20
27.502689
 11
-100.757904
 21
26.942690
  0
LINE
  8
0
 10
-96.507904
 20
26.942688
 11
-95.167908
 21
27.502687
  0
LINE
  8
0
 10
-94.147903
 20
26.942682
 11
-94.547905
 21
27.502684
  0
LINE
  8
0
 10
-88.147911
 20
26.942690
 11
-87.747910
 21
27.502689
  0
LINE
  8
0
 10
-85.787903
 20
26.942684
 11
-87.127907
 21
27.502684
  0
LINE
  8
0
 10
-87.747910
 20
12.002687
 11
-87.127907
 21
12.002687
  0
LINE
  8
0
 10
-95.167908
 20
12.002687
 11
-94.547905
 21
12.002687
  0
LINE
  8
0
 10
-81.547905
 20
11.432687
 11
-80.567909
 21
11.432687
  0
LINE
  8
0
 10
-88.147903
 20
11.432687
 11
-85.787903
 21
11.432687
  0
LINE
  8
0
 10
-96.507904
 20
11.432687
 11
-94.147903
 21
11.432687
  0
LINE
  8
0
 10
-87.747910
 20
12.002690
 11
-88.147911
 21
11.432688
  0
LINE
  8
0
 10
-87.127907
 20
12.002687
 11
-85.787910
 21
11.432688
  0
LINE
  8
0
 10
-94.547905
 20
12.002682
 11
-94.147903
 21
11.432686
  0
LINE
  8
0
 10
-95.167900
 20
12.002685
 11
-96.507904
 21
11.432686
  0
LINE
  8
0
 10
-82.067909
 20
27.312687
 11
-82.067909
 21
27.502686
  0
LINE
  8
0
 10
-80.447906
 20
26.942686
 11
-80.567909
 21
26.942686
  0
LINE
  8
0
 10
-81.417908
 20
27.502686
 11
-82.067909
 21
27.502686
  0
LINE
  8
0
 10
-101.847908
 20
26.942686
 11
-101.737907
 21
26.942686
  0
LINE
  8
0
 10
-100.877907
 20
27.502686
 11
-100.237907
 21
27.502686
  0
LINE
  8
0
 10
-101.737900
 20
26.942686
 11
-100.237900
 21
27.502687
  0
LINE
  8
0
 10
-100.237907
 20
27.502686
 11
-100.237907
 21
27.312687
  0
LINE
  8
0
 10
-80.567909
 20
26.942686
 11
-82.067902
 21
27.502686
  0
LINE
  8
0
 10
-80.567909
 20
11.432686
 11
-81.547913
 21
11.802687
  0
LINE
  8
0
 10
-101.737907
 20
11.432689
 11
-100.757912
 21
11.802687
  0
LINE
  8
0
 10
-102.147903
 20
10.002687
 11
-80.157906
 21
10.002687
  0
LINE
  8
0
 10
-105.147903
 20
-5.597313
 11
-105.147903
 21
-28.487314
  0
LINE
  8
0
  6
CENTER
 62
     2
 10
-107.647903
 20
-2.597314
 11
-104.647903
 21
-2.597314
  0
LINE
  8
0
 10
-104.647903
 20
-2.097314
 11
-77.647903
 21
-2.097314
  0
LINE
  8
0
 10
-103.147903
 20
-4.597313
 11
-103.147903
 21
-2.597314
  0
LINE
  8
0
 10
-79.147903
 20
-4.597313
 11
-79.147903
 21
-2.597314
  0
LINE
  8
0
 62
     2
 10
-102.397903
 20
-4.597313
 11
-102.397903
 21
-2.597314
  0
LINE
  8
0
 62
     2
 10
-79.897903
 20
-4.597313
 11
-79.897903
 21
-2.597314
  0
LINE
  8
0
 10
-104.647903
 20
-2.597314
 11
-104.647903
 21
2.402686
  0
LINE
  8
0
 10
-77.647903
 20
-2.597314
 11
-77.647903
 21
2.402686
  0
LINE
  8
0
 10
-77.147903
 20
-28.487314
 11
-105.147903
 21
-28.487314
  0
LINE
  8
0
  6
CENTER
 62
     2
 10
-76.065010
 20
-18.487314
 11
-83.223656
 21
-18.487314
  0
LINE
  8
0
 10
-39.207905
 20
29.502686
 11
-21.777906
 21
29.502686
  0
LINE
  8
0
 10
-40.207909
 20
28.512688
 11
-40.227909
 21
27.502686
  0
LINE
  8
0
 10
-20.777906
 20
28.512688
 11
-20.757908
 21
27.502686
  0
LINE
  8
0
 10
-40.227905
 20
27.502687
 11
-41.187908
 21
26.942686
  0
LINE
  8
0
 10
-20.757904
 20
27.502686
 11
-19.787905
 21
26.942686
  0
LINE
  8
0
 10
-40.987907
 20
9.502687
 11
-19.987906
 21
9.502687
  0
LINE
  8
0
 10
-44.487907
 20
-5.597313
 11
-44.487907
 21
-28.487314
  0
LINE
  8
0
 10
-20.487906
 20
5.402687
 11
-40.487907
 21
5.402687
  0
LINE
  8
0
 10
-19.487906
 20
4.402687
 11
-19.487906
 21
3.402686
  0
LINE
  8
0
 10
-41.487907
 20
4.402687
 11
-41.487907
 21
3.402686
  0
LINE
  8
0
 10
-20.487906
 20
5.402686
 11
-19.487906
 21
4.402686
  0
LINE
  8
0
 10
-41.487907
 20
4.402688
 11
-40.487907
 21
5.402688
  0
LINE
  8
0
 10
-19.487906
 20
3.402686
 11
-18.487906
 21
2.402686
  0
LINE
  8
0
 10
-41.487907
 20
3.402687
 11
-42.487904
 21
2.402687
  0
LINE
  8
0
 10
-39.487907
 20
9.502687
 11
-39.487907
 21
5.402687
  0
LINE
  8
0
 10
-21.987906
 20
9.502687
 11
-21.987906
 21
5.402687
  0
LINE
  8
0
 10
-41.187908
 20
26.942688
 11
-41.487907
 21
9.992686
  0
LINE
  8
0
 10
-19.787907
 20
26.942686
 11
-19.497906
 21
9.992686
  0
LINE
  8
0
 10
-40.987904
 20
9.502686
 11
-41.487907
 21
9.992686
  0
LINE
  8
0
 10
-19.987906
 20
9.502687
 11
-19.497906
 21
9.992687
  0
LINE
  8
0
 10
-44.487907
 20
-10.597314
 11
-16.487906
 21
-10.597314
  0
LINE
  8
0
  6
CENTER
 62
     2
 10
-30.487906
 20
-30.787313
 11
-30.487906
 21
31.922686
  0
LINE
  8
0
 10
-38.487907
 20
-7.597313
 11
-38.487907
 21
-5.597313
  0
LINE
  8
0
 10
-22.487906
 20
-7.597313
 11
-22.487906
 21
-5.597313
  0
LINE
  8
0
 10
-44.437904
 20
-7.597313
 11
-38.487907
 21
-7.597313
  0
LINE
  8
0
 10
-22.487906
 20
-7.597313
 11
-16.537907
 21
-7.597313
  0
LINE
  8
0
  6
CENTER
 62
     2
 10
-41.487907
 20
-8.487313
 11
-41.487907
 21
-3.657314
  0
LINE
  8
0
  6
CENTER
 62
     2
 10
-19.487906
 20
-8.917314
 11
-19.487906
 21
-3.447314
  0
LINE
  8
0
 10
-19.487906
 20
4.402687
 11
-41.487907
 21
4.402687
  0
LINE
  8
0
 10
-19.487906
 20
3.402686
 11
-41.487907
 21
3.402686
  0
LINE
  8
0
 10
-16.487906
 20
2.402686
 11
-44.487907
 21
2.402686
  0
LINE
  8
0
 10
-16.537907
 20
-7.597313
 11
-16.537907
 21
-6.897314
  0
LINE
  8
0
 10
-22.437906
 20
-7.597313
 11
-22.437906
 21
-6.897314
  0
LINE
  8
0
 10
-22.287907
 20
-5.727314
 11
-22.287907
 21
-6.897314
  0
LINE
  8
0
 10
-16.687906
 20
-5.727314
 11
-16.687906
 21
-6.897314
  0
LINE
  8
0
 10
-22.437906
 20
-6.897314
 11
-16.537907
 21
-6.897314
  0
LINE
  8
0
 10
-44.437904
 20
-6.897314
 11
-38.537907
 21
-6.897314
  0
LINE
  8
0
 10
-44.287907
 20
-5.727314
 11
-44.287907
 21
-6.897314
  0
LINE
  8
0
 10
-38.687904
 20
-5.727314
 11
-38.687904
 21
-6.897314
  0
LINE
  8
0
 10
-44.437904
 20
-7.597313
 11
-44.437904
 21
-6.897314
  0
LINE
  8
0
 10
-38.537907
 20
-7.597313
 11
-38.537907
 21
-6.897314
  0
LINE
  8
0
 10
-42.487907
 20
-4.597313
 11
-43.487907
 21
-4.597313
  0
LINE
  8
0
 10
-20.887905
 20
26.942686
 11
-25.127907
 21
26.942686
  0
LINE
  8
0
 10
-19.907906
 20
11.432687
 11
-20.887905
 21
11.432687
  0
LINE
  8
0
 10
-27.487906
 20
11.432687
 11
-27.487906
 21
26.942686
  0
LINE
  8
0
 10
-33.487907
 20
11.432687
 11
-33.487907
 21
26.942686
  0
LINE
  8
0
 10
-33.897907
 20
12.002687
 11
-33.897907
 21
27.502686
  0
LINE
  8
0
 10
-27.087906
 20
12.002687
 11
-27.087906
 21
27.502686
  0
LINE
  8
0
 10
-26.477905
 20
12.002687
 11
-26.477905
 21
27.502686
  0
LINE
  8
0
 10
-25.127907
 20
11.432687
 11
-25.127907
 21
26.942686
  0
LINE
  8
0
 10
-20.887905
 20
11.432687
 11
-20.887905
 21
26.942686
  0
LINE
  8
0
 10
-34.507908
 20
12.002687
 11
-34.507908
 21
27.502686
  0
LINE
  8
0
 10
-35.857906
 20
11.432687
 11
-35.857906
 21
26.942686
  0
LINE
  8
0
 10
-40.097904
 20
11.432687
 11
-40.097904
 21
26.942686
  0
LINE
  8
0
 10
-27.087906
 20
27.502686
 11
-33.897907
 21
27.502686
  0
LINE
  8
0
 10
-34.507908
 20
27.502686
 11
-39.317905
 21
27.502686
  0
LINE
  8
0
 10
-21.667906
 20
27.502686
 11
-26.477905
 21
27.502686
  0
LINE
  8
0
 10
-27.487906
 20
26.942686
 11
-33.487907
 21
26.942686
  0
LINE
  8
0
 10
-35.857906
 20
26.942686
 11
-40.097904
 21
26.942686
  0
LINE
  8
0
 10
-41.077908
 20
11.432687
 11
-41.077908
 21
26.942686
  0
LINE
  8
0
 10
-19.907906
 20
11.432687
 11
-19.907906
 21
26.942686
  0
LINE
  8
0
 10
-39.317905
 20
27.502686
 11
-40.097904
 21
26.942686
  0
LINE
  8
0
 10
-21.667908
 20
27.502687
 11
-20.887907
 21
26.942686
  0
LINE
  8
0
 10
-25.127907
 20
26.942686
 11
-26.477907
 21
27.502686
  0
LINE
  8
0
 10
-27.487904
 20
26.942686
 11
-27.087904
 21
27.502686
  0
LINE
  8
0
 10
-33.487907
 20
26.942688
 11
-33.897907
 21
27.502687
  0
LINE
  8
0
 10
-35.857906
 20
26.942686
 11
-34.507904
 21
27.502686
  0
LINE
  8
0
 10
-33.897907
 20
12.002687
 11
-34.507908
 21
12.002687
  0
LINE
  8
0
 10
-26.477905
 20
12.002687
 11
-27.087906
 21
12.002687
  0
LINE
  8
0
 10
-40.097904
 20
11.432687
 11
-41.077908
 21
11.432687
  0
LINE
  8
0
 10
-33.487907
 20
11.432687
 11
-35.857906
 21
11.432687
  0
LINE
  8
0
 10
-25.127907
 20
11.432687
 11
-27.487906
 21
11.432687
  0
LINE
  8
0
 10
-33.897907
 20
12.002687
 11
-33.487907
 21
11.432687
  0
LINE
  8
0
 10
-34.507904
 20
12.002687
 11
-35.857906
 21
11.432686
  0
LINE
  8
0
 10
-27.087904
 20
12.002687
 11
-27.487906
 21
11.432687
  0
LINE
  8
0
 10
-26.477905
 20
12.002687
 11
-25.127907
 21
11.432687
  0
LINE
  8
0
 10
-39.577908
 20
27.312687
 11
-39.577908
 21
27.502686
  0
LINE
  8
0
 10
-41.187904
 20
26.942686
 11
-41.077908
 21
26.942686
  0
LINE
  8
0
 10
-40.227905
 20
27.502686
 11
-39.577908
 21
27.502686
  0
LINE
  8
0
 10
-19.787907
 20
26.942686
 11
-19.907906
 21
26.942686
  0
LINE
  8
0
 10
-20.757906
 20
27.502686
 11
-21.407906
 21
27.502686
  0
LINE
  8
0
 10
-19.907906
 20
26.942686
 11
-21.407906
 21
27.502686
  0
LINE
  8
0
 10
-21.407906
 20
27.502686
 11
-21.407906
 21
27.312687
  0
LINE
  8
0
 10
-41.077904
 20
26.942686
 11
-39.577904
 21
27.502686
  0
LINE
  8
0
 10
-41.077904
 20
11.432687
 11
-40.097908
 21
11.802687
  0
LINE
  8
0
 10
-19.907906
 20
11.432687
 11
-20.887907
 21
11.802687
  0
LINE
  8
0
 10
-19.487906
 20
10.002687
 11
-41.487907
 21
10.002687
  0
LINE
  8
0
 10
-16.487906
 20
-5.597313
 11
-16.487906
 21
-28.487314
  0
LINE
  8
0
  6
CENTER
 62
     2
 10
-10.487906
 20
-2.597314
 11
-18.487906
 21
-2.597314
  0
LINE
  8
0
 10
-14.487906
 20
-2.097314
 11
-46.487907
 21
-2.097314
  0
LINE
  8
0
 10
-18.487906
 20
-4.597313
 11
-18.487906
 21
-2.597314
  0
LINE
  8
0
 10
-42.487907
 20
-4.597313
 11
-42.487907
 21
-2.597314
  0
LINE
  8
0
 10
-19.237906
 20
-4.597313
 11
-19.237906
 21
-2.597314
  0
LINE
  8
0
 10
-41.737907
 20
-4.597313
 11
-41.737907
 21
-2.597314
  0
LINE
  8
0
 10
-16.987906
 20
-2.597314
 11
-16.987906
 21
-2.097314
  0
LINE
  8
0
 10
-43.987907
 20
-2.597314
 11
-43.987907
 21
-2.097314
  0
LINE
  8
0
 10
-44.487907
 20
-28.487314
 11
-16.487906
 21
-28.487314
  0
LINE
  8
0
 10
-38.487907
 20
-2.097314
 11
-38.487907
 21
0.832686
  0
LINE
  8
0
 10
-46.487907
 20
-2.097314
 11
-46.487907
 21
0.902686
  0
LINE
  8
0
 10
-14.487906
 20
-2.097314
 11
-14.487906
 21
0.902686
  0
LINE
  8
0
 10
-44.487907
 20
2.402687
 11
-46.487907
 21
0.902687
  0
LINE
  8
0
 10
-16.487907
 20
2.402687
 11
-14.487906
 21
0.902687
  0
LINE
  8
0
 10
-22.487906
 20
-2.097314
 11
-22.487906
 21
0.902686
  0
LINE
  8
0
 10
-41.897907
 20
-6.897314
 11
-41.487907
 21
-7.597313
  0
LINE
  8
0
 10
-41.487907
 20
-6.897313
 11
-41.087906
 21
-7.597312
  0
LINE
  8
0
 10
-19.897907
 20
-6.897314
 11
-19.487907
 21
-7.597314
  0
LINE
  8
0
 10
-19.487906
 20
-6.897313
 11
-19.087906
 21
-7.597313
  0
LINE
  8
0
  6
CENTER
 62
     2
 10
-93.597908
 20
-20.977314
 11
-88.967903
 21
-20.977314
  0
LINE
  8
0
  6
CENTER
 62
     2
 10
-111.147903
 20
-0.597314
 11
-111.147903
 21
25.402687
  0
LINE
  8
0
  6
CENTER
 62
     2
 10
-109.147903
 20
-1.097314
 11
-109.147903
 21
25.402687
  0
LINE
  8
0
  6
CENTER
 62
     2
 10
-111.147903
 20
25.402687
 11
-109.147903
 21
25.402687
  0
LINE
  8
0
 10
-104.647903
 20
-2.597314
 11
-79.147903
 21
-2.597314
  0
LINE
  8
0
  6
CENTER
 62
     2
 10
-111.147903
 20
23.402687
 11
-109.147903
 21
23.402687
  0
LINE
  8
0
  6
CENTER
 62
     2
 10
-10.487906
 20
-4.597313
 11
-10.487906
 21
23.402687
  0
LINE
  8
0
  6
CENTER
 62
     2
 10
-50.487907
 20
-4.597313
 11
-50.487907
 21
23.402687
  0
LINE
  8
0
  6
CENTER
 62
     2
 10
-12.487906
 20
25.402687
 11
-19.907906
 21
25.402687
  0
LINE
  8
0
  6
CENTER
 62
     2
 10
-48.487904
 20
25.402685
 11
-50.487904
 21
23.402687
  0
LINE
  8
0
  6
CENTER
 62
     2
 10
-10.487906
 20
23.402685
 11
-12.487906
 21
25.402685
  0
LINE
  8
0
  6
CENTER
 62
     2
 10
-41.217907
 20
25.402687
 11
-48.487907
 21
25.402687
  0
LINE
  8
0
  6
CENTER
 62
     2
 10
-42.487907
 20
-4.597313
 11
-50.487907
 21
-4.597313
  0
LINE
  8
0
  6
CENTER
 62
     2
 10
-10.487906
 20
-4.597313
 11
-18.487906
 21
-4.597313
  0
LINE
  8
0
  6
CENTER
 62
     2
 10
-76.147903
 20
-4.597313
 11
-76.147903
 21
-2.597314
  0
LINE
  8
0
  6
CENTER
 62
     2
 10
-79.147903
 20
-4.597313
 11
-76.147903
 21
-4.597313
  0
LINE
  8
0
  6
CENTER
 62
     2
 10
-79.147903
 20
-2.597314
 11
-76.147903
 21
-2.597314
  0
LINE
  8
0
  6
CENTER
 62
     2
 10
-41.737907
 20
-2.597314
 11
-50.487907
 21
-2.597314
  0
LINE
  8
0
 10
-18.487906
 20
-2.597314
 11
-41.737907
 21
-2.597314
  0
LINE
  8
0
  6
CENTER
 62
     2
 10
-48.097904
 20
15.502687
 11
-12.857906
 21
15.502687
  0
LINE
  8
0
  6
CENTER
 62
     2
 10
-17.487906
 20
11.892687
 11
-17.487906
 21
19.267094
  0
LINE
  8
0
  6
CENTER
 62
     2
 10
-43.487907
 20
11.332686
 11
-43.487907
 21
19.267094
  0
LINE
  8
0
  6
CENTER
 62
     2
 10
-44.487907
 20
13.002687
 11
-42.487907
 21
13.002687
  0
LINE
  8
0
  6
CENTER
 62
     2
 10
-44.487907
 20
18.002686
 11
-42.487907
 21
18.002686
  0
LINE
  8
0
  6
CENTER
 62
     2
 10
-18.487906
 20
18.002686
 11
-16.487906
 21
18.002686
  0
LINE
  8
0
  6
CENTER
 62
     2
 10
-18.487906
 20
13.002687
 11
-16.487906
 21
13.002687
  0
LINE
  8
0
 10
-103.147903
 20
-4.597313
 11
-78.147903
 21
-4.597313
  0
LINE
  8
0
 10
-17.487906
 20
-4.597313
 11
-40.497906
 21
-4.597313
  0
LINE
  8
0
  6
CENTER
 62
     2
 10
-28.037907
 20
-15.997313
 11
-32.667908
 21
-15.997313
  0
LINE
  8
0
  6
DASHED
 62
     2
 10
-77.147903
 20
-13.637314
 11
-83.347908
 21
-13.827313
  0
LINE
  8
0
  6
DASHED
 62
     2
 10
-77.147911
 20
-14.217314
 11
-83.347908
 21
-14.417314
  0
LINE
  8
0
  6
DASHED
 62
     2
 10
-77.147903
 20
-22.767315
 11
-83.347908
 21
-22.577314
  0
LINE
  8
0
  6
DASHED
 62
     2
 10
-77.147911
 20
-23.357315
 11
-83.347908
 21
-23.157314
  0
LINE
  8
0
 10
-106.147903
 20
-14.185056
 11
-106.147903
 21
-22.797958
  0
LINE
  8
0
 62
     2
 10
-106.147903
 20
-14.185057
 11
-105.147911
 21
-14.217315
  0
LINE
  8
0
 10
-105.648193
 20
-13.621983
 11
-105.147911
 21
-13.637314
  0
LINE
  8
0
 62
     2
 10
-106.147911
 20
-22.797958
 11
-105.147903
 21
-22.767313
  0
LINE
  8
0
 10
-105.663483
 20
-23.373945
 11
-105.147911
 21
-23.357315
  0
LINE
  8
0
  6
CENTER
 62
     2
 10
-99.109955
 20
-18.487314
 11
-108.524063
 21
-18.487314
  0
LINE
  8
0
  6
CENTER
 62
     2
 10
-85.194603
 20
-18.487314
 11
-96.952553
 21
-18.487314
  0
LINE
  8
0
 10
-105.648186
 20
-13.621983
 11
-105.663483
 21
-23.373945
  0
LINE
  8
0
 10
-106.147903
 20
-14.185057
 11
-105.648193
 21
-13.621984
  0
LINE
  8
0
 10
-106.147903
 20
-22.797960
 11
-105.663483
 21
-23.373945
  0
LINE
  8
0
  6
DASHED
 62
     2
 10
-105.147911
 20
-13.637314
 11
-98.947906
 21
-13.827313
  0
LINE
  8
0
  6
DASHED
 62
     2
 10
-105.147911
 20
-14.217315
 11
-98.947906
 21
-14.417315
  0
LINE
  8
0
  6
DASHED
 62
     2
 10
-105.147911
 20
-23.357315
 11
-98.947914
 21
-23.157314
  0
LINE
  8
0
  6
DASHED
 62
     2
 10
-105.147903
 20
-22.767313
 11
-98.947914
 21
-22.577314
  0
LINE
  8
0
 10
-138.399994
 20
94.500000
 11
138.350006
 21
94.500000
  0
LINE
  8
0
 10
138.350006
 20
94.500000
 11
138.350006
 21
-94.800003
  0
LINE
  8
0
 10
-138.399994
 20
-94.800003
 11
138.350006
 21
-94.800003
  0
LINE
  8
0
 10
-138.399994
 20
94.500000
 11
-138.399994
 21
-94.800003
  0
CIRCLE
  8
0
 10
69.162506
 20
-56.189754
 40
10.900000
  0
CIRCLE
  8
0
 10
69.162506
 20
-56.189754
 40
10.500000
  0
CIRCLE
  8
0
 10
69.162506
 20
41.595383
 40
10.900000
  0
CIRCLE
  8
0
 10
69.162506
 20
41.595383
 40
10.500000
  0
ARC
  8
0
 10
-82.436668
 20
28.503887
 40
0.998803
 50
0.504843
 51
90.070900
  0
ARC
  8
0
 10
-99.870773
 20
28.505529
 40
0.997160
 50
89.835167
 51
179.588791
  0
ARC
  8
0
 10
-78.149582
 20
-5.598990
 40
1.001680
 50
0.095899
 51
89.903992
  0
ARC
  8
0
 10
-104.152901
 20
-5.592319
 40
0.995018
 50
89.712242
 51
180.287613
  0
ARC
  8
0
 10
-104.152901
 20
-8.592319
 40
0.995018
 50
89.712242
 51
180.287598
  0
ARC
  8
0
 10
-98.152901
 20
-5.592319
 40
0.995018
 50
89.712242
 51
180.287613
  0
ARC
  8
0
 10
-84.149582
 20
-5.598990
 40
1.001680
 50
0.095899
 51
89.903992
  0
ARC
  8
0
 10
-78.149582
 20
-8.598990
 40
1.001680
 50
0.095899
 51
89.903992
  0
ARC
  8
0
 10
-102.147903
 20
-9.493976
 40
4.994503
 50
60.492249
 51
119.507744
  0
ARC
  8
0
 10
-100.016815
 20
-5.729779
 40
0.668919
 50
0.211200
 51
60.547146
  0
ARC
  8
0
 10
-104.288940
 20
-5.723947
 40
0.658971
 50
118.948967
 51
180.292709
  0
ARC
  8
0
 10
-80.147903
 20
-9.493983
 40
4.994510
 50
60.492294
 51
119.507706
  0
ARC
  8
0
 10
-78.016823
 20
-5.729781
 40
0.668919
 50
0.211364
 51
60.546654
  0
ARC
  8
0
 10
-82.288940
 20
-5.723949
 40
0.658976
 50
118.949471
 51
180.292542
  0
CIRCLE
  8
0
 62
     2
 10
-91.154564
 20
-18.493975
 40
4.863999
  0
CIRCLE
  8
0
 10
-91.154564
 20
-18.493975
 40
4.278000
  0
ARC
  8
0
 10
-84.397903
 20
-13.531475
 40
15.934476
 50
64.937302
 51
115.062698
  0
ARC
  8
0
 10
-97.897903
 20
-13.531475
 40
15.934476
 50
64.937302
 51
115.062698
  0
ARC
  8
0
 10
-39.207493
 20
28.502218
 40
1.000469
 50
90.023811
 51
179.400421
  0
ARC
  8
0
 10
-21.773386
 20
28.507202
 40
0.995495
 50
0.315722
 51
90.260170
  0
ARC
  8
0
 10
-43.489578
 20
-5.595643
 40
0.998331
 50
89.904106
 51
180.095871
  0
ARC
  8
0
 10
-17.486248
 20
-5.595654
 40
0.998342
 50
359.904785
 51
90.095238
  0
ARC
  8
0
 10
-17.486248
 20
-8.595654
 40
0.998342
 50
359.904816
 51
90.095238
  0
ARC
  8
0
 10
-23.486248
 20
-5.595654
 40
0.998342
 50
359.904785
 51
90.095238
  0
ARC
  8
0
 10
-37.489578
 20
-5.595643
 40
0.998331
 50
89.904106
 51
180.095871
  0
ARC
  8
0
 10
-43.489578
 20
-8.595643
 40
0.998331
 50
89.904106
 51
180.095840
  0
ARC
  8
0
 10
-19.492907
 20
-9.493974
 40
4.996967
 50
60.442337
 51
119.557663
  0
ARC
  8
0
 10
-21.621504
 20
-5.722594
 40
0.666418
 50
120.317398
 51
180.405792
  0
ARC
  8
0
 10
-17.351849
 20
-5.726866
 40
0.663943
 50
359.961395
 51
60.796898
  0
ARC
  8
0
 10
-41.492905
 20
-9.493981
 40
4.996974
 50
60.442379
 51
119.557625
  0
ARC
  8
0
 10
-43.621502
 20
-5.722596
 40
0.666422
 50
120.317741
 51
180.405624
  0
ARC
  8
0
 10
-39.351852
 20
-5.726868
 40
0.663944
 50
359.961578
 51
60.796837
  0
CIRCLE
  8
0
 62
     2
 10
-30.487906
 20
-18.493975
 40
4.863999
  0
CIRCLE
  8
0
 10
-30.487906
 20
-18.493975
 40
4.278000
  0
ARC
  8
0
 10
-30.487906
 20
-19.677307
 40
22.080221
 50
68.757545
 51
111.242455
  0
ARC
  8
0
 10
-42.487907
 20
-3.677308
 40
6.080818
 50
48.867226
 51
131.132782
  0
ARC
  8
0
 10
-18.488152
 20
-3.677326
 40
6.080670
 50
57.353466
 51
131.130920
  0
CIRCLE
  8
0
 10
-91.157906
 20
-20.980652
 40
1.500000
  0
ARC
  8
0
  6
CENTER
 62
     2
 10
-107.649559
 20
-1.098969
 40
1.498345
 50
179.936691
 51
270.063293
  0
ARC
  8
0
  6
CENTER
 62
     2
 10
-107.149567
 20
-0.598975
 40
3.998337
 50
179.976196
 51
270.023834
  0
ARC
  8
0
  6
CENTER
 62
     2
 10
-16.487906
 20
15.502687
 40
2.500000
 50
270.000000
 51
90.000000
  0
ARC
  8
0
  6
CENTER
 62
     2
 10
-44.487907
 20
15.502687
 40
2.499999
 50
90.000000
 51
270.000000
  0
ARC
  8
0
  6
CENTER
 62
     2
 10
-18.489042
 20
15.505744
 40
2.496942
 50
89.973961
 51
117.394104
  0
ARC
  8
0
  6
CENTER
 62
     2
 10
-42.497063
 20
15.503965
 40
2.501296
 50
270.209808
 51
295.305298
  0
ARC
  8
0
  6
CENTER
 62
     2
 10
-42.496239
 20
15.508052
 40
2.494648
 50
62.592396
 51
89.808647
  0
ARC
  8
0
  6
CENTER
 62
     2
 10
-18.488306
 20
15.506110
 40
2.503424
 50
244.706543
 51
270.009155
  0
CIRCLE
  8
0
 10
-30.477907
 20
-15.993976
 40
1.500000
  0
CIRCLE
  8
0
 10
-91.147903
 20
-7.597313
 40
0.600000
  0
TEXT
  8
0
 10
82.614716
 20
-86.680000
 40
3.200000
  1
-GD20
 50
0.000000
 41
1.052632
 51
0.000000
  7
STANDARD
  0
TEXT
  8
0
 10
82.614716
 20
7.969998
 40
3.200000
  1
-GA20
 50
0.000000
 41
1.052632
 51
0.000000
  7
STANDARD
  0
TEXT
  8
0
 10
-93.707520
 20
-27.229427
 40
2.500000
  1
IN
 50
0.000000
 41
1.052632
 51
0.000000
  7
STANDARD
  0
TEXT
  8
0
 10
-10.762591
 20
-16.795515
 40
3.200000
  1
OUT
 50
0.000000
 41
1.052632
 51
0.000000
  7
STANDARD
  0
TEXT
  8
0
 10
-57.023952
 20
-16.876635
 40
3.200000
  1
IN
 50
0.000000
 41
1.052632
 51
0.000000
  7
STANDARD
  0
TEXT
  8
0
 10
-130.207001
 20
82.620003
 40
3.200000
  1
MODEL:PR100
 50
0.000000
 41
1.052632
 51
0.000000
  7
STANDARD
  0
LINE
  8
0
 62
     2
 10
-50.487907
 20
20.839348
 11
-63.654572
 21
37.839348
  0
LINE
  8
0
 62
     2
 10
-63.654572
 20
37.839348
 11
-73.235405
 21
37.839344
  0
LINE
  8
0
 62
     2
 10
-50.487907
 20
20.839348
 11
-51.648434
 21
23.605785
  0
LINE
  8
0
 62
     2
 10
-50.487907
 20
20.839348
 11
-52.876171
 21
22.654892
  0
TEXT
  8
0
 62
     2
 10
-72.985405
 20
38.839344
 40
3.200000
  1
-B
 50
0.000000
 41
1.052632
 51
0.000000
  7
STANDARD
  0
LINE
  8
0
 10
-3.159720
 20
-18.493975
 11
-8.594825
 21
-18.493975
  0
LINE
  8
0
 10
-3.159720
 20
-18.493975
 11
-6.057498
 21
-17.717518
  0
LINE
  8
0
 10
-3.159720
 20
-18.493975
 11
-6.057498
 21
-19.270432
  0
LINE
  8
0
 10
-51.426689
 20
-18.493975
 11
-56.050591
 21
-18.493975
  0
LINE
  8
0
 10
-51.426689
 20
-18.493975
 11
-54.324467
 21
-17.717518
  0
LINE
  8
0
 10
-51.426689
 20
-18.493975
 11
-54.324467
 21
-19.270432
  0
ENDSEC
  0
EOF
