  0
SECTION
  2
HEADER
  0
ENDSEC
  0
SECTION
  2
TABLES
  0
TABLE
  2
LTYPE
 70
     4
  0
LTYPE
  2
CONTINUOUS
 70
    64
  3
Solid line
 72
    65
 73
     0
 40
0.000000
  0
LTYPE
  2
DASHED
 70
    64
  3
__ __ __ __ __ __ __ __ __ __ __ __ __ __ __
 72
    65
 73
     2
 40
3.500000
 49
2.000000
 49
-1.500000
  0
LTYPE
  2
CENTER
 70
    64
  3
____ _ ____ _ ____ _ ____ _ ____ _ ____ _ ____
 72
    65
 73
     4
 40
17.500000
 49
13.000000
 49
-1.500000
 49
1.500000
 49
-1.500000
  0
LTYPE
  2
PHANTOM
 70
    64
  3
_____ _ _ _____ _ _ _____ _ _ _____ _ _ ____  
 72
    65
 73
     6
 40
15.500000
 49
8.000000
 49
-1.500000
 49
1.500000
 49
-1.500000
 49
1.500000
 49
-1.500000
  0
LTYPE
  2
DASHED1
 70
    64
  3
__ __ __ __ __ __ __ __ __ __ __ __ __ __ __
 72
    65
 73
     2
 40
1.500000
 49
1.000000
 49
-0.500000
  0
LTYPE
  2
DASHED2
 70
    64
  3
__ __ __ __ __ __ __ __ __ __ __ __ __ __ __
 72
    65
 73
     2
 40
3.500000
 49
2.500000
 49
-1.000000
  0
LTYPE
  2
DASHED3
 70
    64
  3
__ __ __ __ __ __ __ __ __ __ __ __ __ __ __
 72
    65
 73
     2
 40
6.000000
 49
4.000000
 49
-2.000000
  0
LTYPE
  2
DASHED4
 70
    64
  3
__ __ __ __ __ __ __ __ __ __ __ __ __ __ __
 72
    65
 73
     2
 40
12.000000
 49
10.000000
 49
-2.000000
  0
LTYPE
  2
DASHED5
 70
    64
  3
__ __ __ __ __ __ __ __ __ __ __ __ __ __ __
 72
    65
 73
     2
 40
17.000000
 49
15.000000
 49
-2.000000
  0
LTYPE
  2
DASHED6
 70
    64
  3
__ __ __ __ __ __ __ __ __ __ __ __ __ __ __
 72
    65
 73
     2
 40
29.000000
 49
27.000000
 49
-2.000000
  0
LTYPE
  2
PHANTOM1
 70
    64
  3
_____ _ _ _____ _ _ _____ _ _ _____ _ _ ____  
 72
    65
 73
     6
 40
31.000000
 49
25.000000
 49
-1.500000
 49
1.000000
 49
-1.000000
 49
1.000000
 49
-1.500000
  0
LTYPE
  2
PHANTOM2
 70
    64
  3
_____ _ _ _____ _ _ _____ _ _ _____ _ _ ____  
 72
    65
 73
     6
 40
36.000000
 49
27.000000
 49
-1.500000
 49
2.500000
 49
-1.000000
 49
2.500000
 49
-1.500000
  0
LTYPE
  2
PHANTOM3
 70
    64
  3
_____ _ _ _____ _ _ _____ _ _ _____ _ _ ____  
 72
    65
 73
     6
 40
78.000000
 49
64.000000
 49
-2.000000
 49
4.000000
 49
-2.000000
 49
4.000000
 49
-2.000000
  0
LTYPE
  2
CENTER1
 70
    64
  3
____ _ ____ _ ____ _ ____ _ ____ _ ____ _ ____
 72
    65
 73
     4
 40
19.000000
 49
14.000000
 49
-1.000000
 49
3.000000
 49
-1.000000
  0
LTYPE
  2
CENTER2
 70
    64
  3
____ _ ____ _ ____ _ ____ _ ____ _ ____ _ ____
 72
    65
 73
     4
 40
28.500000
 49
25.000000
 49
-1.000000
 49
1.500000
 49
-1.000000
  0
LTYPE
  2
CENTER3
 70
    64
  3
____ _ ____ _ ____ _ ____ _ ____ _ ____ _ ____
 72
    65
 73
     4
 40
31.500000
 49
27.000000
 49
-1.000000
 49
2.500000
 49
-1.000000
  0
LTYPE
  2
CENTER4
 70
    64
  3
____ _ ____ _ ____ _ ____ _ ____ _ ____ _ ____
 72
    65
 73
     4
 40
50.000000
 49
45.000000
 49
-1.000000
 49
3.000000
 49
-1.000000
  0
LTYPE
  2
CENTER5
 70
    64
  3
____ _ ____ _ ____ _ ____ _ ____ _ ____ _ ____
 72
    65
 73
     4
 40
100.000000
 49
92.000000
 49
-2.000000
 49
4.000000
 49
-2.000000
  0
LTYPE
  2
SBK1
 70
    64
  3
______ _ _ _ ______ _ _ _ ______ _ _ _ _____  
 72
    65
 73
     8
 40
60.500000
 49
45.000000
 49
-2.000000
 49
2.500000
 49
-2.000000
 49
2.500000
 49
-2.000000
 49
2.500000
 49
-2.000000
  0
LTYPE
  2
SBK2
 70
    64
  3
______ _ _ _ ______ _ _ _ ______ _ _ _ _____  
 72
    65
 73
     8
 40
84.000000
 49
64.000000
 49
-2.000000
 49
4.000000
 49
-2.000000
 49
4.000000
 49
-2.000000
 49
4.000000
 49
-2.000000
  0
LTYPE
  2
STCH
 70
    64
  3
__ __ __ __ __ __ __ __ __ __ __ __ __ __ __
 72
    65
 73
     2
 40
3.000000
 49
1.000000
 49
-2.000000
  0
LTYPE
  2
MTCH
 70
    64
  3
_____ _ _ _____ _ _ _____ _ _ _____ _ _ ____  
 72
    65
 73
     6
 40
80.000000
 49
66.000000
 49
-2.000000
 49
4.000000
 49
-2.000000
 49
4.000000
 49
-2.000000
  0
ENDTAB
  0
TABLE
  2
LAYER
 70
     1
  0
LAYER
  2
0
 70
     0
 62
     7
  6
CONTINUOUS
  0
ENDTAB
  0
TABLE
  2
STYLE
 70
     1
  0
STYLE
  2
STANDARD
 70
     0
 40
0.000000
 41
1.000000
 50
0.000000
 71
     0
 42
0.200000
  3
txt
  4
BIGFONT
  0
ENDTAB
  0
TABLE
  2
VIEW
 70
     0
  0
ENDTAB
  0
ENDSEC
  0
SECTION
  2
BLOCKS
  0
ENDSEC
  0
SECTION
  2
ENTITIES
  0
LINE
  8
0
  6
CENTER
 62
     2
 10
-84.500000
 20
-32.999992
 11
-95.500000
 21
-32.999992
  0
LINE
  8
0
  6
CENTER
 62
     2
 10
-62.495602
 20
-29.999994
 11
-77.504395
 21
-29.999994
  0
LINE
  8
0
  6
CENTER
 62
     2
 10
-62.500000
 20
50.000008
 11
-77.500000
 21
50.000008
  0
LINE
  8
0
  6
CENTER
 62
     2
 10
-84.500000
 20
53.000008
 11
-95.500000
 21
53.000008
  0
LINE
  8
0
  6
CENTER
 62
     2
 10
85.000000
 20
50.000008
 11
85.000000
 21
-32.959995
  0
LINE
  8
0
  6
CENTER
 62
     2
 10
-130.229996
 20
10.000006
 11
-49.230000
 21
10.000006
  0
LINE
  8
0
 10
45.000000
 20
33.000008
 11
45.000000
 21
11.100006
  0
LINE
  8
0
 10
120.000000
 20
59.000008
 11
120.000000
 21
-38.999992
  0
LINE
  8
0
 10
-55.000000
 20
50.000008
 11
-55.000000
 21
-29.999994
  0
LINE
  8
0
 10
-125.000000
 20
50.000008
 11
-125.000000
 21
-29.999994
  0
LINE
  8
0
 10
-115.000000
 20
-39.999992
 11
-65.000000
 21
-39.999992
  0
LINE
  8
0
 10
-115.000000
 20
60.000008
 11
-65.000000
 21
60.000008
  0
LINE
  8
0
 10
112.000000
 20
60.000008
 11
119.000000
 21
60.000008
  0
LINE
  8
0
  6
CENTER
 62
     2
 10
105.820000
 20
50.000008
 11
125.260002
 21
50.000008
  0
LINE
  8
0
  6
CENTER
 62
     2
 10
106.809998
 20
-29.999994
 11
123.410004
 21
-29.999994
  0
LINE
  8
0
 10
112.000000
 20
-39.999992
 11
119.000000
 21
-39.999992
  0
LINE
  8
0
 10
-125.000000
 20
11.100006
 11
-55.000000
 21
11.100006
  0
LINE
  8
0
 10
-125.000000
 20
8.900006
 11
-55.000000
 21
8.900006
  0
LINE
  8
0
 10
45.000000
 20
11.100006
 11
58.020000
 21
11.100006
  0
LINE
  8
0
  6
CENTER
 62
     2
 10
40.930000
 20
10.000006
 11
124.129997
 21
10.000006
  0
LINE
  8
0
 10
45.000000
 20
8.900006
 11
58.020000
 21
8.900006
  0
LINE
  8
0
 10
110.000000
 20
58.000008
 11
110.000000
 21
40.980007
  0
LINE
  8
0
 10
110.000000
 20
-20.979994
 11
110.000000
 21
-37.999992
  0
LINE
  8
0
 10
119.000000
 20
-39.999996
 11
120.000000
 21
-38.999996
  0
LINE
  8
0
 10
120.000000
 20
59.000008
 11
119.000000
 21
60.000008
  0
LINE
  8
0
 10
-122.000000
 20
45.000008
 11
-118.660004
 21
45.000008
  0
LINE
  8
0
 10
-122.000000
 20
-24.999994
 11
-118.660004
 21
-24.999994
  0
LINE
  8
0
  6
DASHED
 10
66.970001
 20
-19.999994
 11
103.019997
 21
-19.999994
  0
LINE
  8
0
  6
DASHED
 10
66.970001
 20
40.000008
 11
103.019997
 21
40.000008
  0
LINE
  8
0
 10
-101.339996
 20
-24.999994
 11
-78.660004
 21
-24.999994
  0
LINE
  8
0
 10
-61.340000
 20
-24.999994
 11
-58.000000
 21
-24.999994
  0
LINE
  8
0
 10
-61.340000
 20
45.000008
 11
-58.000000
 21
45.000008
  0
LINE
  8
0
 10
-101.339996
 20
45.000008
 11
-78.660004
 21
45.000008
  0
LINE
  8
0
 10
45.000000
 20
8.900006
 11
45.000000
 21
-12.999994
  0
LINE
  8
0
 10
119.000000
 20
60.000008
 11
119.000000
 21
-39.999992
  0
LINE
  8
0
  6
DASHED
 10
110.000000
 20
-34.499992
 11
120.000000
 21
-34.499992
  0
LINE
  8
0
  6
DASHED
 10
110.000000
 20
-25.499994
 11
120.000000
 21
-25.499994
  0
LINE
  8
0
  6
DASHED
 10
110.000000
 20
54.500008
 11
120.000000
 21
54.500008
  0
LINE
  8
0
  6
DASHED
 10
110.000000
 20
45.500008
 11
120.000000
 21
45.500008
  0
LINE
  8
0
  6
CENTER
 62
     2
 10
-119.809998
 20
50.000008
 11
-100.510002
 21
50.000008
  0
LINE
  8
0
  6
CENTER
 62
     2
 10
-119.809998
 20
-29.999994
 11
-100.510002
 21
-29.999994
  0
LINE
  8
0
 10
-122.000000
 20
35.000008
 11
-58.000000
 21
35.000008
  0
LINE
  8
0
 10
45.750000
 20
35.000008
 11
58.540001
 21
35.000008
  0
LINE
  8
0
 10
58.540001
 20
-14.999994
 11
45.750000
 21
-14.999994
  0
LINE
  8
0
 10
-58.000000
 20
-14.999994
 11
-122.000000
 21
-14.999994
  0
LINE
  8
0
 10
-103.750000
 20
-16.599995
 11
-116.250000
 21
-16.599995
  0
LINE
  8
0
 10
-110.749992
 20
-18.099995
 11
-111.149994
 21
-16.599995
  0
LINE
  8
0
 10
-109.250000
 20
-16.599993
 11
-108.839996
 21
-18.099993
  0
LINE
  8
0
 10
-103.900002
 20
-16.599995
 11
-103.900002
 21
-18.099995
  0
LINE
  8
0
 10
-116.099998
 20
-16.599995
 11
-116.099998
 21
-18.099995
  0
LINE
  8
0
 10
-63.750000
 20
-16.599995
 11
-76.250000
 21
-16.599995
  0
LINE
  8
0
 10
-70.749992
 20
-18.099993
 11
-71.149994
 21
-16.599993
  0
LINE
  8
0
 10
-69.250000
 20
-16.599993
 11
-68.839996
 21
-18.099993
  0
LINE
  8
0
 10
-63.900002
 20
-16.599995
 11
-63.900002
 21
-18.099995
  0
LINE
  8
0
 10
-76.099998
 20
-16.599995
 11
-76.099998
 21
-18.099995
  0
LINE
  8
0
 10
58.250000
 20
-16.599995
 11
45.750000
 21
-16.599995
  0
LINE
  8
0
 10
51.250000
 20
-18.099995
 11
50.840000
 21
-16.599995
  0
LINE
  8
0
 10
52.750000
 20
-16.599993
 11
53.150002
 21
-18.099993
  0
LINE
  8
0
 10
58.099998
 20
-16.599995
 11
58.099998
 21
-18.099995
  0
LINE
  8
0
 10
45.900002
 20
-16.599995
 11
45.900002
 21
-18.099995
  0
LINE
  8
0
 10
57.000000
 20
44.500008
 11
57.000000
 21
36.600006
  0
LINE
  8
0
 10
57.000000
 20
42.200005
 11
56.299999
 21
42.600006
  0
LINE
  8
0
 10
56.299999
 20
42.600006
 11
47.689999
 21
42.600006
  0
LINE
  8
0
 10
57.000000
 20
42.200005
 11
47.000000
 21
42.200005
  0
LINE
  8
0
 10
47.000000
 20
42.200005
 11
47.690002
 21
42.600006
  0
LINE
  8
0
 10
47.000000
 20
44.500008
 11
47.000000
 21
36.600006
  0
LINE
  8
0
 10
58.250000
 20
36.600006
 11
45.750000
 21
36.600006
  0
LINE
  8
0
 10
55.000000
 20
11.100006
 11
55.000000
 21
8.900006
  0
LINE
  8
0
 62
     2
 10
54.450001
 20
11.100006
 11
54.450001
 21
8.900006
  0
LINE
  8
0
 10
49.000000
 20
11.100006
 11
49.000000
 21
8.900006
  0
LINE
  8
0
 62
     2
 10
49.540001
 20
11.100006
 11
49.540001
 21
8.900006
  0
LINE
  8
0
 10
55.000000
 20
-27.399994
 11
49.000000
 21
-27.399994
  0
LINE
  8
0
 10
54.000000
 20
-28.399994
 11
50.000000
 21
-28.399994
  0
LINE
  8
0
 10
54.000000
 20
-28.399994
 11
55.000000
 21
-27.399994
  0
LINE
  8
0
 10
50.000000
 20
-28.399994
 11
49.000000
 21
-27.399992
  0
LINE
  8
0
 10
-65.000000
 20
42.200005
 11
-65.690002
 21
42.600002
  0
LINE
  8
0
 10
-65.690002
 20
42.600006
 11
-74.300003
 21
42.600006
  0
LINE
  8
0
 10
-65.000000
 20
42.200005
 11
-75.000000
 21
42.200005
  0
LINE
  8
0
 10
-75.000000
 20
42.200012
 11
-74.300003
 21
42.600010
  0
LINE
  8
0
 10
-75.000000
 20
42.200005
 11
-75.000000
 21
36.600006
  0
LINE
  8
0
 10
-63.750000
 20
36.600006
 11
-76.250000
 21
36.600006
  0
LINE
  8
0
 10
-67.000000
 20
11.100006
 11
-67.000000
 21
8.900006
  0
LINE
  8
0
 62
     2
 10
-67.540001
 20
11.100006
 11
-67.540001
 21
8.900006
  0
LINE
  8
0
 10
-73.000000
 20
11.100006
 11
-73.000000
 21
8.900006
  0
LINE
  8
0
 62
     2
 10
-72.449997
 20
11.100006
 11
-72.449997
 21
8.900006
  0
LINE
  8
0
 10
-68.000000
 20
-28.399996
 11
-67.000000
 21
-27.399994
  0
LINE
  8
0
 10
-72.000000
 20
-28.399992
 11
-73.000000
 21
-27.399994
  0
LINE
  8
0
 10
-105.000000
 20
42.200005
 11
-105.000000
 21
36.600006
  0
LINE
  8
0
 10
-105.000000
 20
42.200001
 11
-105.690002
 21
42.600002
  0
LINE
  8
0
 10
-105.690002
 20
42.600006
 11
-114.300003
 21
42.600006
  0
LINE
  8
0
 10
-105.000000
 20
42.200005
 11
-115.000000
 21
42.200005
  0
LINE
  8
0
 10
-115.000000
 20
42.200008
 11
-114.300003
 21
42.600010
  0
LINE
  8
0
 10
-115.000000
 20
42.200005
 11
-115.000000
 21
36.600006
  0
LINE
  8
0
 10
-103.750000
 20
36.600006
 11
-116.250000
 21
36.600006
  0
LINE
  8
0
 10
-107.000000
 20
11.100006
 11
-107.000000
 21
8.900006
  0
LINE
  8
0
 62
     2
 10
-107.540001
 20
11.100006
 11
-107.540001
 21
8.900006
  0
LINE
  8
0
 10
-113.000000
 20
11.100006
 11
-113.000000
 21
8.900006
  0
LINE
  8
0
 62
     2
 10
-112.449997
 20
11.100006
 11
-112.449997
 21
8.900006
  0
LINE
  8
0
 10
-108.000000
 20
-28.399994
 11
-107.000000
 21
-27.399994
  0
LINE
  8
0
 10
-112.000000
 20
-28.399992
 11
-112.999992
 21
-27.399994
  0
LINE
  8
0
 10
-64.220001
 20
-18.539993
 11
-64.220001
 21
-22.849995
  0
LINE
  8
0
 10
-65.000000
 20
-18.099993
 11
-64.220001
 21
-18.539993
  0
LINE
  8
0
 10
-63.900002
 20
-18.099995
 11
-76.099998
 21
-18.099995
  0
LINE
  8
0
 10
-67.110001
 20
-18.539993
 11
-67.110001
 21
-22.849995
  0
LINE
  8
0
 10
-72.879997
 20
-18.539993
 11
-72.879997
 21
-22.849995
  0
LINE
  8
0
 10
-75.769997
 20
-18.539993
 11
-75.769997
 21
-22.849995
  0
LINE
  8
0
 10
-75.000000
 20
-18.099995
 11
-75.770004
 21
-18.539995
  0
LINE
  8
0
 10
-75.000000
 20
-23.299995
 11
-75.770004
 21
-22.849995
  0
LINE
  8
0
 10
-65.000000
 20
-23.299994
 11
-75.000000
 21
-23.299994
  0
LINE
  8
0
 10
-65.000000
 20
-23.299994
 11
-64.220001
 21
-22.849991
  0
LINE
  8
0
 10
-104.220001
 20
-18.539993
 11
-104.220001
 21
-22.849995
  0
LINE
  8
0
 10
-105.000000
 20
-18.099997
 11
-104.220001
 21
-18.539997
  0
LINE
  8
0
 10
-103.900002
 20
-18.099995
 11
-116.099998
 21
-18.099995
  0
LINE
  8
0
 10
-107.110001
 20
-18.539993
 11
-107.110001
 21
-22.849995
  0
LINE
  8
0
 10
-112.879997
 20
-18.539993
 11
-112.879997
 21
-22.849995
  0
LINE
  8
0
 10
-115.769997
 20
-18.539993
 11
-115.769997
 21
-22.849995
  0
LINE
  8
0
 10
-115.000000
 20
-18.099991
 11
-115.769997
 21
-18.539991
  0
LINE
  8
0
 10
-115.000008
 20
-23.299995
 11
-115.770004
 21
-22.849995
  0
LINE
  8
0
 10
-105.000000
 20
-23.299994
 11
-115.000000
 21
-23.299994
  0
LINE
  8
0
 10
-105.000000
 20
-23.299994
 11
-104.220001
 21
-22.849995
  0
LINE
  8
0
 10
57.000000
 20
-18.099995
 11
57.000000
 21
-23.299994
  0
LINE
  8
0
 10
52.000000
 20
-18.539993
 11
52.000000
 21
-22.849995
  0
LINE
  8
0
 10
58.099998
 20
-18.099995
 11
45.900002
 21
-18.099995
  0
LINE
  8
0
 10
47.000000
 20
-18.099995
 11
47.000000
 21
-23.299994
  0
LINE
  8
0
 10
57.000000
 20
-23.299994
 11
47.000000
 21
-23.299994
  0
LINE
  8
0
 10
-107.000000
 20
-27.399994
 11
-113.000000
 21
-27.399994
  0
LINE
  8
0
 10
-108.000000
 20
-28.399994
 11
-112.000000
 21
-28.399994
  0
LINE
  8
0
 10
-67.000000
 20
-27.399994
 11
-73.000000
 21
-27.399994
  0
LINE
  8
0
 10
-68.000000
 20
-28.399994
 11
-72.000000
 21
-28.399994
  0
LINE
  8
0
 62
     2
 10
-112.449997
 20
-23.299994
 11
-112.449997
 21
-27.939995
  0
LINE
  8
0
 62
     2
 10
-107.540001
 20
-23.299994
 11
-107.540001
 21
-27.939995
  0
LINE
  8
0
 10
-107.000000
 20
-23.299994
 11
-107.000000
 21
-27.399994
  0
LINE
  8
0
 10
-113.000000
 20
-23.299994
 11
-113.000000
 21
-27.399994
  0
LINE
  8
0
 10
-73.000000
 20
-23.299994
 11
-73.000000
 21
-27.399994
  0
LINE
  8
0
 62
     2
 10
-72.449997
 20
-23.299994
 11
-72.449997
 21
-27.939995
  0
LINE
  8
0
 62
     2
 10
-67.540001
 20
-23.299994
 11
-67.540001
 21
-27.939995
  0
LINE
  8
0
 10
-67.000000
 20
-23.299994
 11
-67.000000
 21
-27.399994
  0
LINE
  8
0
 10
49.000000
 20
-23.299994
 11
49.000000
 21
-27.399994
  0
LINE
  8
0
 62
     2
 10
49.540001
 20
-23.299994
 11
49.540001
 21
-27.939995
  0
LINE
  8
0
 62
     2
 10
54.450001
 20
-23.299994
 11
54.450001
 21
-27.939995
  0
LINE
  8
0
 10
55.000000
 20
-23.299994
 11
55.000000
 21
-27.399994
  0
LINE
  8
0
 10
-85.000008
 20
44.500004
 11
-85.690002
 21
44.900002
  0
LINE
  8
0
 10
-85.690002
 20
44.900005
 11
-94.300003
 21
44.900005
  0
LINE
  8
0
 10
-85.000000
 20
44.500008
 11
-95.000000
 21
44.500008
  0
LINE
  8
0
 10
-95.000000
 20
44.500011
 11
-94.300003
 21
44.900009
  0
LINE
  8
0
 10
-95.000000
 20
44.500008
 11
-95.000000
 21
38.900005
  0
LINE
  8
0
 10
-85.000000
 20
38.900005
 11
-95.000000
 21
38.900005
  0
LINE
  8
0
 10
-87.000000
 20
38.900005
 11
-87.000000
 21
35.000008
  0
LINE
  8
0
 62
     2
 10
-87.540001
 20
35.900005
 11
-87.540001
 21
35.000008
  0
LINE
  8
0
 62
     2
 10
-87.540001
 20
35.900005
 11
-87.000000
 21
38.900005
  0
LINE
  8
0
 10
-87.000000
 20
35.900005
 11
-93.000000
 21
35.900005
  0
LINE
  8
0
 62
     2
 10
-92.450005
 20
35.900005
 11
-93.000000
 21
38.900005
  0
LINE
  8
0
 10
-93.000000
 20
38.900005
 11
-93.000000
 21
35.000008
  0
LINE
  8
0
 62
     2
 10
-92.449997
 20
35.900005
 11
-92.449997
 21
35.000008
  0
LINE
  8
0
 10
-87.000000
 20
9.900006
 11
-93.000000
 21
9.900006
  0
LINE
  8
0
 10
-88.000000
 20
8.900009
 11
-87.000000
 21
9.900007
  0
LINE
  8
0
 10
-92.000000
 20
8.900003
 11
-93.000000
 21
9.900004
  0
LINE
  8
0
 10
-93.000000
 20
11.100006
 11
-93.000000
 21
9.900006
  0
LINE
  8
0
 62
     2
 10
-92.449997
 20
11.100006
 11
-92.449997
 21
9.350006
  0
LINE
  8
0
 62
     2
 10
-87.540001
 20
11.100006
 11
-87.540001
 21
9.350006
  0
LINE
  8
0
 10
-87.000000
 20
11.100006
 11
-87.000000
 21
9.900006
  0
LINE
  8
0
 10
-65.000000
 20
42.200005
 11
-65.000000
 21
36.600006
  0
LINE
  8
0
 10
-85.000000
 20
44.500008
 11
-85.000000
 21
38.900005
  0
LINE
  8
0
  6
CENTER
 62
     2
 10
-90.000000
 20
58.410007
 11
-90.000000
 21
-38.319992
  0
LINE
  8
0
  6
CENTER
 62
     2
 10
52.000000
 20
50.000008
 11
52.000000
 21
-32.959995
  0
LINE
  8
0
  6
CENTER
 62
     2
 10
-110.000000
 20
57.470005
 11
-110.000000
 21
-37.719994
  0
LINE
  8
0
  6
CENTER
 62
     2
 10
-70.000000
 20
57.470005
 11
-70.000000
 21
-38.109993
  0
LINE
  8
0
 10
-103.750000
 20
36.600006
 11
-103.750000
 21
35.000008
  0
LINE
  8
0
 10
-116.250000
 20
36.600006
 11
-116.250000
 21
35.000008
  0
LINE
  8
0
 10
-63.750000
 20
36.600006
 11
-63.750000
 21
35.000008
  0
LINE
  8
0
 10
-76.250000
 20
36.600006
 11
-76.250000
 21
35.000008
  0
LINE
  8
0
 10
-103.750000
 20
-14.999994
 11
-103.750000
 21
-16.599995
  0
LINE
  8
0
 10
-116.250000
 20
-14.999994
 11
-116.250000
 21
-16.599995
  0
LINE
  8
0
 10
-63.750000
 20
-14.999994
 11
-63.750000
 21
-16.599995
  0
LINE
  8
0
 10
-76.250000
 20
-14.999994
 11
-76.250000
 21
-16.599995
  0
LINE
  8
0
 10
45.750000
 20
36.600006
 11
45.750000
 21
35.000008
  0
LINE
  8
0
 10
58.250000
 20
36.600006
 11
58.250000
 21
35.000008
  0
LINE
  8
0
 10
45.750000
 20
-14.999994
 11
45.750000
 21
-16.599995
  0
LINE
  8
0
 10
58.250000
 20
-14.999994
 11
58.250000
 21
-16.599995
  0
LINE
  8
0
 10
57.000000
 20
44.500011
 11
56.300003
 21
44.900009
  0
LINE
  8
0
 10
56.299999
 20
44.900005
 11
47.689999
 21
44.900005
  0
LINE
  8
0
 10
57.000000
 20
44.500008
 11
47.000000
 21
44.500008
  0
LINE
  8
0
 10
47.000000
 20
44.500004
 11
47.689999
 21
44.900005
  0
LINE
  8
0
 10
-194.250000
 20
132.600006
 11
194.800003
 21
132.600006
  0
LINE
  8
0
 10
194.800003
 20
132.600006
 11
194.800003
 21
-133.500000
  0
LINE
  8
0
 10
-194.250000
 20
132.600006
 11
-194.250000
 21
-133.500000
  0
LINE
  8
0
 10
-194.250000
 20
-133.500000
 11
194.800003
 21
-133.500000
  0
ARC
  8
0
 10
84.998795
 20
10.000031
 40
27.001209
 50
182.334763
 51
177.665237
  0
ARC
  8
0
 10
-65.000000
 20
50.000008
 40
10.000000
 50
0.000000
 51
90.000000
  0
ARC
  8
0
 10
-115.000000
 20
50.000008
 40
10.000000
 50
90.000000
 51
180.000000
  0
ARC
  8
0
 10
-115.000000
 20
-29.999994
 40
10.000000
 50
180.000000
 51
270.000000
  0
ARC
  8
0
 10
-65.000000
 20
-29.999994
 40
9.999998
 50
270.000000
 51
0.000000
  0
ARC
  8
0
 10
-58.000000
 20
32.000008
 40
3.000000
 50
0.000000
 51
90.000000
  0
ARC
  8
0
 10
-122.000000
 20
32.000008
 40
3.000000
 50
90.000000
 51
180.000000
  0
ARC
  8
0
 10
-122.000000
 20
-11.999994
 40
3.000000
 50
180.000000
 51
270.000000
  0
ARC
  8
0
 10
-58.000000
 20
-11.999994
 40
3.000000
 50
270.000000
 51
0.000000
  0
ARC
  8
0
 10
-110.000000
 20
50.000008
 40
9.999784
 50
210.000717
 51
239.999268
  0
ARC
  8
0
 10
-70.000000
 20
50.000008
 40
9.999784
 50
210.000717
 51
239.999268
  0
ARC
  8
0
 10
-70.012711
 20
-29.986034
 40
10.003821
 50
29.895098
 51
54.616280
  0
ARC
  8
0
 10
-110.012711
 20
-29.986034
 40
10.003821
 50
29.895098
 51
54.616280
  0
ARC
  8
0
 10
84.993607
 20
9.999670
 40
34.995815
 50
54.612095
 51
131.401016
  0
ARC
  8
0
 10
47.000000
 20
33.000008
 40
2.000000
 50
90.000000
 51
180.000000
  0
ARC
  8
0
 10
47.000000
 20
-12.999994
 40
2.000000
 50
180.000000
 51
270.000000
  0
ARC
  8
0
 10
112.000000
 20
-37.999992
 40
2.000000
 50
180.000000
 51
270.000000
  0
ARC
  8
0
 10
112.000000
 20
58.000008
 40
2.000000
 50
90.000000
 51
180.000000
  0
ARC
  8
0
 10
58.542770
 20
40.000114
 40
5.000112
 50
269.968262
 51
311.409149
  0
ARC
  8
0
 10
106.995911
 20
40.981766
 40
3.004085
 50
234.700409
 51
359.966400
  0
ARC
  8
0
 10
84.993607
 20
10.000342
 40
34.995811
 50
228.598984
 51
305.387909
  0
ARC
  8
0
 10
58.542770
 20
-20.000103
 40
5.000110
 50
48.590836
 51
90.031738
  0
ARC
  8
0
 10
106.995918
 20
-20.981743
 40
3.004082
 50
0.033359
 51
125.299812
  0
ARC
  8
0
 10
-58.000000
 20
-21.999994
 40
3.000000
 50
270.000000
 51
0.000000
  0
ARC
  8
0
 10
-122.000000
 20
-21.999994
 40
3.000000
 50
180.000000
 51
270.000000
  0
ARC
  8
0
 10
-122.000000
 20
42.000008
 40
3.000000
 50
90.000000
 51
180.000000
  0
ARC
  8
0
 10
-58.000000
 20
42.000008
 40
3.000000
 50
0.000000
 51
90.000000
  0
ARC
  8
0
 10
85.000000
 20
10.000006
 40
28.001614
 50
182.251358
 51
177.748642
  0
CIRCLE
  8
0
 10
-110.000000
 20
50.000008
 40
4.500000
  0
CIRCLE
  8
0
 10
-70.000000
 20
50.000008
 40
4.500000
  0
ARC
  8
0
 10
-70.000000
 20
-29.999994
 40
4.504398
 50
131.760300
 51
48.239704
  0
ARC
  8
0
 10
-110.000000
 20
-29.999994
 40
4.504398
 50
131.760300
 51
48.239704
  0
CIRCLE
  8
0
 10
-90.000000
 20
-32.999992
 40
2.500000
  0
CIRCLE
  8
0
 10
-90.000000
 20
53.000008
 40
2.500000
  0
ARC
  8
0
 10
-65.670273
 20
-20.655846
 40
2.559229
 50
64.289192
 51
124.233253
  0
ARC
  8
0
 10
-69.995003
 20
-27.653421
 40
9.559175
 50
72.433983
 51
107.566017
  0
ARC
  8
0
 10
-74.319786
 20
-20.656605
 40
2.559890
 50
55.775173
 51
115.702354
  0
ARC
  8
0
 10
-74.319046
 20
-20.743334
 40
2.551248
 50
244.185730
 51
304.336761
  0
ARC
  8
0
 10
-69.995003
 20
-13.746576
 40
9.549631
 50
252.415848
 51
287.584137
  0
ARC
  8
0
 10
-65.671013
 20
-20.744095
 40
2.550586
 50
235.654694
 51
295.822937
  0
ARC
  8
0
 10
-105.670273
 20
-20.655846
 40
2.559229
 50
64.289192
 51
124.233253
  0
ARC
  8
0
 10
-109.995003
 20
-27.653421
 40
9.559175
 50
72.433983
 51
107.566017
  0
ARC
  8
0
 10
-114.319786
 20
-20.656605
 40
2.559890
 50
55.775173
 51
115.702354
  0
ARC
  8
0
 10
-114.319046
 20
-20.743334
 40
2.551248
 50
244.185730
 51
304.336761
  0
ARC
  8
0
 10
-109.995003
 20
-13.746576
 40
9.549631
 50
252.415848
 51
287.584137
  0
ARC
  8
0
 10
-105.671013
 20
-20.744095
 40
2.550586
 50
235.654694
 51
295.822937
  0
ARC
  8
0
 10
54.500000
 20
-25.320887
 40
7.227068
 50
69.761925
 51
110.238075
  0
ARC
  8
0
 10
49.500000
 20
-25.320887
 40
7.227068
 50
69.761925
 51
110.238075
  0
ARC
  8
0
 10
49.500000
 20
-16.079111
 40
7.217677
 50
249.734436
 51
290.265564
  0
ARC
  8
0
 10
54.500000
 20
-16.079111
 40
7.217677
 50
249.734436
 51
290.265564
  0
ARC
  8
0
 10
-109.996368
 20
-29.996016
 40
10.000935
 50
125.261482
 51
150.029404
  0
ARC
  8
0
 10
-69.996368
 20
-29.996016
 40
10.000935
 50
125.261482
 51
150.029404
  0
ARC
  8
0
 10
-110.000000
 20
50.000008
 40
9.999780
 50
300.000732
 51
329.999268
  0
ARC
  8
0
 10
-70.000000
 20
50.000008
 40
9.999780
 50
300.000732
 51
329.999268
  0
TEXT
  8
0
 10
-186.892654
 20
104.550003
 40
4.500000
  1
MODEL:PHU-54
 50
0.000000
 41
1.052632
 51
0.000000
  7
STANDARD
  0
ENDSEC
  0
EOF
