  0
SECTION
  2
HEADER
  0
ENDSEC
  0
SECTION
  2
TABLES
  0
TABLE
  2
LTYPE
 70
     4
  0
LTYPE
  2
CONTINUOUS
 70
    64
  3
Solid line
 72
    65
 73
     0
 40
0.000000
  0
LTYPE
  2
DASHED
 70
    64
  3
__ __ __ __ __ __ __ __ __ __ __ __ __ __ __
 72
    65
 73
     2
 40
3.500000
 49
2.000000
 49
-1.500000
  0
LTYPE
  2
CENTER
 70
    64
  3
____ _ ____ _ ____ _ ____ _ ____ _ ____ _ ____
 72
    65
 73
     4
 40
17.500000
 49
13.000000
 49
-1.500000
 49
1.500000
 49
-1.500000
  0
LTYPE
  2
PHANTOM
 70
    64
  3
_____ _ _ _____ _ _ _____ _ _ _____ _ _ ____  
 72
    65
 73
     6
 40
15.500000
 49
8.000000
 49
-1.500000
 49
1.500000
 49
-1.500000
 49
1.500000
 49
-1.500000
  0
LTYPE
  2
DASHED1
 70
    64
  3
__ __ __ __ __ __ __ __ __ __ __ __ __ __ __
 72
    65
 73
     2
 40
1.500000
 49
1.000000
 49
-0.500000
  0
LTYPE
  2
DASHED2
 70
    64
  3
__ __ __ __ __ __ __ __ __ __ __ __ __ __ __
 72
    65
 73
     2
 40
3.500000
 49
2.500000
 49
-1.000000
  0
LTYPE
  2
DASHED3
 70
    64
  3
__ __ __ __ __ __ __ __ __ __ __ __ __ __ __
 72
    65
 73
     2
 40
6.000000
 49
4.000000
 49
-2.000000
  0
LTYPE
  2
DASHED4
 70
    64
  3
__ __ __ __ __ __ __ __ __ __ __ __ __ __ __
 72
    65
 73
     2
 40
12.000000
 49
10.000000
 49
-2.000000
  0
LTYPE
  2
DASHED5
 70
    64
  3
__ __ __ __ __ __ __ __ __ __ __ __ __ __ __
 72
    65
 73
     2
 40
17.000000
 49
15.000000
 49
-2.000000
  0
LTYPE
  2
DASHED6
 70
    64
  3
__ __ __ __ __ __ __ __ __ __ __ __ __ __ __
 72
    65
 73
     2
 40
29.000000
 49
27.000000
 49
-2.000000
  0
LTYPE
  2
PHANTOM1
 70
    64
  3
_____ _ _ _____ _ _ _____ _ _ _____ _ _ ____  
 72
    65
 73
     6
 40
31.000000
 49
25.000000
 49
-1.500000
 49
1.000000
 49
-1.000000
 49
1.000000
 49
-1.500000
  0
LTYPE
  2
PHANTOM2
 70
    64
  3
_____ _ _ _____ _ _ _____ _ _ _____ _ _ ____  
 72
    65
 73
     6
 40
36.000000
 49
27.000000
 49
-1.500000
 49
2.500000
 49
-1.000000
 49
2.500000
 49
-1.500000
  0
LTYPE
  2
PHANTOM3
 70
    64
  3
_____ _ _ _____ _ _ _____ _ _ _____ _ _ ____  
 72
    65
 73
     6
 40
78.000000
 49
64.000000
 49
-2.000000
 49
4.000000
 49
-2.000000
 49
4.000000
 49
-2.000000
  0
LTYPE
  2
CENTER1
 70
    64
  3
____ _ ____ _ ____ _ ____ _ ____ _ ____ _ ____
 72
    65
 73
     4
 40
19.000000
 49
14.000000
 49
-1.000000
 49
3.000000
 49
-1.000000
  0
LTYPE
  2
CENTER2
 70
    64
  3
____ _ ____ _ ____ _ ____ _ ____ _ ____ _ ____
 72
    65
 73
     4
 40
28.500000
 49
25.000000
 49
-1.000000
 49
1.500000
 49
-1.000000
  0
LTYPE
  2
CENTER3
 70
    64
  3
____ _ ____ _ ____ _ ____ _ ____ _ ____ _ ____
 72
    65
 73
     4
 40
31.500000
 49
27.000000
 49
-1.000000
 49
2.500000
 49
-1.000000
  0
LTYPE
  2
CENTER4
 70
    64
  3
____ _ ____ _ ____ _ ____ _ ____ _ ____ _ ____
 72
    65
 73
     4
 40
50.000000
 49
45.000000
 49
-1.000000
 49
3.000000
 49
-1.000000
  0
LTYPE
  2
CENTER5
 70
    64
  3
____ _ ____ _ ____ _ ____ _ ____ _ ____ _ ____
 72
    65
 73
     4
 40
100.000000
 49
92.000000
 49
-2.000000
 49
4.000000
 49
-2.000000
  0
LTYPE
  2
SBK1
 70
    64
  3
______ _ _ _ ______ _ _ _ ______ _ _ _ _____  
 72
    65
 73
     8
 40
60.500000
 49
45.000000
 49
-2.000000
 49
2.500000
 49
-2.000000
 49
2.500000
 49
-2.000000
 49
2.500000
 49
-2.000000
  0
LTYPE
  2
SBK2
 70
    64
  3
______ _ _ _ ______ _ _ _ ______ _ _ _ _____  
 72
    65
 73
     8
 40
84.000000
 49
64.000000
 49
-2.000000
 49
4.000000
 49
-2.000000
 49
4.000000
 49
-2.000000
 49
4.000000
 49
-2.000000
  0
LTYPE
  2
STCH
 70
    64
  3
__ __ __ __ __ __ __ __ __ __ __ __ __ __ __
 72
    65
 73
     2
 40
3.000000
 49
1.000000
 49
-2.000000
  0
LTYPE
  2
MTCH
 70
    64
  3
_____ _ _ _____ _ _ _____ _ _ _____ _ _ ____  
 72
    65
 73
     6
 40
80.000000
 49
66.000000
 49
-2.000000
 49
4.000000
 49
-2.000000
 49
4.000000
 49
-2.000000
  0
ENDTAB
  0
TABLE
  2
LAYER
 70
     1
  0
LAYER
  2
0
 70
     0
 62
     7
  6
CONTINUOUS
  0
ENDTAB
  0
TABLE
  2
STYLE
 70
     1
  0
STYLE
  2
STANDARD
 70
     0
 40
0.000000
 41
1.000000
 50
0.000000
 71
     0
 42
0.200000
  3
txt
  4
BIGFONT
  0
ENDTAB
  0
TABLE
  2
VIEW
 70
     0
  0
ENDTAB
  0
ENDSEC
  0
SECTION
  2
BLOCKS
  0
ENDSEC
  0
SECTION
  2
ENTITIES
  0
LINE
  8
0
  6
CENTER
 62
     2
 10
175.700012
 20
66.399994
 11
65.699997
 21
66.399994
  0
LINE
  8
0
  6
CENTER
 62
     2
 10
65.699997
 20
44.899994
 11
65.699997
 21
27.899994
  0
LINE
  8
0
  6
CENTER
 62
     2
 10
74.199997
 20
36.399994
 11
57.199997
 21
36.399994
  0
LINE
  8
0
  6
CENTER
 62
     2
 10
175.700012
 20
-60.100006
 11
175.700012
 21
-77.100006
  0
LINE
  8
0
  6
CENTER
 62
     2
 10
184.200012
 20
-68.600006
 11
167.200012
 21
-68.600006
  0
LINE
  8
0
  6
CENTER
 62
     2
 10
175.700012
 20
-12.600006
 11
175.700012
 21
-24.600006
  0
LINE
  8
0
  6
CENTER
 62
     2
 10
181.700012
 20
-18.600006
 11
169.700012
 21
-18.600006
  0
LINE
  8
0
  6
CENTER
 62
     2
 10
175.700012
 20
44.899994
 11
175.700012
 21
27.899994
  0
LINE
  8
0
  6
CENTER
 62
     2
 10
184.200012
 20
36.399994
 11
167.200012
 21
36.399994
  0
LINE
  8
0
  6
CENTER
 62
     2
 10
65.699997
 20
-12.600006
 11
65.699997
 21
-24.600006
  0
LINE
  8
0
  6
CENTER
 62
     2
 10
71.699997
 20
-18.600006
 11
59.699997
 21
-18.600006
  0
LINE
  8
0
  6
CENTER
 62
     2
 10
65.699997
 20
-60.100006
 11
65.699997
 21
-77.100006
  0
LINE
  8
0
  6
CENTER
 62
     2
 10
74.199997
 20
-68.600006
 11
57.199997
 21
-68.600006
  0
LINE
  8
0
  6
CENTER
 62
     2
 10
-164.490005
 20
66.400002
 11
-44.020000
 21
66.400002
  0
LINE
  8
0
 10
-159.300003
 20
118.400002
 11
-159.300003
 21
-82.599998
  0
LINE
  8
0
 10
60.700001
 20
-83.599998
 11
180.699997
 21
-83.599998
  0
LINE
  8
0
 10
110.699997
 20
16.610001
 11
110.699997
 21
-80.599998
  0
LINE
  8
0
 10
130.699997
 20
16.610001
 11
130.699997
 21
-80.599998
  0
LINE
  8
0
 10
190.699997
 20
40.619999
 11
190.699997
 21
-73.599998
  0
LINE
  8
0
 10
172.690002
 20
56.790005
 11
185.699997
 21
49.280006
  0
LINE
  8
0
 10
-158.300003
 20
119.400002
 11
-54.299999
 21
119.400002
  0
LINE
  8
0
 10
-155.850006
 20
46.400002
 11
-141.339996
 21
46.400002
  0
LINE
  8
0
 10
-158.300003
 20
97.760002
 11
-52.299999
 21
97.760002
  0
LINE
  8
0
 10
-158.300003
 20
-83.599998
 11
-124.620003
 21
-83.599998
  0
LINE
  8
0
 10
-49.299999
 20
114.400002
 11
-49.299999
 21
23.520000
  0
LINE
  8
0
 10
-139.300003
 20
59.930000
 11
-139.300003
 21
-80.599998
  0
LINE
  8
0
 10
-136.380005
 20
20.469999
 11
-52.299999
 21
20.469999
  0
LINE
  8
0
  6
DASHED
 10
-154.300003
 20
1.400000
 11
-154.300003
 21
-48.599998
  0
LINE
  8
0
 10
-159.300003
 20
-82.599998
 11
-158.300003
 21
-83.599998
  0
LINE
  8
0
 10
-159.300003
 20
118.400002
 11
-158.300003
 21
119.400002
  0
LINE
  8
0
 10
-158.300003
 20
119.400002
 11
-158.300003
 21
-83.599998
  0
LINE
  8
0
  6
CENTER
 62
     2
 10
120.699997
 20
121.860001
 11
120.699997
 21
-86.370003
  0
LINE
  8
0
 10
87.699997
 20
119.400002
 11
119.599998
 21
119.400002
  0
LINE
  8
0
 10
119.599998
 20
119.400002
 11
119.599998
 21
103.379997
  0
LINE
  8
0
 10
121.800003
 20
119.400002
 11
121.800003
 21
103.379997
  0
LINE
  8
0
 10
85.699997
 20
119.900002
 11
85.699997
 21
99.620003
  0
LINE
  8
0
 10
155.699997
 20
119.150002
 11
155.699997
 21
99.620003
  0
LINE
  8
0
  6
CENTER
 62
     2
 10
71.690002
 20
111.400002
 11
171.539993
 21
111.400002
  0
LINE
  8
0
 10
121.800003
 20
119.400002
 11
153.699997
 21
119.400002
  0
LINE
  8
0
 10
55.700001
 20
49.279999
 11
68.699997
 21
56.789997
  0
LINE
  8
0
 10
50.700001
 20
40.619999
 11
50.700001
 21
-73.599998
  0
LINE
  8
0
 10
-116.320007
 20
-79.180008
 11
-51.000000
 21
17.940001
  0
LINE
  8
0
 10
84.099998
 20
102.900002
 11
84.099998
 21
119.900002
  0
LINE
  8
0
 10
85.699997
 20
102.900002
 11
84.099998
 21
102.900002
  0
LINE
  8
0
 10
85.699997
 20
119.900002
 11
84.099998
 21
119.900002
  0
LINE
  8
0
 10
157.300003
 20
119.150002
 11
157.300003
 21
103.650002
  0
LINE
  8
0
 10
155.699997
 20
119.150002
 11
157.300003
 21
119.150002
  0
LINE
  8
0
 10
155.699997
 20
103.650002
 11
157.300003
 21
103.650002
  0
LINE
  8
0
 10
159.300003
 20
119.099998
 11
159.300003
 21
103.699997
  0
LINE
  8
0
 10
157.300003
 20
119.099998
 11
159.300003
 21
119.099998
  0
LINE
  8
0
 10
157.300003
 20
103.699997
 11
159.300003
 21
103.699997
  0
LINE
  8
0
 10
157.300018
 20
111.670006
 11
159.300003
 21
112.400002
  0
LINE
  8
0
 10
157.300003
 20
110.400002
 11
159.299988
 21
111.119995
  0
LINE
  8
0
 10
119.599998
 20
115.400002
 11
121.800003
 21
115.400002
  0
LINE
  8
0
 10
119.599998
 20
107.400002
 11
121.800003
 21
107.400002
  0
LINE
  8
0
 10
76.099998
 20
117.029999
 11
76.099998
 21
105.760002
  0
LINE
  8
0
 10
74.300003
 20
117.900002
 11
84.099998
 21
117.900002
  0
LINE
  8
0
 10
74.300003
 20
104.900002
 11
84.099998
 21
104.900002
  0
LINE
  8
0
 10
169.100006
 20
114.199997
 11
169.100006
 21
108.599998
  0
LINE
  8
0
 10
169.099991
 20
114.199997
 11
167.899994
 21
115.399994
  0
LINE
  8
0
 10
169.100006
 20
108.599998
 11
167.900009
 21
107.400002
  0
LINE
  8
0
 10
119.599998
 20
114.769997
 11
121.800003
 21
114.769997
  0
LINE
  8
0
 10
119.599998
 20
108.019997
 11
121.800003
 21
108.019997
  0
LINE
  8
0
 10
167.899994
 20
115.400002
 11
167.899994
 21
107.400002
  0
LINE
  8
0
 10
76.599998
 20
117.900002
 11
76.599998
 21
104.900002
  0
LINE
  8
0
 10
76.099998
 20
117.029999
 11
76.599998
 21
117.900002
  0
LINE
  8
0
 10
76.099998
 20
105.760002
 11
76.599998
 21
104.900002
  0
LINE
  8
0
 10
159.800003
 20
111.400002
 11
165.289993
 21
111.400002
  0
LINE
  8
0
 10
165.800003
 20
117.900002
 11
165.800003
 21
104.900002
  0
LINE
  8
0
 10
159.300003
 20
117.900002
 11
165.800003
 21
117.900002
  0
LINE
  8
0
 10
159.300003
 20
104.900002
 11
165.800003
 21
104.900002
  0
LINE
  8
0
 10
165.800003
 20
107.400002
 11
167.899994
 21
107.400002
  0
LINE
  8
0
 10
165.800003
 20
108.019997
 11
168.520004
 21
108.019997
  0
LINE
  8
0
 10
165.800003
 20
115.400002
 11
167.899994
 21
115.400002
  0
LINE
  8
0
 10
165.800003
 20
114.769997
 11
168.520004
 21
114.769997
  0
LINE
  8
0
  6
CENTER
 62
     2
 10
-69.300003
 20
121.550003
 11
-69.300003
 21
101.290001
  0
LINE
  8
0
  6
CENTER
 62
     2
 10
-79.470001
 20
111.400002
 11
-59.250000
 21
111.400002
  0
LINE
  8
0
 10
-66.300003
 20
113.199997
 11
-66.300003
 21
109.589996
  0
LINE
  8
0
 10
-72.300003
 20
113.199997
 11
-72.300003
 21
109.589996
  0
LINE
  8
0
 10
-72.299995
 20
113.199997
 11
-69.299995
 21
114.899994
  0
LINE
  8
0
 10
-69.300003
 20
114.899994
 11
-66.300003
 21
113.199997
  0
LINE
  8
0
 10
-66.300003
 20
109.590004
 11
-69.300003
 21
107.900002
  0
LINE
  8
0
 10
-69.300003
 20
107.900002
 11
-72.300003
 21
109.590004
  0
LINE
  8
0
  6
CENTER
 62
     2
 10
-139.300003
 20
121.550003
 11
-139.300003
 21
101.290001
  0
LINE
  8
0
  6
CENTER
 62
     2
 10
-149.470001
 20
111.400002
 11
-129.250000
 21
111.400002
  0
LINE
  8
0
 10
-136.300003
 20
113.199997
 11
-136.300003
 21
109.589996
  0
LINE
  8
0
 10
-142.300003
 20
113.199997
 11
-142.300003
 21
109.589996
  0
LINE
  8
0
 10
-142.300003
 20
113.199997
 11
-139.300003
 21
114.899994
  0
LINE
  8
0
 10
-139.300003
 20
114.900002
 11
-136.300003
 21
113.200005
  0
LINE
  8
0
 10
-136.300003
 20
109.590004
 11
-139.300003
 21
107.900002
  0
LINE
  8
0
 10
-139.299988
 20
107.899994
 11
-142.300003
 21
109.590004
  0
LINE
  8
0
  6
CENTER
 62
     2
 10
-104.300003
 20
121.550003
 11
-104.300003
 21
101.290001
  0
LINE
  8
0
  6
CENTER
 62
     2
 10
-114.470001
 20
111.400002
 11
-94.250000
 21
111.400002
  0
LINE
  8
0
 10
-101.300003
 20
113.199997
 11
-101.300003
 21
109.589996
  0
LINE
  8
0
 10
-107.300003
 20
113.199997
 11
-107.300003
 21
109.589996
  0
LINE
  8
0
 10
-107.300003
 20
113.200005
 11
-104.300003
 21
114.900002
  0
LINE
  8
0
 10
-104.299995
 20
114.900002
 11
-101.300003
 21
113.200005
  0
LINE
  8
0
 10
-101.299995
 20
109.589996
 11
-104.299995
 21
107.899994
  0
LINE
  8
0
 10
-104.299995
 20
107.900002
 11
-107.299995
 21
109.589996
  0
LINE
  8
0
 10
73.800003
 20
117.029999
 11
73.800003
 21
105.760002
  0
LINE
  8
0
 10
74.300003
 20
117.900002
 11
74.300003
 21
104.900002
  0
LINE
  8
0
 10
73.799995
 20
117.029999
 11
74.300003
 21
117.900002
  0
LINE
  8
0
 10
73.800003
 20
105.760002
 11
74.300003
 21
104.900002
  0
LINE
  8
0
 10
282.099854
 20
195.500000
 11
282.099854
 21
-195.000000
  0
LINE
  8
0
 10
-281.250000
 20
195.500000
 11
282.099854
 21
195.500000
  0
LINE
  8
0
 10
-281.250000
 20
195.500000
 11
-281.250000
 21
-195.000000
  0
LINE
  8
0
 10
-281.250000
 20
-195.000000
 11
282.099854
 21
-195.000000
  0
ARC
  8
0
 10
180.700012
 20
-73.600006
 40
9.999992
 50
269.999908
 51
0.000044
  0
ARC
  8
0
 10
60.699997
 20
-73.600006
 40
9.999996
 50
179.999954
 51
270.000031
  0
ARC
  8
0
 10
127.700012
 20
-80.600006
 40
2.999992
 50
269.999847
 51
0.000146
  0
ARC
  8
0
 10
113.700005
 20
-80.599998
 40
3.000000
 50
180.000000
 51
270.000000
  0
CIRCLE
  8
0
 10
65.699997
 20
-18.600006
 40
3.000000
  0
CIRCLE
  8
0
 10
175.700012
 20
-18.600006
 40
3.000000
  0
CIRCLE
  8
0
 10
175.700012
 20
-68.600006
 40
5.500000
  0
CIRCLE
  8
0
 10
65.699997
 20
-68.600006
 40
5.500000
  0
CIRCLE
  8
0
 10
65.699997
 20
36.399994
 40
5.500000
  0
CIRCLE
  8
0
 10
175.700012
 20
36.399994
 40
5.500000
  0
ARC
  8
0
 10
105.704109
 20
16.604900
 40
4.995890
 50
0.058471
 51
73.296799
  0
ARC
  8
0
 10
135.697342
 20
16.606834
 40
4.997346
 50
106.835335
 51
179.963699
  0
ARC
  8
0
 10
180.702927
 20
40.621433
 40
9.997070
 50
359.991791
 51
60.009701
  0
ARC
  8
0
 10
60.697083
 20
40.621429
 40
9.997082
 50
119.990341
 51
180.008194
  0
ARC
  8
0
 10
63.703686
 20
65.449799
 40
9.997761
 50
299.983002
 51
0.975464
  0
ARC
  8
0
 10
177.693878
 20
65.454079
 40
10.005252
 50
179.049820
 51
239.991745
  0
ARC
  8
0
  6
DASHED
 10
-159.300003
 20
1.400003
 40
5.000000
 50
359.999969
 51
90.000000
  0
ARC
  8
0
  6
DASHED
 10
-159.299988
 20
-48.600010
 40
4.999992
 50
269.999817
 51
0.000087
  0
ARC
  8
0
 10
-54.299995
 20
114.400002
 40
4.999996
 50
0.000000
 51
90.000046
  0
ARC
  8
0
 10
-142.299988
 20
-80.600006
 40
2.999992
 50
269.999695
 51
0.000146
  0
ARC
  8
0
 10
-52.303062
 20
23.473063
 40
3.003065
 50
270.058441
 51
359.941559
  0
ARC
  8
0
 10
-52.295612
 20
94.764389
 40
2.995616
 50
359.916107
 51
90.083908
  0
ARC
  8
0
 10
-124.619995
 20
-73.597031
 40
10.002975
 50
269.999969
 51
326.073364
  0
ARC
  8
0
 10
-59.302383
 20
23.518360
 40
10.002384
 50
326.102905
 51
0.009385
  0
ARC
  8
0
 10
120.699997
 20
66.399994
 40
36.996361
 50
91.703804
 51
88.296196
  0
ARC
  8
0
 10
120.700798
 20
66.397392
 40
47.005966
 50
140.289368
 51
253.232376
  0
ARC
  8
0
 10
120.698395
 20
66.394623
 40
47.000664
 50
286.757874
 51
39.720383
  0
ARC
  8
0
 10
153.699997
 20
117.400002
 40
2.000000
 50
0.000000
 51
90.000000
  0
ARC
  8
0
 10
87.700005
 20
117.400002
 40
2.000000
 50
90.000000
 51
180.000000
  0
ARC
  8
0
 10
160.702011
 20
99.620941
 40
5.002014
 50
180.010834
 51
219.637817
  0
ARC
  8
0
 10
80.701859
 20
99.631599
 40
4.998157
 50
320.166718
 51
359.867065
  0
ARC
  8
0
 10
120.699997
 20
66.399994
 40
37.995937
 50
91.658966
 51
88.341034
  0
ARC
  8
0
 10
169.948730
 20
114.650002
 40
10.656414
 50
162.242996
 51
197.757004
  0
ARC
  8
0
 10
155.151276
 20
114.650002
 40
10.646882
 50
342.226562
 51
17.773428
  0
ARC
  8
0
 10
155.151276
 20
108.150002
 40
10.646882
 50
342.226562
 51
17.773428
  0
ARC
  8
0
 10
169.948730
 20
108.150002
 40
10.656414
 50
162.242996
 51
197.757004
  0
CIRCLE
  8
0
 10
-69.299988
 20
111.399994
 40
6.500000
  0
CIRCLE
  8
0
 10
-69.299988
 20
111.399994
 40
7.750000
  0
CIRCLE
  8
0
 10
-139.299988
 20
111.399994
 40
6.500000
  0
CIRCLE
  8
0
 10
-139.299988
 20
111.399994
 40
7.750000
  0
CIRCLE
  8
0
 10
-104.299988
 20
111.399994
 40
6.500000
  0
TEXT
  8
0
 10
-270.049713
 20
155.830002
 40
6.300000
  1
MODEL:PHB-74
 50
0.000000
 41
1.052632
 51
0.000000
  7
STANDARD
  0
ENDSEC
  0
EOF
