  0
SECTION
  2
HEADER
  0
ENDSEC
  0
SECTION
  2
TABLES
  0
TABLE
  2
LTYPE
 70
     4
  0
LTYPE
  2
CONTINUOUS
 70
    64
  3
Solid line
 72
    65
 73
     0
 40
0.000000
  0
LTYPE
  2
DASHED
 70
    64
  3
__ __ __ __ __ __ __ __ __ __ __ __ __ __ __
 72
    65
 73
     2
 40
3.500000
 49
2.000000
 49
-1.500000
  0
LTYPE
  2
CENTER
 70
    64
  3
____ _ ____ _ ____ _ ____ _ ____ _ ____ _ ____
 72
    65
 73
     4
 40
17.500000
 49
13.000000
 49
-1.500000
 49
1.500000
 49
-1.500000
  0
LTYPE
  2
PHANTOM
 70
    64
  3
_____ _ _ _____ _ _ _____ _ _ _____ _ _ ____  
 72
    65
 73
     6
 40
15.500000
 49
8.000000
 49
-1.500000
 49
1.500000
 49
-1.500000
 49
1.500000
 49
-1.500000
  0
LTYPE
  2
DASHED1
 70
    64
  3
__ __ __ __ __ __ __ __ __ __ __ __ __ __ __
 72
    65
 73
     2
 40
1.500000
 49
1.000000
 49
-0.500000
  0
LTYPE
  2
DASHED2
 70
    64
  3
__ __ __ __ __ __ __ __ __ __ __ __ __ __ __
 72
    65
 73
     2
 40
3.500000
 49
2.500000
 49
-1.000000
  0
LTYPE
  2
DASHED3
 70
    64
  3
__ __ __ __ __ __ __ __ __ __ __ __ __ __ __
 72
    65
 73
     2
 40
6.000000
 49
4.000000
 49
-2.000000
  0
LTYPE
  2
DASHED4
 70
    64
  3
__ __ __ __ __ __ __ __ __ __ __ __ __ __ __
 72
    65
 73
     2
 40
12.000000
 49
10.000000
 49
-2.000000
  0
LTYPE
  2
DASHED5
 70
    64
  3
__ __ __ __ __ __ __ __ __ __ __ __ __ __ __
 72
    65
 73
     2
 40
17.000000
 49
15.000000
 49
-2.000000
  0
LTYPE
  2
DASHED6
 70
    64
  3
__ __ __ __ __ __ __ __ __ __ __ __ __ __ __
 72
    65
 73
     2
 40
29.000000
 49
27.000000
 49
-2.000000
  0
LTYPE
  2
PHANTOM1
 70
    64
  3
_____ _ _ _____ _ _ _____ _ _ _____ _ _ ____  
 72
    65
 73
     6
 40
31.000000
 49
25.000000
 49
-1.500000
 49
1.000000
 49
-1.000000
 49
1.000000
 49
-1.500000
  0
LTYPE
  2
PHANTOM2
 70
    64
  3
_____ _ _ _____ _ _ _____ _ _ _____ _ _ ____  
 72
    65
 73
     6
 40
36.000000
 49
27.000000
 49
-1.500000
 49
2.500000
 49
-1.000000
 49
2.500000
 49
-1.500000
  0
LTYPE
  2
PHANTOM3
 70
    64
  3
_____ _ _ _____ _ _ _____ _ _ _____ _ _ ____  
 72
    65
 73
     6
 40
78.000000
 49
64.000000
 49
-2.000000
 49
4.000000
 49
-2.000000
 49
4.000000
 49
-2.000000
  0
LTYPE
  2
CENTER1
 70
    64
  3
____ _ ____ _ ____ _ ____ _ ____ _ ____ _ ____
 72
    65
 73
     4
 40
19.000000
 49
14.000000
 49
-1.000000
 49
3.000000
 49
-1.000000
  0
LTYPE
  2
CENTER2
 70
    64
  3
____ _ ____ _ ____ _ ____ _ ____ _ ____ _ ____
 72
    65
 73
     4
 40
28.500000
 49
25.000000
 49
-1.000000
 49
1.500000
 49
-1.000000
  0
LTYPE
  2
CENTER3
 70
    64
  3
____ _ ____ _ ____ _ ____ _ ____ _ ____ _ ____
 72
    65
 73
     4
 40
31.500000
 49
27.000000
 49
-1.000000
 49
2.500000
 49
-1.000000
  0
LTYPE
  2
CENTER4
 70
    64
  3
____ _ ____ _ ____ _ ____ _ ____ _ ____ _ ____
 72
    65
 73
     4
 40
50.000000
 49
45.000000
 49
-1.000000
 49
3.000000
 49
-1.000000
  0
LTYPE
  2
CENTER5
 70
    64
  3
____ _ ____ _ ____ _ ____ _ ____ _ ____ _ ____
 72
    65
 73
     4
 40
100.000000
 49
92.000000
 49
-2.000000
 49
4.000000
 49
-2.000000
  0
LTYPE
  2
SBK1
 70
    64
  3
______ _ _ _ ______ _ _ _ ______ _ _ _ _____  
 72
    65
 73
     8
 40
60.500000
 49
45.000000
 49
-2.000000
 49
2.500000
 49
-2.000000
 49
2.500000
 49
-2.000000
 49
2.500000
 49
-2.000000
  0
LTYPE
  2
SBK2
 70
    64
  3
______ _ _ _ ______ _ _ _ ______ _ _ _ _____  
 72
    65
 73
     8
 40
84.000000
 49
64.000000
 49
-2.000000
 49
4.000000
 49
-2.000000
 49
4.000000
 49
-2.000000
 49
4.000000
 49
-2.000000
  0
LTYPE
  2
STCH
 70
    64
  3
__ __ __ __ __ __ __ __ __ __ __ __ __ __ __
 72
    65
 73
     2
 40
3.000000
 49
1.000000
 49
-2.000000
  0
LTYPE
  2
MTCH
 70
    64
  3
_____ _ _ _____ _ _ _____ _ _ _____ _ _ ____  
 72
    65
 73
     6
 40
80.000000
 49
66.000000
 49
-2.000000
 49
4.000000
 49
-2.000000
 49
4.000000
 49
-2.000000
  0
ENDTAB
  0
TABLE
  2
LAYER
 70
     1
  0
LAYER
  2
0
 70
     0
 62
     7
  6
CONTINUOUS
  0
ENDTAB
  0
TABLE
  2
STYLE
 70
     1
  0
STYLE
  2
STANDARD
 70
     0
 40
0.000000
 41
1.000000
 50
0.000000
 71
     0
 42
0.200000
  3
txt
  4
BIGFONT
  0
ENDTAB
  0
TABLE
  2
VIEW
 70
     0
  0
ENDTAB
  0
ENDSEC
  0
SECTION
  2
BLOCKS
  0
ENDSEC
  0
SECTION
  2
ENTITIES
  0
LINE
  8
0
  6
CENTER
 62
     2
 10
110.000000
 20
64.996216
 11
30.000000
 21
64.996216
  0
LINE
  8
0
  6
CENTER
 62
     2
 10
110.000000
 20
5.500004
 11
110.000000
 21
-5.499996
  0
LINE
  8
0
  6
CENTER
 62
     2
 10
115.500000
 20
0.000004
 11
104.500000
 21
0.000004
  0
LINE
  8
0
  6
CENTER
 62
     2
 10
30.000000
 20
5.500004
 11
30.000000
 21
-5.499996
  0
LINE
  8
0
  6
CENTER
 62
     2
 10
35.500000
 20
0.000004
 11
24.500000
 21
0.000004
  0
LINE
  8
0
  6
CENTER
 62
     2
 10
30.000000
 20
47.500008
 11
30.000000
 21
32.500008
  0
LINE
  8
0
  6
CENTER
 62
     2
 10
37.500000
 20
40.000008
 11
22.500000
 21
40.000008
  0
LINE
  8
0
  6
CENTER
 62
     2
 10
110.000000
 20
47.500008
 11
110.000000
 21
32.500008
  0
LINE
  8
0
  6
CENTER
 62
     2
 10
117.500000
 20
40.000008
 11
102.500000
 21
40.000008
  0
LINE
  8
0
  6
CENTER
 62
     2
 10
110.000000
 20
-32.499992
 11
110.000000
 21
-47.499992
  0
LINE
  8
0
  6
CENTER
 62
     2
 10
117.500000
 20
-39.999992
 11
102.500000
 21
-39.999992
  0
LINE
  8
0
  6
CENTER
 62
     2
 10
30.000000
 20
-32.499992
 11
30.000000
 21
-47.499992
  0
LINE
  8
0
  6
CENTER
 62
     2
 10
37.500000
 20
-39.999992
 11
22.500000
 21
-39.999992
  0
LINE
  8
0
 10
110.000000
 20
-49.999992
 11
30.000000
 21
-49.999992
  0
LINE
  8
0
 10
76.000000
 20
26.540007
 11
76.000000
 21
-46.999992
  0
LINE
  8
0
 10
64.000000
 20
26.540007
 11
64.000000
 21
-46.999992
  0
LINE
  8
0
 10
20.000000
 20
40.220005
 11
20.000000
 21
-39.999992
  0
LINE
  8
0
 10
120.000000
 20
40.220005
 11
120.000000
 21
-39.999992
  0
LINE
  8
0
 10
24.999998
 20
48.880005
 11
30.220003
 21
51.900009
  0
LINE
  8
0
 10
109.779999
 20
51.900005
 11
115.000000
 21
48.880005
  0
LINE
  8
0
 10
-105.000000
 20
104.000008
 11
-105.000000
 21
-48.999992
  0
LINE
  8
0
 10
-35.000000
 20
100.000008
 11
-35.000000
 21
33.000008
  0
LINE
  8
0
  6
CENTER
 62
     2
 10
-107.120003
 20
65.000008
 11
-32.340000
 21
65.000008
  0
LINE
  8
0
 10
-104.000000
 20
105.000008
 11
-40.000000
 21
105.000008
  0
LINE
  8
0
 10
-104.000000
 20
-49.999992
 11
-81.070000
 21
-49.999992
  0
LINE
  8
0
 10
-90.000000
 20
61.540005
 11
-90.000000
 21
-46.999992
  0
LINE
  8
0
 10
-89.010002
 20
30.000006
 11
-38.000000
 21
30.000006
  0
LINE
  8
0
 10
-105.000000
 20
91.450005
 11
-38.000000
 21
91.450005
  0
LINE
  8
0
 10
-103.440002
 20
61.540005
 11
-91.580002
 21
61.540005
  0
LINE
  8
0
 10
-72.119995
 20
-44.459991
 11
-36.049999
 21
27.890005
  0
LINE
  8
0
 10
-105.000000
 20
-48.999992
 11
-104.000000
 21
-49.999992
  0
LINE
  8
0
 10
-105.000000
 20
104.000008
 11
-104.000000
 21
105.000008
  0
LINE
  8
0
  6
DASHED
 10
-102.000000
 20
27.000006
 11
-102.000000
 21
-26.999994
  0
LINE
  8
0
 10
45.000000
 20
103.000008
 11
45.000000
 21
91.450005
  0
LINE
  8
0
  6
CENTER
 62
     2
 10
109.989998
 20
98.000008
 11
33.090000
 21
98.000008
  0
LINE
  8
0
 10
68.900002
 20
105.000008
 11
47.000000
 21
105.000008
  0
LINE
  8
0
 10
68.900002
 20
105.000008
 11
68.900002
 21
91.970009
  0
LINE
  8
0
  6
CENTER
 62
     2
 10
70.000000
 20
107.980003
 11
70.000000
 21
-52.879993
  0
LINE
  8
0
 10
71.099998
 20
105.000008
 11
71.099998
 21
91.970009
  0
LINE
  8
0
 10
93.000000
 20
105.000008
 11
71.099998
 21
105.000008
  0
LINE
  8
0
 10
95.000000
 20
103.000008
 11
95.000000
 21
91.450005
  0
LINE
  8
0
 10
-104.000000
 20
105.000008
 11
-104.000000
 21
-49.999992
  0
LINE
  8
0
 10
45.000000
 20
103.750008
 11
43.400002
 21
103.750008
  0
LINE
  8
0
 10
45.000000
 20
92.250008
 11
43.400002
 21
92.250008
  0
LINE
  8
0
 10
95.000000
 20
92.250008
 11
96.599998
 21
92.250008
  0
LINE
  8
0
 10
95.000000
 20
103.750008
 11
96.599998
 21
103.750008
  0
LINE
  8
0
 10
96.599998
 20
91.900009
 11
96.599998
 21
104.100006
  0
LINE
  8
0
 10
98.099998
 20
98.750008
 11
96.599998
 21
99.150009
  0
LINE
  8
0
 10
96.599998
 20
97.250008
 11
98.100006
 21
96.840004
  0
LINE
  8
0
 10
96.599998
 20
91.900009
 11
98.099998
 21
91.900009
  0
LINE
  8
0
 10
98.099998
 20
91.900009
 11
98.099998
 21
104.100006
  0
LINE
  8
0
 10
96.599998
 20
104.100006
 11
98.099998
 21
104.100006
  0
LINE
  8
0
 10
34.900002
 20
93.000008
 11
37.799999
 21
93.000008
  0
LINE
  8
0
 10
37.800003
 20
93.000008
 11
37.400005
 21
93.690002
  0
LINE
  8
0
 10
37.400002
 20
93.690002
 11
37.400002
 21
102.300003
  0
LINE
  8
0
 10
37.799999
 20
93.000008
 11
37.799999
 21
103.000008
  0
LINE
  8
0
 10
37.799999
 20
103.000008
 11
37.400002
 21
102.300011
  0
LINE
  8
0
 10
34.900002
 20
103.000008
 11
43.400002
 21
103.000008
  0
LINE
  8
0
 10
43.400002
 20
92.250008
 11
43.400002
 21
103.750008
  0
LINE
  8
0
 10
71.099998
 20
95.000008
 11
68.900002
 21
95.000008
  0
LINE
  8
0
 62
     2
 10
71.099998
 20
95.540009
 11
68.900002
 21
95.540009
  0
LINE
  8
0
 10
71.099998
 20
101.000008
 11
68.900002
 21
101.000008
  0
LINE
  8
0
 62
     2
 10
71.099998
 20
100.450005
 11
68.900002
 21
100.450005
  0
LINE
  8
0
 10
107.400002
 20
95.000008
 11
107.400002
 21
101.000008
  0
LINE
  8
0
 10
108.400002
 20
96.000008
 11
108.400002
 21
100.000008
  0
LINE
  8
0
 10
108.399994
 20
96.000000
 11
107.400002
 21
95.000008
  0
LINE
  8
0
 10
108.399994
 20
100.000000
 11
107.399994
 21
101.000000
  0
LINE
  8
0
 10
98.099998
 20
93.000008
 11
103.300003
 21
93.000008
  0
LINE
  8
0
 10
98.540001
 20
98.000008
 11
102.849998
 21
98.000008
  0
LINE
  8
0
 10
98.099998
 20
103.000008
 11
103.300003
 21
103.000008
  0
LINE
  8
0
 10
103.300003
 20
93.000008
 11
103.300003
 21
103.000008
  0
LINE
  8
0
 10
103.300003
 20
101.000008
 11
107.400002
 21
101.000008
  0
LINE
  8
0
 62
     2
 10
103.300003
 20
100.450005
 11
107.940002
 21
100.450005
  0
LINE
  8
0
 62
     2
 10
103.300003
 20
95.540009
 11
107.940002
 21
95.540009
  0
LINE
  8
0
 10
103.300003
 20
95.000008
 11
107.400002
 21
95.000008
  0
LINE
  8
0
  6
CENTER
 62
     2
 10
-50.000000
 20
105.540009
 11
-50.000000
 21
90.350006
  0
LINE
  8
0
  6
CENTER
 62
     2
 10
-57.740002
 20
98.000008
 11
-42.009998
 21
98.000008
  0
LINE
  8
0
 10
-47.500000
 20
99.560005
 11
-47.500000
 21
96.430008
  0
LINE
  8
0
 10
-52.500000
 20
99.560005
 11
-52.500000
 21
96.430008
  0
LINE
  8
0
 10
-52.500004
 20
99.560013
 11
-50.000004
 21
100.950012
  0
LINE
  8
0
 10
-49.999996
 20
100.950005
 11
-47.500000
 21
99.560005
  0
LINE
  8
0
 10
-47.500000
 20
96.430008
 11
-50.000000
 21
95.050003
  0
LINE
  8
0
 10
-50.000004
 20
95.050003
 11
-52.500004
 21
96.430008
  0
LINE
  8
0
  6
CENTER
 62
     2
 10
-90.000000
 20
105.540009
 11
-90.000000
 21
90.350006
  0
LINE
  8
0
  6
CENTER
 62
     2
 10
-97.739998
 20
98.000008
 11
-82.010002
 21
98.000008
  0
LINE
  8
0
 10
-87.500000
 20
99.560005
 11
-87.500000
 21
96.430008
  0
LINE
  8
0
 10
-92.500000
 20
99.560005
 11
-92.500000
 21
96.430008
  0
LINE
  8
0
 10
-92.500000
 20
99.560013
 11
-90.000008
 21
100.950012
  0
LINE
  8
0
 10
-90.000000
 20
100.950005
 11
-87.500000
 21
99.560005
  0
LINE
  8
0
 10
-87.500000
 20
96.430008
 11
-90.000000
 21
95.050003
  0
LINE
  8
0
 10
-90.000000
 20
95.050003
 11
-92.500000
 21
96.430008
  0
LINE
  8
0
  6
CENTER
 62
     2
 10
-70.000000
 20
105.540009
 11
-70.000000
 21
90.350006
  0
LINE
  8
0
  6
CENTER
 62
     2
 10
-77.739998
 20
98.000008
 11
-62.009998
 21
98.000008
  0
LINE
  8
0
 10
-67.500000
 20
99.560005
 11
-67.500000
 21
96.430008
  0
LINE
  8
0
 10
-72.500000
 20
99.560005
 11
-72.500000
 21
96.430008
  0
LINE
  8
0
 10
-72.500000
 20
99.560005
 11
-70.000000
 21
100.950005
  0
LINE
  8
0
 10
-70.000000
 20
100.950012
 11
-67.500000
 21
99.560005
  0
LINE
  8
0
 10
-67.500000
 20
96.430008
 11
-70.000000
 21
95.050011
  0
LINE
  8
0
 10
-70.000000
 20
95.050003
 11
-72.500000
 21
96.430000
  0
LINE
  8
0
 10
34.900002
 20
93.000000
 11
34.500000
 21
93.690002
  0
LINE
  8
0
 10
34.500000
 20
93.690002
 11
34.500000
 21
102.300003
  0
LINE
  8
0
 10
34.900002
 20
103.000008
 11
34.500000
 21
102.300011
  0
LINE
  8
0
 10
34.900002
 20
93.000008
 11
34.900002
 21
103.000008
  0
LINE
  8
0
 10
37.799999
 20
93.000008
 11
43.400002
 21
93.000008
  0
LINE
  8
0
 10
-194.250000
 20
132.600006
 11
194.800003
 21
132.600006
  0
LINE
  8
0
 10
194.800003
 20
132.600006
 11
194.800003
 21
-133.500000
  0
LINE
  8
0
 10
-194.250000
 20
132.600006
 11
-194.250000
 21
-133.500000
  0
LINE
  8
0
 10
-194.250000
 20
-133.500000
 11
194.800003
 21
-133.500000
  0
ARC
  8
0
 10
70.000000
 20
65.000008
 40
27.991623
 50
92.252159
 51
87.747841
  0
ARC
  8
0
 10
110.000000
 20
-39.999992
 40
10.000000
 50
270.000000
 51
0.000000
  0
ARC
  8
0
 10
30.000000
 20
-39.999992
 40
10.000000
 50
180.000000
 51
270.000000
  0
ARC
  8
0
 10
80.996147
 20
26.537117
 40
4.996152
 50
105.988380
 51
179.966888
  0
ARC
  8
0
 10
59.005230
 20
26.535303
 40
4.994772
 50
0.053933
 51
74.142838
  0
ARC
  8
0
 10
73.000000
 20
-46.999992
 40
3.000000
 50
270.000000
 51
0.000000
  0
ARC
  8
0
 10
67.000000
 20
-46.999992
 40
3.000000
 50
180.000000
 51
270.000000
  0
ARC
  8
0
 10
29.997082
 20
40.221436
 40
9.997082
 50
119.990341
 51
180.008194
  0
ARC
  8
0
 10
25.218733
 20
60.558960
 40
9.999508
 50
300.010010
 51
5.630307
  0
ARC
  8
0
 10
110.002914
 20
40.221436
 40
9.997086
 50
359.991791
 51
60.009636
  0
ARC
  8
0
 10
114.781273
 20
60.558964
 40
9.999513
 50
174.369690
 51
239.989960
  0
ARC
  8
0
 10
-81.071548
 20
-39.998028
 40
10.001965
 50
270.008881
 51
333.505676
  0
ARC
  8
0
 10
-45.000896
 20
32.350880
 40
10.000897
 50
333.509644
 51
359.994995
  0
ARC
  8
0
 10
-38.000000
 20
33.000008
 40
3.000000
 50
270.000000
 51
0.000000
  0
ARC
  8
0
 10
-93.000000
 20
-46.999992
 40
3.000000
 50
270.000000
 51
0.000000
  0
ARC
  8
0
 10
-37.996250
 20
88.453758
 40
2.996253
 50
359.928375
 51
90.071709
  0
ARC
  8
0
 10
-40.000000
 20
100.000008
 40
5.000000
 50
0.000000
 51
90.000000
  0
ARC
  8
0
  6
DASHED
 10
-105.000000
 20
27.000006
 40
3.000000
 50
0.000000
 51
90.000000
  0
ARC
  8
0
  6
DASHED
 10
-105.000000
 20
-26.999994
 40
3.000000
 50
270.000000
 51
0.000000
  0
ARC
  8
0
 10
70.001770
 20
64.993942
 40
35.005123
 50
138.585251
 51
254.028854
  0
ARC
  8
0
 10
39.999893
 20
91.457245
 40
5.000111
 50
318.590790
 51
359.917023
  0
ARC
  8
0
 10
47.000000
 20
103.000008
 40
2.000000
 50
90.000000
 51
180.000000
  0
ARC
  8
0
 10
93.000008
 20
103.000015
 40
1.999992
 50
359.999786
 51
90.000221
  0
ARC
  8
0
 10
100.000107
 20
91.457245
 40
5.000112
 50
180.082962
 51
221.409210
  0
ARC
  8
0
 10
69.998680
 20
64.995506
 40
35.003750
 50
285.953979
 51
41.413322
  0
ARC
  8
0
 10
69.999924
 20
64.996216
 40
26.996212
 50
270.000153
 51
87.664597
  0
ARC
  8
0
 10
70.000076
 20
64.996216
 40
26.996208
 50
92.335403
 51
269.999847
  0
CIRCLE
  8
0
 10
30.000000
 20
40.000008
 40
4.500000
  0
CIRCLE
  8
0
 10
30.000000
 20
-39.999992
 40
4.500000
  0
CIRCLE
  8
0
 10
110.000000
 20
40.000008
 40
4.500000
  0
CIRCLE
  8
0
 10
110.000000
 20
-39.999992
 40
4.500000
  0
CIRCLE
  8
0
 10
30.000000
 20
0.000004
 40
2.500000
  0
CIRCLE
  8
0
 10
110.000000
 20
0.000004
 40
2.500000
  0
ARC
  8
0
 10
105.320892
 20
95.500008
 40
7.227067
 50
159.761917
 51
200.238083
  0
ARC
  8
0
 10
105.320892
 20
100.500008
 40
7.227067
 50
159.761917
 51
200.238083
  0
ARC
  8
0
 10
96.079117
 20
100.500008
 40
7.217675
 50
339.734436
 51
20.265564
  0
ARC
  8
0
 10
96.079117
 20
95.500008
 40
7.217675
 50
339.734436
 51
20.265564
  0
CIRCLE
  8
0
 10
-50.000000
 20
98.000008
 40
5.000000
  0
CIRCLE
  8
0
 10
-50.000000
 20
98.000008
 40
6.250000
  0
CIRCLE
  8
0
 10
-90.000000
 20
98.000008
 40
5.000000
  0
CIRCLE
  8
0
 10
-90.000000
 20
98.000008
 40
6.250000
  0
CIRCLE
  8
0
 10
-70.000000
 20
98.000008
 40
5.000000
  0
TEXT
  8
0
 10
-186.892654
 20
104.550003
 40
4.500000
  1
MODEL:PHB-54
 50
0.000000
 41
1.052632
 51
0.000000
  7
STANDARD
  0
ENDSEC
  0
EOF
