  0
SECTION
  2
HEADER
  9
$ACADVER
  1
AC1003
  9
$EXTMIN
 10
-1.38399994E+02
 20
-9.48000031E+01
  9
$EXTMAX
 10
1.38350006E+02
 20
9.45000000E+01
  9
$LIMMIN
 10
-1.38400994E+02
 20
-9.48010031E+01
  9
$LIMMAX
 10
1.38351006E+02
 20
9.45010000E+01
  9
$SNAPUNIT
 10
1
 20
1
  9
$SNAPBASE
 10
0
 20
0
  9
$GRIDMODE
 70
0
  9
$GRIDUNIT
 10
0
 20
0
  9
$LTSCALE
 40
4.61250000E+00
  9
$TEXTSIZE
 40
3.2
  9
$DIMTAD
 70
0
  9
$LUNITS
 70
2
  9
$LUPREC
 70
4
  9
$FILLETRAD
 40
0
  9
$AUNITS
 70
0
  9
$AUPREC
 70
0
  0
ENDSEC
  0
SECTION
  2
TABLES
  0
TABLE
  2
LTYPE
 70
2
  0
LTYPE
  2
CONTINUOUS
 70
64
  3
Solid-Line
 72
65
 73
0
 40
0
  0
LTYPE
  2
DASHED
 70
64
  3
DASHED
 72
65
 73
2
 40
.75
 49
.5
 49
-.25
  0
LTYPE
  2
HIDDEN
 70
64
  3
HIDDEN
 72
65
 73
2
 40
.375
 49
.25
 49
-.125
  0
LTYPE
  2
CENTER
 70
64
  3
CENTER
 72
65
 73
4
 40
2
 49
1.25
 49
-.25
 49
.25
 49
-.25
  0
LTYPE
  2
PHANTOM
 70
64
  3
PHANTOM
 72
65
 73
6
 40
2.5
 49
1.25
 49
-.25
 49
.25
 49
-.25
 49
.25
 49
-.25
  0
ENDTAB
  0
TABLE
  2
LAYER
 70
1
  0
LAYER
  2
1
 70
0
 62
7
  6
CONTINUOUS
 0
ENDTAB
  0
TABLE
  2
STYLE
 70
2
  0
STYLE
  2
MONOTXT
 70
0
 40
0
 41
1
 50
0
 71
0
 42
.2
  3
monotxt
  0
STYLE
  2
BIGFONT
 70
0
 40
0
 41
1
 50
0
 71
0
 42
.2
  3
txt
  4
bigfont
  0
ENDTAB
  0
ENDSEC
  0
SECTION
  2
ENTITIES
  0
LINE
  8
0
 62
2
 10
-2.36054497E+01
 20
3.26850273E+01
 11
-2.20739321E+01
 21
3.26850274E+01
  0
LINE
  8
0
 62
2
 10
-1.80739321E+01
 20
3.26850276E+01
 11
-1.76054644E+01
 21
3.26850276E+01
  0
ARC
  8
0
 62
4
 10
-1.40886984E+01
 20
4.55462441E+01
 40
7.98523426E+00
 50
1.62104343E+02
 51
1.97895662E+02
  0
ARC
  8
0
 62
4
 10
-2.60589043E+01
 20
4.55462436E+01
 40
7.98497167E+00
 50
3.42103734E+02
 51
1.78962706E+01
  0
ARC
  8
0
 62
4
 10
-4.94342762E+01
 20
3.81850262E+01
 40
3.13603439E+01
 50
3.50996971E+02
 51
9.00303394E+00
  0
ARC
  8
0
 62
4
 10
-2.60589028E+01
 20
3.08238110E+01
 40
7.98497079E+00
 50
3.42103733E+02
 51
1.78962716E+01
  0
ARC
  8
0
 62
4
 10
-1.40886986E+01
 20
3.08238116E+01
 40
7.98523339E+00
 50
1.62104342E+02
 51
1.97895663E+02
  0
ARC
  8
0
 62
4
 10
9.28748200E+00
 20
3.81850288E+01
 40
3.13614143E+01
 50
1.70997281E+02
 51
1.89002724E+02
  0
LINE
  8
0
 62
4
 10
-2.16875880E+01
 20
3.32775500E+01
 11
-1.84602896E+01
 21
3.32775502E+01
  0
LINE
  8
0
 62
4
 10
-2.16875884E+01
 20
4.30925048E+01
 11
-1.84602900E+01
 21
4.30925050E+01
  0
LINE
  8
0
 62
4
 10
-2.16875887E+01
 20
4.79999827E+01
 11
-1.84602902E+01
 21
4.79999828E+01
  0
LINE
  8
0
 62
7
 10
-2.16875878E+01
 20
2.83700724E+01
 11
-1.84602893E+01
 21
2.83700726E+01
  0
TEXT
  8
0
 62
7
 10
-2.94140185E+00
 20
3.09350269E+01
 40
1.50000000E+00
  1
PBTALS16
 50
3.59999997E+02
 41
1.00000000E+00
  7
MONOTXT
  0
LINE
  8
0
  6
PHANTOM
 10
2.14286862E+01
 20
4.40600303E+01
 11
3.24258880E+01
 21
4.40600308E+01
  0
LINE
  8
0
  6
PHANTOM
 10
3.24258872E+01
 20
6.16947043E+01
 11
3.24258880E+01
 21
4.40600308E+01
  0
LINE
  8
0
  6
PHANTOM
 10
2.14286862E+01
 20
4.40600303E+01
 11
2.14286872E+01
 21
2.26651130E+01
  0
LINE
  8
0
  6
PHANTOM
 10
-4.70894180E+01
 20
6.16947007E+01
 11
-4.70894162E+01
 21
2.26651099E+01
  0
LINE
  8
0
 62
4
 10
6.13945377E+01
 20
2.96850293E+01
 11
6.13945369E+01
 21
4.66850331E+01
  0
LINE
  8
0
 62
4
 10
4.23945377E+01
 20
2.95350303E+01
 11
4.23945369E+01
 21
4.68350303E+01
  0
LINE
  8
0
 62
4
 10
3.33945371E+01
 20
4.24850299E+01
 11
4.23945371E+01
 21
4.24850303E+01
  0
LINE
  8
0
 62
4
 10
3.33945371E+01
 20
4.31100299E+01
 11
4.23945371E+01
 21
4.31100303E+01
  0
LINE
  8
0
 62
4
 10
3.33945371E+01
 20
4.26100299E+01
 11
4.23945371E+01
 21
4.26100303E+01
  0
LINE
  8
0
 62
4
 10
3.33945370E+01
 20
4.55600299E+01
 11
4.23945370E+01
 21
4.55600303E+01
  0
LINE
  8
0
 62
4
 10
3.58945371E+01
 20
4.39850300E+01
 11
3.98945371E+01
 21
4.39850302E+01
  0
LINE
  8
0
 62
4
 10
3.58945371E+01
 20
4.31850300E+01
 11
3.98945371E+01
 21
4.31850302E+01
  0
LINE
  8
0
 62
4
 10
3.33945369E+01
 20
4.68350299E+01
 11
4.23945369E+01
 21
4.68350303E+01
  0
LINE
  8
0
 62
4
 10
3.98945370E+01
 20
4.39850302E+01
 11
3.98945371E+01
 21
4.31100302E+01
  0
LINE
  8
0
 62
4
 10
3.33945375E+01
 20
3.38850299E+01
 11
4.23945375E+01
 21
3.38850303E+01
  0
LINE
  8
0
 62
4
 10
3.33945377E+01
 20
2.95350299E+01
 11
4.23945377E+01
 21
2.95350303E+01
  0
LINE
  8
0
 62
6
 10
5.83315363E+01
 20
3.94850310E+01
 11
5.57315364E+01
 21
3.68850309E+01
  0
LINE
  8
0
 62
4
 10
5.33945374E+01
 20
3.68850308E+01
 11
5.57315364E+01
 21
3.68850309E+01
  0
LINE
  8
0
 62
4
 10
5.03945374E+01
 20
3.61850307E+01
 11
5.33945374E+01
 21
3.68850308E+01
  0
LINE
  8
0
 62
4
 10
5.33945372E+01
 20
3.94850308E+01
 11
5.33945374E+01
 21
3.68850308E+01
  0
LINE
  8
0
 62
4
 10
5.33945372E+01
 20
3.94850308E+01
 11
5.83315363E+01
 21
3.94850310E+01
  0
LINE
  8
0
 62
4
 10
5.03945372E+01
 20
4.01850307E+01
 11
5.33945372E+01
 21
3.94850308E+01
  0
LINE
  8
0
 62
4
 10
5.03945372E+01
 20
4.01850307E+01
 11
5.03945374E+01
 21
3.61850307E+01
  0
LINE
  8
0
 62
4
 10
4.23945372E+01
 20
4.14350303E+01
 11
4.48945372E+01
 21
4.14350304E+01
  0
LINE
  8
0
 62
4
 10
4.48945374E+01
 20
3.49350304E+01
 11
4.48945372E+01
 21
4.14350304E+01
  0
LINE
  8
0
 62
4
 10
4.48945372E+01
 20
4.01850304E+01
 11
5.03945372E+01
 21
4.01850307E+01
  0
LINE
  8
0
 62
4
 10
4.48945374E+01
 20
3.61850304E+01
 11
5.03945374E+01
 21
3.61850307E+01
  0
LINE
  8
0
 62
4
 10
4.23945374E+01
 20
3.49350303E+01
 11
4.48945374E+01
 21
3.49350304E+01
  0
LINE
  8
0
 62
4
 10
3.33945377E+01
 20
2.95350299E+01
 11
3.33945369E+01
 21
4.68350299E+01
  0
LINE
  8
0
 62
4
 10
3.58945371E+01
 20
4.31100300E+01
 11
3.58945370E+01
 21
4.39850300E+01
  0
LINE
  8
0
 62
4
 10
3.89019708E+01
 20
3.71824636E+01
 11
3.68319707E+01
 21
3.92424635E+01
  0
LINE
  8
0
 62
4
 10
3.68319708E+01
 20
3.71224635E+01
 11
3.89519707E+01
 21
3.92424636E+01
  0
CIRCLE
  8
0
 62
4
 10
3.78936621E+01
 20
3.81825716E+01
 40
2.50000000E+00
  0
LINE
  8
0
 62
4
 10
3.08945374E+01
 20
3.49350298E+01
 11
3.33945374E+01
 21
3.49350299E+01
  0
LINE
  8
0
 62
4
 10
2.63945374E+01
 20
3.61850296E+01
 11
3.08945374E+01
 21
3.61850298E+01
  0
LINE
  8
0
 62
4
 10
2.53945373E+01
 20
3.71850296E+01
 11
2.63945374E+01
 21
3.61850296E+01
  0
LINE
  8
0
 62
4
 10
2.53945373E+01
 20
3.91850296E+01
 11
2.53945373E+01
 21
3.71850296E+01
  0
LINE
  8
0
 62
4
 10
3.08945372E+01
 20
4.14350298E+01
 11
3.33945372E+01
 21
4.14350299E+01
  0
LINE
  8
0
 62
4
 10
2.63945372E+01
 20
4.01850296E+01
 11
3.08945372E+01
 21
4.01850298E+01
  0
LINE
  8
0
 62
4
 10
2.63945372E+01
 20
4.01850296E+01
 11
2.63945374E+01
 21
3.61850296E+01
  0
LINE
  8
0
 62
4
 10
3.08945374E+01
 20
3.49350298E+01
 11
3.08945372E+01
 21
4.14350298E+01
  0
LINE
  8
0
 62
4
 10
2.53945373E+01
 20
3.91850296E+01
 11
2.63945372E+01
 21
4.01850296E+01
  0
LINE
  8
0
  6
CENTER
 62
6
 10
3.78945368E+01
 20
4.81850288E+01
 11
3.78945378E+01
 21
2.81850301E+01
  0
LINE
  8
0
 62
7
 10
1.53945358E+01
 20
2.96850272E+01
 11
3.33945377E+01
 21
2.96850280E+01
  0
LINE
  8
0
 62
7
 10
4.23945377E+01
 20
2.96850284E+01
 11
6.13945377E+01
 21
2.96850293E+01
  0
LINE
  8
0
 62
7
 10
4.23945369E+01
 20
4.66850322E+01
 11
6.13945369E+01
 21
4.66850331E+01
  0
LINE
  8
0
 62
7
 10
1.78945350E+01
 20
4.66850311E+01
 11
3.33945369E+01
 21
4.66850318E+01
  0
LINE
  8
0
 62
2
 10
-7.40054660E+01
 20
3.60850228E+01
 11
-7.01385189E+01
 21
3.60850229E+01
  0
LINE
  8
0
 62
4
 10
-6.96385191E+01
 20
4.04565859E+01
 11
-6.66385191E+01
 21
4.04565861E+01
  0
LINE
  8
0
 62
7
 10
-6.35546441E+00
 20
3.39423867E+01
 11
-6.35546422E+00
 21
2.96850262E+01
  0
LINE
  8
0
 62
7
 10
-1.76054646E+01
 20
3.81850276E+01
 11
-1.76054649E+01
 21
4.41850295E+01
  0
LINE
  8
0
 62
7
 10
-7.36054647E+01
 20
4.06850213E+01
 11
-7.36054645E+01
 21
3.56850213E+01
  0
LINE
  8
0
 62
4
 10
-6.96385192E+01
 20
4.26850272E+01
 11
-6.66385268E+01
 21
4.26850273E+01
  0
LINE
  8
0
 62
7
 10
-4.60546422E+00
 20
2.96850263E+01
 11
6.39453578E+00
 21
2.96850268E+01
  0
LINE
  8
0
 62
7
 10
-7.36054645E+01
 20
3.56850232E+01
 11
-7.01385188E+01
 21
3.56850233E+01
  0
LINE
  8
0
 62
7
 10
-2.41054508E+01
 20
3.31850372E+01
 11
-2.31054497E+01
 21
3.21850361E+01
  0
LINE
  8
0
 62
4
 10
-6.61385191E+01
 20
4.15708058E+01
 11
-6.61385188E+01
 21
3.47992413E+01
  0
LINE
  8
0
 62
7
 10
-1.61054642E+01
 20
2.96850258E+01
 11
-4.60546422E+00
 21
2.96850263E+01
  0
LINE
  8
0
 62
7
 10
-1.43554644E+01
 20
3.39423863E+01
 11
-6.35546441E+00
 21
3.39423867E+01
  0
LINE
  8
0
 62
7
 10
-2.31054417E+01
 20
3.81850274E+01
 11
-2.31054420E+01
 21
4.41850274E+01
  0
LINE
  8
0
 62
2
 10
-7.40054662E+01
 20
4.02850274E+01
 11
-7.01385191E+01
 21
4.02850275E+01
  0
LINE
  8
0
 62
7
 10
-5.72355955E+01
 20
4.11872469E+01
 11
-2.41054647E+01
 21
4.11872484E+01
  0
LINE
  8
0
 62
2
 10
-2.36054502E+01
 20
4.36850273E+01
 11
-2.20739326E+01
 21
4.36850274E+01
  0
LINE
  8
0
 62
4
 10
-6.96385188E+01
 20
3.36850253E+01
 11
-6.66385188E+01
 21
3.36850254E+01
  0
LINE
  8
0
 62
4
 10
-2.20739327E+01
 20
4.55462437E+01
 11
-2.20739320E+01
 21
3.08238112E+01
  0
LINE
  8
0
 62
7
 10
-2.31054643E+01
 20
3.21850254E+01
 11
-2.20739320E+01
 21
3.21850255E+01
  0
LINE
  8
0
 62
7
 10
-5.72355973E+01
 20
3.51828039E+01
 11
-5.81054681E+01
 21
3.56850240E+01
  0
LINE
  8
0
 62
7
 10
-1.80739320E+01
 20
3.21850257E+01
 11
-1.61054643E+01
 21
3.21850257E+01
  0
LINE
  8
0
 62
7
 10
-1.80739326E+01
 20
4.41850295E+01
 11
-1.61054649E+01
 21
4.41850296E+01
  0
LINE
  8
0
 62
7
 10
-5.91054685E+01
 20
4.06850257E+01
 11
-5.91054683E+01
 21
3.56850238E+01
  0
LINE
  8
0
 62
4
 10
-1.80739320E+01
 20
3.08238114E+01
 11
-1.80739326E+01
 21
4.51726489E+01
  0
LINE
  8
0
 62
7
 10
-2.31054649E+01
 20
4.41850293E+01
 11
-2.20739326E+01
 21
4.41850293E+01
  0
LINE
  8
0
 62
7
 10
-2.31054417E+01
 20
3.81850274E+01
 11
-2.31054414E+01
 21
3.21850273E+01
  0
LINE
  8
0
 62
7
 10
-6.61385188E+01
 20
3.56850235E+01
 11
-5.81054683E+01
 21
3.56850239E+01
  0
LINE
  8
0
 62
7
 10
-2.41054644E+01
 20
3.31850507E+01
 11
-2.41054648E+01
 21
4.31850206E+01
  0
LINE
  8
0
 62
4
 10
-7.01385191E+01
 20
4.15708056E+01
 11
-7.01385188E+01
 21
3.47992411E+01
  0
LINE
  8
0
 62
7
 10
-7.41054511E+01
 20
4.01850032E+01
 11
-7.36054560E+01
 21
4.06849984E+01
  0
LINE
  8
0
 62
4
 10
6.13945369E+01
 20
4.66850331E+01
 11
6.68945350E+01
 21
4.66850333E+01
  0
LINE
  8
0
 62
2
 10
-1.80739326E+01
 20
4.36850276E+01
 11
-1.76054649E+01
 21
4.36850276E+01
  0
LINE
  8
0
 62
4
 10
6.68945358E+01
 20
2.96850295E+01
 11
6.68945350E+01
 21
4.66850333E+01
  0
LINE
  8
0
 62
7
 10
-2.41054594E+01
 20
4.31850181E+01
 11
-2.31054583E+01
 21
4.41850192E+01
  0
LINE
  8
0
 62
7
 10
-1.76054646E+01
 20
3.81850276E+01
 11
-1.76054643E+01
 21
3.21850257E+01
  0
LINE
  8
0
 62
7
 10
-7.41054647E+01
 20
4.01850251E+01
 11
-7.41054645E+01
 21
3.61850251E+01
  0
LINE
  8
0
 62
2
 10
-6.61385189E+01
 20
3.60850231E+01
 11
-5.91054683E+01
 21
3.60850234E+01
  0
LINE
  8
0
 62
4
 10
-6.96385189E+01
 20
3.59134608E+01
 11
-6.66385189E+01
 21
3.59134609E+01
  0
LINE
  8
0
 62
7
 10
-5.81054683E+01
 20
3.56850258E+01
 11
-5.81054685E+01
 21
4.06850277E+01
  0
LINE
  8
0
 62
7
 10
-7.41054509E+01
 20
3.61850206E+01
 11
-7.36054503E+01
 21
3.56850200E+01
  0
LINE
  8
0
 62
2
 10
-6.61385191E+01
 20
4.02850239E+01
 11
-5.91054685E+01
 21
4.02850242E+01
  0
LINE
  8
0
 62
7
 10
-1.43554644E+01
 20
3.39423863E+01
 11
-1.43554642E+01
 21
2.96850259E+01
  0
LINE
  8
0
 62
7
 10
-5.72355952E+01
 20
3.51828042E+01
 11
-2.41054645E+01
 21
3.51828057E+01
  0
LINE
  8
0
 62
7
 10
-6.35546480E+00
 20
4.24276696E+01
 11
-6.35546499E+00
 21
4.66850300E+01
  0
LINE
  8
0
 62
7
 10
-1.43554648E+01
 20
4.24276692E+01
 11
-1.43554650E+01
 21
4.66850297E+01
  0
LINE
  8
0
 62
4
 10
6.68945321E+01
 20
4.66850166E+01
 11
6.73945317E+01
 21
4.61850151E+01
  0
LINE
  8
0
  6
CENTER
 62
2
 10
-9.10546477E+00
 20
4.18518895E+01
 11
-9.10546444E+00
 21
3.45005950E+01
  0
LINE
  8
0
 62
7
 10
-6.61385191E+01
 20
4.06850273E+01
 11
-5.81054685E+01
 21
4.06850277E+01
  0
LINE
  8
0
  6
CENTER
 62
2
 10
-7.63329557E+01
 20
3.81850250E+01
 11
6.97811595E+01
 21
3.81850316E+01
  0
LINE
  8
0
 62
7
 10
-7.36054647E+01
 20
4.06850270E+01
 11
-7.01385191E+01
 21
4.06850271E+01
  0
LINE
  8
0
 62
7
 10
-5.72355954E+01
 20
3.96861364E+01
 11
-2.41054647E+01
 21
3.96861379E+01
  0
LINE
  8
0
 62
7
 10
-4.60546422E+00
 20
2.96850263E+01
 11
-4.60546499E+00
 21
4.66850301E+01
  0
LINE
  8
0
 62
7
 10
-1.61054650E+01
 20
4.66850296E+01
 11
-4.60546499E+00
 21
4.66850301E+01
  0
LINE
  8
0
 62
7
 10
-4.60546499E+00
 20
4.66850301E+01
 11
3.89453501E+00
 21
4.66850305E+01
  0
LINE
  8
0
 62
7
 10
-1.43554648E+01
 20
4.24276692E+01
 11
-6.35546480E+00
 21
4.24276696E+01
  0
LINE
  8
0
 62
7
 10
-5.72355953E+01
 20
3.66839148E+01
 11
-2.41054645E+01
 21
3.66839163E+01
  0
LINE
  8
0
 62
4
 10
6.73945358E+01
 20
3.01850315E+01
 11
6.73945350E+01
 21
4.61850315E+01
  0
LINE
  8
0
 62
4
 10
6.68945249E+01
 20
2.96850435E+01
 11
6.73945244E+01
 21
3.01850451E+01
  0
LINE
  8
0
 62
4
 10
6.13945377E+01
 20
2.96850293E+01
 11
6.68945358E+01
 21
2.96850295E+01
  0
LINE
  8
0
 62
7
 10
-1.61054642E+01
 20
2.96850258E+01
 11
-1.61054650E+01
 21
4.66850296E+01
  0
LINE
  8
0
 62
7
 10
-5.72355970E+01
 20
4.11872484E+01
 11
-5.81054678E+01
 21
4.06850282E+01
  0
ARC
  8
0
 62
7
 10
-1.00876042E+01
 20
3.81850280E+01
 40
6.01785851E+00
 50
1.35169815E+02
 51
1.80000035E+02
  0
ARC
  8
0
 62
4
 10
-6.76300047E+01
 20
4.15708057E+01
 40
1.49148333E+00
 50
2.59252082E-06
 51
4.83357760E+01
  0
ARC
  8
0
 62
4
 10
-6.47285229E+01
 20
3.81850255E+01
 40
5.40999651E+00
 50
1.79999980E+02
 51
2.04827090E+02
  0
ARC
  8
0
 62
4
 10
-6.76300044E+01
 20
3.47992412E+01
 40
1.49148333E+00
 50
2.59252082E-06
 51
4.83357760E+01
  0
ARC
  8
0
 62
4
 10
-7.15485150E+01
 20
3.81850252E+01
 40
5.40999651E+00
 50
2.59252079E-06
 51
2.48271119E+01
  0
ARC
  8
0
 62
4
 10
-6.76300047E+01
 20
4.15708057E+01
 40
1.49148333E+00
 50
3.11664229E+02
 51
2.59252082E-06
  0
ARC
  8
0
 62
4
 10
-6.86470335E+01
 20
4.15708056E+01
 40
1.49148333E+00
 50
1.31664193E+02
 51
1.79999967E+02
  0
ARC
  8
0
 62
4
 10
-6.76300044E+01
 20
3.47992412E+01
 40
1.49148333E+00
 50
3.11664229E+02
 51
2.59252082E-06
  0
ARC
  8
0
 62
4
 10
-6.86470335E+01
 20
4.15708056E+01
 40
1.49148333E+00
 50
1.79999980E+02
 51
2.28335754E+02
  0
ARC
  8
0
 62
4
 10
-7.15485150E+01
 20
3.81850252E+01
 40
5.40999651E+00
 50
3.35172893E+02
 51
2.59252079E-06
  0
ARC
  8
0
 62
4
 10
-6.86470332E+01
 20
3.47992412E+01
 40
1.49148333E+00
 50
1.79999980E+02
 51
2.28335754E+02
  0
ARC
  8
0
 62
4
 10
-6.86470332E+01
 20
3.47992412E+01
 40
1.49148333E+00
 50
1.31664193E+02
 51
1.79999967E+02
  0
ARC
  8
0
 62
4
 10
-6.47285229E+01
 20
3.81850255E+01
 40
5.40999651E+00
 50
1.55172857E+02
 51
1.79999967E+02
  0
ARC
  8
0
 62
7
 10
-1.06233250E+01
 20
3.81850279E+01
 40
6.01785851E+00
 50
2.59252080E-06
 51
4.48302224E+01
  0
ARC
  8
0
 62
7
 10
-6.47285229E+01
 20
3.81850255E+01
 40
5.40999651E+00
 50
1.55172912E+02
 51
1.80000021E+02
  0
ARC
  8
0
 62
7
 10
-1.00876042E+01
 20
3.81850280E+01
 40
6.01785851E+00
 50
1.79999967E+02
 51
2.24830186E+02
  0
ARC
  8
0
 62
7
 10
-1.06233250E+01
 20
3.81850279E+01
 40
6.01785851E+00
 50
3.15169783E+02
 51
2.59252080E-06
  0
ARC
  8
0
 62
7
 10
-5.73821790E+01
 20
4.04366919E+01
 40
7.64734566E-01
 50
1.98949510E+02
 51
2.81050509E+02
  0
ARC
  8
0
 62
7
 10
-5.63753201E+01
 20
3.81850259E+01
 40
1.73014796E+00
 50
1.19816793E+02
 51
2.40183222E+02
  0
ARC
  8
0
 62
7
 10
-5.73821788E+01
 20
3.59333597E+01
 40
7.64734566E-01
 50
7.89495036E+01
 51
1.61050494E+02
  0
CIRCLE
  8
0
 62
7
 10
-9.10546461E+00
 20
3.81850280E+01
 40
2.00000000E+00
  0
CIRCLE
  8
0
 62
2
 10
-9.10546461E+00
 20
3.81850280E+01
 40
2.50000000E+00
  0
LINE
  8
0
 62
4
 10
6.39453578E+00
 20
2.95310772E+01
 11
1.53945358E+01
 21
2.95310776E+01
  0
LINE
  8
0
 62
4
 10
1.78945350E+01
 20
4.62129446E+01
 11
1.53945350E+01
 21
4.62129445E+01
  0
LINE
  8
0
 62
4
 10
3.89453505E+00
 20
4.62129440E+01
 11
6.39453505E+00
 21
4.62129441E+01
  0
LINE
  8
0
 62
4
 10
3.89453475E+00
 20
5.24810618E+01
 11
3.89453487E+00
 21
4.96810618E+01
  0
LINE
  8
0
 62
4
 10
1.78945347E+01
 20
5.24810624E+01
 11
1.78945349E+01
 21
4.96810624E+01
  0
LINE
  8
0
 62
4
 10
6.39453489E+00
 20
4.93810619E+01
 11
6.39453458E+00
 21
5.61810619E+01
  0
LINE
  8
0
 62
4
 10
1.53945349E+01
 20
4.93810623E+01
 11
1.53945346E+01
 21
5.61810623E+01
  0
LINE
  8
0
 62
4
 10
1.78945348E+01
 20
5.14810624E+01
 11
2.33945348E+01
 21
5.14810627E+01
  0
LINE
  8
0
 62
4
 10
1.78945350E+01
 20
4.74810624E+01
 11
2.33945350E+01
 21
4.74810627E+01
  0
LINE
  8
0
 62
4
 10
6.39453487E+00
 20
4.96810619E+01
 11
1.53945349E+01
 21
4.96810623E+01
  0
LINE
  8
0
 62
4
 10
1.53945349E+01
 20
4.92810623E+01
 11
1.78945349E+01
 21
4.92810624E+01
  0
LINE
  8
0
 62
4
 10
1.53945349E+01
 20
4.96810623E+01
 11
1.78945349E+01
 21
4.96810624E+01
  0
LINE
  8
0
 62
4
 10
3.89453488E+00
 20
4.92810618E+01
 11
6.39453489E+00
 21
4.92810619E+01
  0
LINE
  8
0
 62
4
 10
3.89453486E+00
 20
4.96810618E+01
 11
6.39453487E+00
 21
4.96810619E+01
  0
LINE
  8
0
 62
4
 10
-1.60546516E+00
 20
5.04810615E+01
 11
-6.05465208E-01
 21
5.14810616E+01
  0
LINE
  8
0
 62
4
 10
-1.60546516E+00
 20
5.04810615E+01
 11
-1.60546507E+00
 21
4.84810615E+01
  0
LINE
  8
0
 62
4
 10
-6.05465027E-01
 20
4.74810616E+01
 11
3.89453497E+00
 21
4.74810618E+01
  0
LINE
  8
0
 62
4
 10
-6.05465208E-01
 20
5.14810616E+01
 11
3.89453479E+00
 21
5.14810618E+01
  0
LINE
  8
0
 62
4
 10
-1.60546507E+00
 20
4.84810615E+01
 11
-6.05465027E-01
 21
4.74810616E+01
  0
LINE
  8
0
 62
4
 10
-6.05465208E-01
 20
5.14810616E+01
 11
-6.05465027E-01
 21
4.74810616E+01
  0
LINE
  8
0
 62
4
 10
2.33945348E+01
 20
5.14810627E+01
 11
2.63945348E+01
 21
5.07810628E+01
  0
LINE
  8
0
 62
4
 10
2.33945350E+01
 20
4.74810627E+01
 11
2.63945349E+01
 21
4.81810628E+01
  0
LINE
  8
0
 62
4
 10
2.33945348E+01
 20
5.14810627E+01
 11
2.33945350E+01
 21
4.74810627E+01
  0
LINE
  8
0
 62
4
 10
2.63945349E+01
 20
4.81810628E+01
 11
2.87315340E+01
 21
4.81810629E+01
  0
LINE
  8
0
 62
4
 10
2.63945348E+01
 20
5.07810628E+01
 11
2.63945349E+01
 21
4.81810628E+01
  0
LINE
  8
0
 62
4
 10
1.53945347E+01
 20
5.24810623E+01
 11
1.78945347E+01
 21
5.24810624E+01
  0
LINE
  8
0
 62
4
 10
3.89453474E+00
 20
5.24810618E+01
 11
6.39453475E+00
 21
5.24810619E+01
  0
ARC
  8
0
 62
4
 10
1.23928689E+01
 20
5.76793965E+01
 40
1.00166704E+00
 50
9.52788867E-02
 51
8.99047265E+01
  0
ARC
  8
0
 62
4
 10
9.39532600E+00
 20
5.76802705E+01
 40
1.00079180E+00
 50
9.00000002E+01
 51
1.79954690E+02
  0
LINE
  8
0
 62
6
 10
9.66453453E+00
 20
5.71810620E+01
 11
9.66453458E+00
 21
5.61810620E+01
  0
LINE
  8
0
 62
6
 10
1.21245345E+01
 20
5.71810621E+01
 11
1.21245346E+01
 21
5.61810621E+01
  0
LINE
  8
0
 62
4
 10
9.39453453E+00
 20
5.71810620E+01
 11
9.39453458E+00
 21
5.61810620E+01
  0
LINE
  8
0
 62
4
 10
1.23945345E+01
 20
5.71810622E+01
 11
1.23945346E+01
 21
5.61810622E+01
  0
LINE
  8
0
 62
4
 10
9.39453447E+00
 20
5.86810620E+01
 11
1.23945345E+01
 21
5.86810622E+01
  0
LINE
  8
0
 62
4
 10
8.39453453E+00
 20
5.71810620E+01
 11
1.33945345E+01
 21
5.71810622E+01
  0
LINE
  8
0
 62
4
 10
6.39453458E+00
 20
5.61810619E+01
 11
1.53945346E+01
 21
5.61810623E+01
  0
LINE
  8
0
 62
4
 10
1.33945345E+01
 20
5.76810622E+01
 11
1.33945345E+01
 21
5.71810622E+01
  0
LINE
  8
0
 62
4
 10
8.39453451E+00
 20
5.76810620E+01
 11
8.39453453E+00
 21
5.71810620E+01
  0
LINE
  8
0
 62
4
 10
2.63945348E+01
 20
5.07810628E+01
 11
3.13315339E+01
 21
5.07810630E+01
  0
LINE
  8
0
 62
6
 10
3.13315339E+01
 20
5.07810630E+01
 11
2.87315340E+01
 21
4.81810629E+01
  0
LINE
  8
0
 62
4
 10
6.39453489E+00
 20
4.93810619E+01
 11
6.39453579E+00
 21
2.95310772E+01
  0
LINE
  8
0
 62
4
 10
1.53945349E+01
 20
4.93810623E+01
 11
1.53945358E+01
 21
2.95310776E+01
  0
LINE
  8
0
 62
4
 10
1.78945349E+01
 20
4.92810624E+01
 11
1.78945350E+01
 21
4.62129446E+01
  0
LINE
  8
0
 62
4
 10
3.89453489E+00
 20
4.92810618E+01
 11
3.89453503E+00
 21
4.62129440E+01
  0
LINE
  8
0
  6
CENTER
 62
6
 10
1.08945344E+01
 20
6.08506277E+01
 11
1.08945359E+01
 21
2.74703925E+01
  0
LINE
  8
0
 62
4
 10
-9.21498231E+01
 20
3.96850315E+01
 11
-9.21498231E+01
 21
3.66850315E+01
  0
LINE
  8
0
 62
4
 10
-1.08949823E+02
 20
5.34850315E+01
 11
-1.05949823E+02
 21
5.34850315E+01
  0
LINE
  8
0
 62
4
 10
-1.00575175E+02
 20
4.55667629E+01
 11
-1.00730262E+02
 21
4.50914230E+01
  0
LINE
  8
0
 62
4
 10
-9.41498231E+01
 20
4.02350315E+01
 11
-9.81498231E+01
 21
4.02350315E+01
  0
LINE
  8
0
 62
4
 10
-9.81498231E+01
 20
3.61350315E+01
 11
-9.81498231E+01
 21
4.02350315E+01
  0
LINE
  8
0
 62
4
 10
-9.41498231E+01
 20
3.61350315E+01
 11
-9.51498231E+01
 21
3.71350315E+01
  0
LINE
  8
0
 62
4
 10
-9.41498231E+01
 20
4.02350315E+01
 11
-9.51498231E+01
 21
3.92350315E+01
  0
LINE
  8
0
 62
4
 10
-9.71498231E+01
 20
3.71350315E+01
 11
-9.71498231E+01
 21
3.92350315E+01
  0
LINE
  8
0
 62
4
 10
-9.51498231E+01
 20
3.71350315E+01
 11
-9.71498231E+01
 21
3.71350315E+01
  0
LINE
  8
0
 62
4
 10
-9.51498231E+01
 20
3.71350315E+01
 11
-9.51498231E+01
 21
3.92350315E+01
  0
LINE
  8
0
 62
4
 10
-9.51498231E+01
 20
3.92350315E+01
 11
-9.71498231E+01
 21
3.92350315E+01
  0
LINE
  8
0
 62
4
 10
-9.21498231E+01
 20
3.66850315E+01
 11
-9.24498231E+01
 21
3.69850315E+01
  0
LINE
  8
0
 62
4
 10
-9.21498231E+01
 20
3.96850315E+01
 11
-9.24498231E+01
 21
3.93850315E+01
  0
LINE
  8
0
 62
4
 10
-9.69275423E+01
 20
4.38507272E+01
 11
-9.69740684E+01
 21
4.37081253E+01
  0
LINE
  8
0
 62
4
 10
-8.94498231E+01
 20
3.46850315E+01
 11
-8.94498231E+01
 21
4.16850315E+01
  0
LINE
  8
0
 62
4
 10
-9.07498231E+01
 20
4.16850315E+01
 11
-9.66498231E+01
 21
4.16850315E+01
  0
LINE
  8
0
 62
4
 10
-9.07498231E+01
 20
3.46850315E+01
 11
-9.59498231E+01
 21
3.46850315E+01
  0
LINE
  8
0
 62
4
 10
-9.44520453E+01
 20
4.24850315E+01
 11
-9.41807680E+01
 21
4.29545498E+01
  0
LINE
  8
0
 62
4
 10
-9.11498231E+01
 20
4.31850315E+01
 11
-9.28348231E+01
 21
4.31850315E+01
  0
LINE
  8
0
 62
4
 10
-9.11498231E+01
 20
4.31850315E+01
 11
-9.11498231E+01
 21
4.39850315E+01
  0
LINE
  8
0
 62
4
 10
-9.02498231E+01
 20
4.04700315E+01
 11
-9.10498231E+01
 21
4.03300315E+01
  0
LINE
  8
0
 62
4
 10
-9.02498231E+01
 20
3.59000315E+01
 11
-9.10498231E+01
 21
3.60400315E+01
  0
LINE
  8
0
 62
4
 10
-9.10498231E+01
 20
3.60400315E+01
 11
-9.10498231E+01
 21
4.03300315E+01
  0
LINE
  8
0
 62
6
 10
-8.89498231E+01
 20
3.94150315E+01
 11
-8.94498231E+01
 21
3.94150315E+01
  0
LINE
  8
0
 62
6
 10
-8.89498231E+01
 20
3.69550315E+01
 11
-8.94498231E+01
 21
3.69550315E+01
  0
LINE
  8
0
 62
4
 10
-9.02498231E+01
 20
3.38850315E+01
 11
-9.59498231E+01
 21
3.38850315E+01
  0
LINE
  8
0
 62
4
 10
-9.66498231E+01
 20
4.24850315E+01
 11
-9.02498231E+01
 21
4.24850315E+01
  0
LINE
  8
0
 62
4
 10
-9.02498231E+01
 20
3.51850315E+01
 11
-9.02498231E+01
 21
4.11850315E+01
  0
LINE
  8
0
 62
4
 10
-9.11498231E+01
 20
4.39850315E+01
 11
-9.32948231E+01
 21
4.39850315E+01
  0
LINE
  8
0
 62
4
 10
-9.35258231E+01
 20
4.24850315E+01
 11
-9.34016423E+01
 21
4.26991362E+01
  0
LINE
  8
0
 62
4
 10
-9.07498231E+01
 20
3.48350315E+01
 11
-9.59498231E+01
 21
3.48350315E+01
  0
LINE
  8
0
 62
4
 10
-9.07498231E+01
 20
3.46850315E+01
 11
-9.07498231E+01
 21
3.48350315E+01
  0
LINE
  8
0
 62
4
 10
-9.24498231E+01
 20
3.49350315E+01
 11
-9.24498231E+01
 21
4.14350315E+01
  0
LINE
  8
0
 62
4
 10
-9.31498231E+01
 20
3.49350315E+01
 11
-9.31498231E+01
 21
4.14350315E+01
  0
LINE
  8
0
 62
4
 10
-9.06248231E+01
 20
4.26100315E+01
 11
-9.31248231E+01
 21
4.26100315E+01
  0
LINE
  8
0
 62
4
 10
-9.06248231E+01
 20
4.31100315E+01
 11
-9.30453190E+01
 21
4.31100315E+01
  0
LINE
  8
0
 62
4
 10
-9.06248231E+01
 20
4.26100315E+01
 11
-9.06248231E+01
 21
4.31100315E+01
  0
LINE
  8
0
 62
4
 10
-8.84498231E+01
 20
3.96850315E+01
 11
-8.94498231E+01
 21
3.96850315E+01
  0
LINE
  8
0
 62
4
 10
-8.84498231E+01
 20
3.66850315E+01
 11
-8.94498231E+01
 21
3.66850315E+01
  0
LINE
  8
0
 62
4
 10
-9.59498231E+01
 20
3.38850315E+01
 11
-9.59498231E+01
 21
3.46850315E+01
  0
LINE
  8
0
 62
4
 10
-9.66498231E+01
 20
4.16850315E+01
 11
-9.66498231E+01
 21
4.24850315E+01
  0
LINE
  8
0
 62
4
 10
-8.84498231E+01
 20
3.56850315E+01
 11
-8.84498231E+01
 21
4.06850315E+01
  0
LINE
  8
0
 62
4
 10
-8.69498231E+01
 20
3.66850315E+01
 11
-8.69498231E+01
 21
3.96850315E+01
  0
LINE
  8
0
 62
4
 10
-8.79498231E+01
 20
3.56850315E+01
 11
-8.84498231E+01
 21
3.56850315E+01
  0
LINE
  8
0
 62
4
 10
-8.79498231E+01
 20
4.06850315E+01
 11
-8.84498231E+01
 21
4.06850315E+01
  0
LINE
  8
0
 62
4
 10
-8.89498231E+01
 20
3.66850315E+01
 11
-8.89498231E+01
 21
3.96850315E+01
  0
ARC
  8
0
 62
4
 10
-9.02498263E+01
 20
3.46850347E+01
 40
8.00003254E-01
 50
2.70000000E+02
 51
3.59999767E+02
  0
ARC
  8
0
 62
4
 10
-9.02481605E+01
 20
4.16866941E+01
 40
7.98339134E-01
 50
3.59880678E+02
 51
9.01193227E+01
  0
ARC
  8
0
 62
4
 10
-9.07498273E+01
 20
3.51850357E+01
 40
5.00004290E-01
 50
2.70000000E+02
 51
3.59999509E+02
  0
ARC
  8
0
 62
4
 10
-9.07481605E+01
 20
4.11866941E+01
 40
4.98340176E-01
 50
3.59808845E+02
 51
9.01911544E+01
  0
ARC
  8
0
 62
4
 10
-9.32966888E+01
 20
4.34848278E+01
 40
5.00207143E-01
 50
8.97862932E+01
 51
1.49986761E+02
  0
ARC
  8
0
 62
4
 10
-9.28324674E+01
 20
4.26861797E+01
 40
4.98857363E-01
 50
9.02705623E+01
 51
1.19445368E+02
  0
ARC
  8
0
 62
4
 10
-8.79484107E+01
 20
3.96864438E+01
 40
9.98588677E-01
 50
3.59918966E+02
 51
9.00810348E+01
  0
ARC
  8
0
 62
4
 10
-8.79500758E+01
 20
3.66852842E+01
 40
1.00025280E+00
 50
2.70000000E+02
 51
3.59985521E+02
  0
LINE
  8
0
 62
4
 10
-9.63498231E+01
 20
3.49350315E+01
 11
-9.63498231E+01
 21
3.61350315E+01
  0
LINE
  8
0
 62
4
 10
-9.59498231E+01
 20
3.49350315E+01
 11
-9.59498231E+01
 21
3.61350315E+01
  0
LINE
  8
0
 62
4
 10
-9.24498231E+01
 20
3.49350315E+01
 11
-9.59498231E+01
 21
3.49350315E+01
  0
LINE
  8
0
 62
4
 10
-9.41498231E+01
 20
3.61350315E+01
 11
-9.41498231E+01
 21
4.02350315E+01
  0
LINE
  8
0
 62
4
 10
-9.38498231E+01
 20
3.71850315E+01
 11
-9.38498231E+01
 21
3.91850315E+01
  0
LINE
  8
0
 62
4
 10
-9.38498231E+01
 20
3.71850315E+01
 11
-9.41498231E+01
 21
3.71850315E+01
  0
LINE
  8
0
 62
4
 10
-9.38498231E+01
 20
3.91850315E+01
 11
-9.41498231E+01
 21
3.91850315E+01
  0
LINE
  8
0
 62
4
 10
-9.10498231E+01
 20
3.66850315E+01
 11
-9.21498231E+01
 21
3.66850315E+01
  0
LINE
  8
0
 62
4
 10
-9.10498231E+01
 20
3.96850315E+01
 11
-9.21498231E+01
 21
3.96850315E+01
  0
LINE
  8
0
 62
6
 10
-9.10498231E+01
 20
3.69550315E+01
 11
-9.24198231E+01
 21
3.69550315E+01
  0
LINE
  8
0
 62
6
 10
-9.10498231E+01
 20
3.94150315E+01
 11
-9.24198231E+01
 21
3.94150315E+01
  0
LINE
  8
0
 62
4
 10
-9.39250896E+01
 20
4.33970702E+01
 11
-9.37298231E+01
 21
4.37350315E+01
  0
LINE
  8
0
 62
4
 10
-9.41498231E+01
 20
3.61350315E+01
 11
-9.81498231E+01
 21
3.61350315E+01
  0
LINE
  8
0
 62
4
 10
-9.63498231E+01
 20
3.49350315E+01
 11
-9.89498231E+01
 21
3.49350315E+01
  0
LINE
  8
0
 62
4
 10
-9.24498231E+01
 20
4.14350315E+01
 11
-9.89498231E+01
 21
4.14350315E+01
  0
LINE
  8
0
 62
4
 10
-9.59498231E+01
 20
3.48350315E+01
 11
-9.96151764E+01
 21
3.28062944E+01
  0
LINE
  8
0
 62
4
 10
-9.59498231E+01
 20
3.46850315E+01
 11
-9.98048037E+01
 21
3.25400177E+01
  0
LINE
  8
0
 62
4
 10
-9.31248231E+01
 20
4.26100315E+01
 11
-1.01029615E+02
 21
4.51890917E+01
  0
LINE
  8
0
 62
4
 10
-9.69741132E+01
 20
4.37081399E+01
 11
-1.00777597E+02
 21
4.49490851E+01
  0
LINE
  8
0
 62
4
 10
-9.30453190E+01
 20
4.31100315E+01
 11
-1.00575175E+02
 21
4.55667629E+01
  0
LINE
  8
0
 62
4
 10
-9.81498231E+01
 20
4.02350315E+01
 11
-9.71498231E+01
 21
3.92350315E+01
  0
LINE
  8
0
 62
4
 10
-9.71498231E+01
 20
3.71350315E+01
 11
-9.81498231E+01
 21
3.61350315E+01
  0
CIRCLE
  8
0
 62
4
 10
-1.07449823E+02
 20
3.81850315E+01
 40
8.50000000E+00
  0
CIRCLE
  8
0
 62
2
 10
-1.07449823E+02
 20
3.81850315E+01
 40
5.50000000E+00
  0
ARC
  8
0
 62
7
 10
-1.07449823E+02
 20
3.81850315E+01
 40
9.50000000E+00
 50
2.96525352E+02
 51
3.26525352E+02
  0
ARC
  8
0
 62
7
 10
-1.07449823E+02
 20
3.81850315E+01
 40
9.50000000E+00
 50
2.13474643E+02
 51
2.43474651E+02
  0
ARC
  8
0
 62
7
 10
-1.07449823E+02
 20
3.81850315E+01
 40
9.50000000E+00
 50
1.16525349E+02
 51
1.46525357E+02
  0
ARC
  8
0
 62
7
 10
-1.07449823E+02
 20
3.81850315E+01
 40
9.50000000E+00
 50
3.34746479E+01
 51
6.34746486E+01
  0
CIRCLE
  8
0
 62
7
 10
-1.07449823E+02
 20
3.81850315E+01
 40
6.00000000E+00
  0
CIRCLE
  8
0
 62
4
 10
-1.07449823E+02
 20
3.81850315E+01
 40
4.00000000E+00
  0
CIRCLE
  8
0
 62
2
 10
-1.07449823E+02
 20
3.81850315E+01
 40
2.10000000E+00
  0
CIRCLE
  8
0
 62
7
 10
-1.07449823E+02
 20
3.81850315E+01
 40
2.50000000E+00
  0
LINE
  8
0
 62
7
 10
-1.05172258E+02
 20
4.66850315E+01
 11
-1.03207185E+02
 21
4.66850315E+01
  0
LINE
  8
0
 62
7
 10
-1.05172258E+02
 20
2.96850315E+01
 11
-1.03207185E+02
 21
2.96850315E+01
  0
LINE
  8
0
 62
4
 10
-1.07449822E+02
 20
2.83700765E+01
 11
-9.89498200E+01
 21
3.32775548E+01
  0
LINE
  8
0
 62
4
 10
-1.15949822E+02
 20
4.30925081E+01
 11
-1.07449820E+02
 21
4.79999864E+01
  0
LINE
  8
0
 62
4
 10
-1.15949822E+02
 20
3.32775551E+01
 11
-1.07449820E+02
 21
2.83700768E+01
  0
LINE
  8
0
 62
4
 10
-1.07449822E+02
 20
4.79999867E+01
 11
-9.89498199E+01
 21
4.30925084E+01
  0
LINE
  8
0
 62
4
 10
-9.89498231E+01
 20
4.30925088E+01
 11
-9.89498231E+01
 21
3.32775541E+01
  0
LINE
  8
0
 62
4
 10
-1.15949823E+02
 20
4.30925088E+01
 11
-1.15949823E+02
 21
3.32775541E+01
  0
LINE
  8
0
 62
7
 10
-1.11692461E+02
 20
4.66850315E+01
 11
-1.09727388E+02
 21
4.66850315E+01
  0
LINE
  8
0
 62
7
 10
-1.11692461E+02
 20
2.96850315E+01
 11
-1.09727388E+02
 21
2.96850315E+01
  0
LINE
  8
0
 62
4
 10
-1.07449830E+02
 20
4.28037920E+01
 11
-1.03449840E+02
 21
4.04943973E+01
  0
LINE
  8
0
 62
4
 10
-1.11449808E+02
 20
3.58755803E+01
 11
-1.07449805E+02
 21
3.35661780E+01
  0
LINE
  8
0
 62
4
 10
-1.03449823E+02
 20
4.04944311E+01
 11
-1.03449823E+02
 21
3.58756252E+01
  0
LINE
  8
0
 62
4
 10
-1.11449823E+02
 20
4.04944263E+01
 11
-1.11449823E+02
 21
3.58756280E+01
  0
LINE
  8
0
 62
4
 10
-1.11449821E+02
 20
4.04944152E+01
 11
-1.07449819E+02
 21
4.28038183E+01
  0
LINE
  8
0
 62
4
 10
-1.07449817E+02
 20
3.35662230E+01
 11
-1.03449815E+02
 21
3.58756261E+01
  0
LINE
  8
0
 62
4
 10
-1.12661862E+02
 20
5.17097649E+01
 11
-1.12999823E+02
 21
5.19050315E+01
  0
LINE
  8
0
 62
6
 10
-1.08679823E+02
 20
5.45850315E+01
 11
-1.08679823E+02
 21
5.32150315E+01
  0
LINE
  8
0
 62
6
 10
-1.06219823E+02
 20
5.45850315E+01
 11
-1.06219823E+02
 21
5.32150315E+01
  0
LINE
  8
0
 62
4
 10
-1.08949823E+02
 20
5.45850315E+01
 11
-1.08949823E+02
 21
5.34850315E+01
  0
LINE
  8
0
 62
4
 10
-1.05949823E+02
 20
5.45850315E+01
 11
-1.05949823E+02
 21
5.34850315E+01
  0
LINE
  8
0
 10
-1.08449823E+02
 20
4.74850315E+01
 11
-1.08449823E+02
 21
4.74226344E+01
  0
LINE
  8
0
 62
4
 10
-1.08449823E+02
 20
5.17850315E+01
 11
-1.08449823E+02
 21
5.14850315E+01
  0
LINE
  8
0
 62
4
 10
-1.09499823E+02
 20
5.14850315E+01
 11
-1.09499823E+02
 21
4.74850315E+01
  0
LINE
  8
0
 62
4
 10
-1.05399823E+02
 20
5.14850315E+01
 11
-1.05399823E+02
 21
4.74850315E+01
  0
LINE
  8
0
 10
-1.06449823E+02
 20
4.74850315E+01
 11
-1.06449823E+02
 21
4.74226373E+01
  0
LINE
  8
0
 62
4
 10
-1.06449823E+02
 20
5.17850315E+01
 11
-1.06449823E+02
 21
5.14850315E+01
  0
LINE
  8
0
 62
4
 10
-1.06449823E+02
 20
5.17850315E+01
 11
-1.08449823E+02
 21
5.17850315E+01
  0
LINE
  8
0
 62
4
 10
-1.05399823E+02
 20
5.14850315E+01
 11
-1.09499823E+02
 21
5.14850315E+01
  0
LINE
  8
0
 62
4
 10
-1.05399823E+02
 20
4.74850315E+01
 11
-1.06557893E+02
 21
4.74850315E+01
  0
LINE
  8
0
 62
4
 10
-1.04199823E+02
 20
5.31850315E+01
 11
-1.04199823E+02
 21
4.96850315E+01
  0
LINE
  8
0
 62
4
 10
-1.04199823E+02
 20
4.96850315E+01
 11
-1.05399823E+02
 21
4.96850315E+01
  0
LINE
  8
0
 62
4
 10
-1.04199823E+02
 20
4.92850315E+01
 11
-1.05399823E+02
 21
4.92850315E+01
  0
LINE
  8
0
 62
4
 10
-1.04199823E+02
 20
4.92850315E+01
 11
-1.04199823E+02
 21
4.66850315E+01
  0
LINE
  8
0
 62
4
 10
-1.10699823E+02
 20
5.31850315E+01
 11
-1.10699823E+02
 21
4.66850315E+01
  0
ARC
  8
0
 62
4
 10
-1.05950076E+02
 20
5.76847787E+01
 40
1.00025280E+00
 50
1.44788446E-02
 51
9.00000002E+01
  0
ARC
  8
0
 62
4
 10
-1.08951235E+02
 20
5.76864438E+01
 40
9.98588677E-01
 50
8.99189656E+01
 51
1.80081034E+02
  0
ARC
  8
0
 62
4
 10
-1.11950971E+02
 20
5.28023872E+01
 40
4.98857363E-01
 50
1.80270562E+02
 51
2.09445368E+02
  0
ARC
  8
0
 62
4
 10
-1.12749619E+02
 20
5.23381657E+01
 40
5.00207143E-01
 50
1.79786293E+02
 51
2.39986760E+02
  0
ARC
  8
0
 62
4
 10
-1.10451486E+02
 20
5.48866941E+01
 40
4.98340176E-01
 50
8.98088454E+01
 51
1.80191155E+02
  0
ARC
  8
0
 62
4
 10
-1.04449827E+02
 20
5.48850272E+01
 40
5.00004290E-01
 50
4.91607912E-04
 51
9.00000002E+01
  0
ARC
  8
0
 62
4
 10
-1.10951486E+02
 20
5.53866941E+01
 40
7.98339134E-01
 50
8.98806771E+01
 51
1.80119323E+02
  0
ARC
  8
0
 62
4
 10
-1.03949826E+02
 20
5.53850282E+01
 40
8.00003254E-01
 50
2.33015759E-04
 51
9.00000002E+01
  0
LINE
  8
0
 62
4
 10
-1.05949823E+02
 20
5.66850315E+01
 11
-1.08949823E+02
 21
5.66850315E+01
  0
LINE
  8
0
 62
4
 10
-1.09949823E+02
 20
5.76850315E+01
 11
-1.09949823E+02
 21
5.71850315E+01
  0
LINE
  8
0
 62
4
 10
-1.04949823E+02
 20
5.76850315E+01
 11
-1.04949823E+02
 21
5.71850315E+01
  0
LINE
  8
0
 62
4
 10
-1.05949823E+02
 20
5.86850315E+01
 11
-1.08949823E+02
 21
5.86850315E+01
  0
LINE
  8
0
 62
4
 10
-1.04949823E+02
 20
5.71850315E+01
 11
-1.09949823E+02
 21
5.71850315E+01
  0
LINE
  8
0
 62
4
 10
-1.10949823E+02
 20
4.89850315E+01
 11
-1.11749823E+02
 21
4.89850315E+01
  0
LINE
  8
0
 62
4
 10
-1.03149823E+02
 20
4.96850315E+01
 11
-1.03949823E+02
 21
4.96850315E+01
  0
LINE
  8
0
 62
4
 10
-1.05949823E+02
 20
5.71850315E+01
 11
-1.05949823E+02
 21
5.61850315E+01
  0
LINE
  8
0
 62
4
 10
-1.08949823E+02
 20
5.71850315E+01
 11
-1.08949823E+02
 21
5.61850315E+01
  0
LINE
  8
0
 62
4
 10
-1.11874823E+02
 20
5.50100315E+01
 11
-1.12374823E+02
 21
5.50100315E+01
  0
LINE
  8
0
 62
4
 10
-1.12374823E+02
 20
5.50100315E+01
 11
-1.12374823E+02
 21
5.25895355E+01
  0
LINE
  8
0
 62
4
 10
-1.11874823E+02
 20
5.50100315E+01
 11
-1.11874823E+02
 21
5.25100315E+01
  0
LINE
  8
0
 62
4
 10
-1.04199823E+02
 20
5.24850315E+01
 11
-1.10699823E+02
 21
5.24850315E+01
  0
LINE
  8
0
 62
4
 10
-1.04199823E+02
 20
5.31850315E+01
 11
-1.10699823E+02
 21
5.31850315E+01
  0
LINE
  8
0
 62
4
 10
-1.03949823E+02
 20
5.48850315E+01
 11
-1.04099823E+02
 21
5.48850315E+01
  0
LINE
  8
0
 62
4
 10
-1.04099823E+02
 20
5.48850315E+01
 11
-1.04099823E+02
 21
4.96850315E+01
  0
LINE
  8
0
 62
4
 10
-1.11749823E+02
 20
5.21090315E+01
 11
-1.11963928E+02
 21
5.22332122E+01
  0
LINE
  8
0
 62
4
 10
-1.13249823E+02
 20
5.44850315E+01
 11
-1.13249823E+02
 21
5.23400315E+01
  0
LINE
  8
0
 62
4
 10
-1.04449823E+02
 20
5.53850315E+01
 11
-1.10449823E+02
 21
5.53850315E+01
  0
LINE
  8
0
 62
4
 10
-1.11749823E+02
 20
4.89850315E+01
 11
-1.11749823E+02
 21
5.53850315E+01
  0
LINE
  8
0
 62
4
 10
-1.03149823E+02
 20
5.53850315E+01
 11
-1.03149823E+02
 21
4.96850315E+01
  0
LINE
  8
0
 62
6
 10
-1.06219823E+02
 20
5.66850315E+01
 11
-1.06219823E+02
 21
5.61850315E+01
  0
LINE
  8
0
 62
6
 10
-1.08679823E+02
 20
5.66850315E+01
 11
-1.08679823E+02
 21
5.61850315E+01
  0
LINE
  8
0
 62
4
 10
-1.05304823E+02
 20
5.45850315E+01
 11
-1.09594823E+02
 21
5.45850315E+01
  0
LINE
  8
0
 62
4
 10
-1.05164823E+02
 20
5.53850315E+01
 11
-1.05304823E+02
 21
5.45850315E+01
  0
LINE
  8
0
 62
4
 10
-1.09734823E+02
 20
5.53850315E+01
 11
-1.09594823E+02
 21
5.45850315E+01
  0
LINE
  8
0
 62
4
 10
-1.12449823E+02
 20
5.44850315E+01
 11
-1.13249823E+02
 21
5.44850315E+01
  0
LINE
  8
0
 62
4
 10
-1.12449823E+02
 20
5.44850315E+01
 11
-1.12449823E+02
 21
5.28000315E+01
  0
LINE
  8
0
 62
4
 10
-1.11749823E+02
 20
5.11828092E+01
 11
-1.12219341E+02
 21
5.14540865E+01
  0
LINE
  8
0
 62
4
 10
-1.03949823E+02
 20
5.48850315E+01
 11
-1.03949823E+02
 21
4.96850315E+01
  0
LINE
  8
0
 62
4
 10
-1.10949823E+02
 20
5.48850315E+01
 11
-1.10949823E+02
 21
4.89850315E+01
  0
LINE
  8
0
 62
4
 10
-1.03949823E+02
 20
5.61850315E+01
 11
-1.10949823E+02
 21
5.61850315E+01
  0
LINE
  8
0
 62
4
 10
-1.04099823E+02
 20
4.96850315E+01
 11
-1.02071086E+02
 21
4.60196781E+01
  0
LINE
  8
0
 62
4
 10
-1.03949823E+02
 20
4.96850315E+01
 11
-1.01804809E+02
 21
4.58300508E+01
  0
LINE
  8
0
 62
4
 10
-1.11874823E+02
 20
5.25100315E+01
 11
-1.14453883E+02
 21
4.46052395E+01
  0
LINE
  8
0
 62
4
 10
-1.12972931E+02
 20
4.86607413E+01
 11
-1.14213877E+02
 21
4.48572576E+01
  0
LINE
  8
0
 62
4
 10
-1.12374823E+02
 20
5.25895355E+01
 11
-1.14831555E+02
 21
4.50596799E+01
  0
LINE
  8
0
 62
4
 10
-1.13115519E+02
 20
4.87073122E+01
 11
-1.12972917E+02
 21
4.86607861E+01
  0
LINE
  8
0
 62
4
 10
-1.08949823E+02
 20
5.34850315E+01
 11
-1.08649823E+02
 21
5.31850315E+01
  0
LINE
  8
0
 62
4
 10
-1.05949823E+02
 20
5.34850315E+01
 11
-1.06249823E+02
 21
5.31850315E+01
  0
LINE
  8
0
 62
4
 10
-1.08499823E+02
 20
5.04850315E+01
 11
-1.08499823E+02
 21
4.84850315E+01
  0
LINE
  8
0
 62
4
 10
-1.06399823E+02
 20
5.04850315E+01
 11
-1.08499823E+02
 21
5.04850315E+01
  0
LINE
  8
0
 62
4
 10
-1.06399823E+02
 20
5.04850315E+01
 11
-1.06399823E+02
 21
4.84850315E+01
  0
LINE
  8
0
 62
4
 10
-1.06399823E+02
 20
4.84850315E+01
 11
-1.08499823E+02
 21
4.84850315E+01
  0
LINE
  8
0
 62
4
 10
-1.09499823E+02
 20
5.14850315E+01
 11
-1.08499823E+02
 21
5.04850315E+01
  0
LINE
  8
0
 62
4
 10
-1.05399823E+02
 20
5.14850315E+01
 11
-1.06399823E+02
 21
5.04850315E+01
  0
LINE
  8
0
 62
4
 10
-1.09499823E+02
 20
4.74850315E+01
 11
-1.08499823E+02
 21
4.84850315E+01
  0
LINE
  8
0
 62
4
 10
-1.06399823E+02
 20
4.84850315E+01
 11
-1.05399823E+02
 21
4.74850315E+01
  0
LINE
  8
0
 62
4
 10
-1.14831555E+02
 20
4.50596799E+01
 11
-1.14356215E+02
 21
4.49045929E+01
  0
LINE
  8
0
 62
4
 10
-1.08341748E+02
 20
4.74850315E+01
 11
-1.09499823E+02
 21
4.74850315E+01
  0
LINE
  8
0
  6
CENTER
 62
2
 10
-1.07449823E+02
 20
6.02083466E+01
 11
-1.07449823E+02
 21
2.67301887E+01
  0
LINE
  8
0
  6
CENTER
 62
2
 10
-1.17729490E+02
 20
3.81850315E+01
 11
-8.57225566E+01
 21
3.81850315E+01
  0
CIRCLE
  8
0
 62
4
 10
1.02139624E+02
 20
3.81850315E+01
 40
7.50000000E-01
  0
LINE
  8
0
 62
4
 10
8.68396243E+01
 20
3.96850315E+01
 11
8.68396243E+01
 21
3.66850315E+01
  0
LINE
  8
0
 62
4
 10
1.00639624E+02
 20
5.34850315E+01
 11
1.03639624E+02
 21
5.34850315E+01
  0
LINE
  8
0
 62
4
 10
9.36396258E+01
 20
3.32775551E+01
 11
9.43114165E+01
 21
3.28896966E+01
  0
LINE
  8
0
 62
4
 10
9.36396243E+01
 20
3.65811300E+01
 11
9.36396243E+01
 21
3.32775541E+01
  0
LINE
  8
0
 62
4
 10
9.36396257E+01
 20
4.30925081E+01
 11
9.42153881E+01
 21
4.34249247E+01
  0
LINE
  8
0
 62
4
 10
9.36396243E+01
 20
4.30925088E+01
 11
9.36396243E+01
 21
3.97889330E+01
  0
ARC
  8
0
 62
7
 10
1.02139624E+02
 20
3.81850315E+01
 40
9.50000000E+00
 50
1.26485460E+02
 51
1.32491528E+02
  0
LINE
  8
0
 62
4
 10
9.64293732E+01
 20
4.54207261E+01
 11
9.87896243E+01
 21
4.96850315E+01
  0
LINE
  8
0
 62
4
 10
9.62308023E+01
 20
4.53559393E+01
 11
9.86396243E+01
 21
4.96850315E+01
  0
LINE
  8
0
 62
4
 10
9.52649759E+01
 20
4.55667629E+01
 11
9.54200628E+01
 21
4.50914230E+01
  0
LINE
  8
0
 62
4
 10
8.88396243E+01
 20
4.02350315E+01
 11
9.28396243E+01
 21
4.02350315E+01
  0
LINE
  8
0
 62
4
 10
8.88396243E+01
 20
3.61350315E+01
 11
9.28396243E+01
 21
3.61350315E+01
  0
LINE
  8
0
 62
4
 10
9.28396243E+01
 20
4.02350315E+01
 11
9.18396243E+01
 21
3.92350315E+01
  0
LINE
  8
0
 62
4
 10
9.18396243E+01
 20
3.71350315E+01
 11
9.28396243E+01
 21
3.61350315E+01
  0
LINE
  8
0
 62
4
 10
9.16173436E+01
 20
4.38507272E+01
 11
9.16638697E+01
 21
4.37081253E+01
  0
LINE
  8
0
 62
4
 10
9.06396243E+01
 20
3.49350315E+01
 11
9.06396243E+01
 21
3.61350315E+01
  0
LINE
  8
0
 62
4
 10
9.10396243E+01
 20
3.49350315E+01
 11
9.10396243E+01
 21
3.61350315E+01
  0
LINE
  8
0
 62
4
 10
9.13396243E+01
 20
4.16850315E+01
 11
9.13396243E+01
 21
4.24850315E+01
  0
LINE
  8
0
 62
4
 10
9.06396243E+01
 20
3.38850315E+01
 11
9.06396243E+01
 21
3.46850315E+01
  0
LINE
  8
0
 62
4
 10
8.98396243E+01
 20
3.92350315E+01
 11
9.18396243E+01
 21
3.92350315E+01
  0
LINE
  8
0
 62
4
 10
8.98396243E+01
 20
3.71350315E+01
 11
8.98396243E+01
 21
3.92350315E+01
  0
LINE
  8
0
 62
4
 10
8.98396243E+01
 20
3.71350315E+01
 11
9.18396243E+01
 21
3.71350315E+01
  0
LINE
  8
0
 62
4
 10
9.18396243E+01
 20
3.71350315E+01
 11
9.18396243E+01
 21
3.92350315E+01
  0
LINE
  8
0
 62
4
 10
8.86148908E+01
 20
4.33970702E+01
 11
8.84196243E+01
 21
4.37350315E+01
  0
LINE
  8
0
 62
6
 10
8.57396243E+01
 20
3.94150315E+01
 11
8.71096243E+01
 21
3.94150315E+01
  0
LINE
  8
0
 62
6
 10
8.57396243E+01
 20
3.69550315E+01
 11
8.71096243E+01
 21
3.69550315E+01
  0
LINE
  8
0
 62
4
 10
8.57396243E+01
 20
3.96850315E+01
 11
8.68396243E+01
 21
3.96850315E+01
  0
LINE
  8
0
 62
4
 10
8.57396243E+01
 20
3.66850315E+01
 11
8.68396243E+01
 21
3.66850315E+01
  0
LINE
  8
0
 62
4
 10
8.85396243E+01
 20
3.91850315E+01
 11
8.88396243E+01
 21
3.91850315E+01
  0
LINE
  8
0
 62
4
 10
8.85396243E+01
 20
3.71850315E+01
 11
8.88396243E+01
 21
3.71850315E+01
  0
LINE
  8
0
 62
4
 10
8.85396243E+01
 20
3.71850315E+01
 11
8.85396243E+01
 21
3.91850315E+01
  0
LINE
  8
0
 62
4
 10
8.88396243E+01
 20
3.61350315E+01
 11
8.88396243E+01
 21
4.02350315E+01
  0
ARC
  8
0
 62
4
 10
8.26398770E+01
 20
3.66852842E+01
 40
1.00025280E+00
 50
1.80014479E+02
 51
2.70000000E+02
  0
ARC
  8
0
 62
4
 10
8.26382120E+01
 20
3.96864438E+01
 40
9.98588677E-01
 50
8.99189656E+01
 51
1.80081034E+02
  0
ARC
  8
0
 62
4
 10
8.75222686E+01
 20
4.26861797E+01
 40
4.98857363E-01
 50
6.05546317E+01
 51
8.97294375E+01
  0
ARC
  8
0
 62
4
 10
8.79864900E+01
 20
4.34848278E+01
 40
5.00207143E-01
 50
3.00132395E+01
 51
9.02137066E+01
  0
ARC
  8
0
 62
4
 10
8.54379617E+01
 20
4.11866941E+01
 40
4.98340176E-01
 50
8.98088454E+01
 51
1.80191155E+02
  0
ARC
  8
0
 62
4
 10
8.54396286E+01
 20
3.51850357E+01
 40
5.00004290E-01
 50
1.80000491E+02
 51
2.70000000E+02
  0
ARC
  8
0
 62
4
 10
8.49379617E+01
 20
4.16866941E+01
 40
7.98339134E-01
 50
8.98806771E+01
 51
1.80119323E+02
  0
ARC
  8
0
 62
4
 10
8.49396275E+01
 20
3.46850347E+01
 40
8.00003254E-01
 50
1.80000233E+02
 51
2.70000000E+02
  0
LINE
  8
0
 62
4
 10
8.36396243E+01
 20
3.66850315E+01
 11
8.36396243E+01
 21
3.96850315E+01
  0
LINE
  8
0
 62
4
 10
8.26396243E+01
 20
4.06850315E+01
 11
8.31396243E+01
 21
4.06850315E+01
  0
LINE
  8
0
 62
4
 10
8.26396243E+01
 20
3.56850315E+01
 11
8.31396243E+01
 21
3.56850315E+01
  0
LINE
  8
0
 62
4
 10
8.16396243E+01
 20
3.66850315E+01
 11
8.16396243E+01
 21
3.96850315E+01
  0
LINE
  8
0
 62
4
 10
8.31396243E+01
 20
3.56850315E+01
 11
8.31396243E+01
 21
4.06850315E+01
  0
LINE
  8
0
 62
4
 10
8.31396243E+01
 20
3.66850315E+01
 11
8.41396243E+01
 21
3.66850315E+01
  0
LINE
  8
0
 62
4
 10
8.31396243E+01
 20
3.96850315E+01
 11
8.41396243E+01
 21
3.96850315E+01
  0
LINE
  8
0
 62
4
 10
8.53146243E+01
 20
4.26100315E+01
 11
8.53146243E+01
 21
4.31100315E+01
  0
LINE
  8
0
 62
4
 10
8.53146243E+01
 20
4.31100315E+01
 11
8.77351202E+01
 21
4.31100315E+01
  0
LINE
  8
0
 62
4
 10
8.53146243E+01
 20
4.26100315E+01
 11
8.78146243E+01
 21
4.26100315E+01
  0
LINE
  8
0
 62
4
 10
8.78396243E+01
 20
3.49350315E+01
 11
8.78396243E+01
 21
4.14350315E+01
  0
LINE
  8
0
 62
4
 10
8.71396243E+01
 20
3.49350315E+01
 11
8.71396243E+01
 21
4.14350315E+01
  0
LINE
  8
0
 62
4
 10
8.54396243E+01
 20
3.46850315E+01
 11
8.54396243E+01
 21
3.48350315E+01
  0
LINE
  8
0
 62
4
 10
8.82156243E+01
 20
4.24850315E+01
 11
8.80914435E+01
 21
4.26991362E+01
  0
LINE
  8
0
 62
4
 10
8.58396243E+01
 20
4.39850315E+01
 11
8.79846243E+01
 21
4.39850315E+01
  0
LINE
  8
0
 62
4
 10
8.49396243E+01
 20
3.51850315E+01
 11
8.49396243E+01
 21
4.11850315E+01
  0
LINE
  8
0
 62
6
 10
8.36396243E+01
 20
3.69550315E+01
 11
8.41396243E+01
 21
3.69550315E+01
  0
LINE
  8
0
 62
6
 10
8.36396243E+01
 20
3.94150315E+01
 11
8.41396243E+01
 21
3.94150315E+01
  0
LINE
  8
0
 62
4
 10
8.57396243E+01
 20
3.60400315E+01
 11
8.57396243E+01
 21
4.03300315E+01
  0
LINE
  8
0
 62
4
 10
8.49396243E+01
 20
3.59000315E+01
 11
8.57396243E+01
 21
3.60400315E+01
  0
LINE
  8
0
 62
4
 10
8.49396243E+01
 20
4.04700315E+01
 11
8.57396243E+01
 21
4.03300315E+01
  0
LINE
  8
0
 62
4
 10
8.58396243E+01
 20
4.31850315E+01
 11
8.58396243E+01
 21
4.39850315E+01
  0
LINE
  8
0
 62
4
 10
8.58396243E+01
 20
4.31850315E+01
 11
8.75246243E+01
 21
4.31850315E+01
  0
LINE
  8
0
 62
4
 10
8.91418465E+01
 20
4.24850315E+01
 11
8.88705692E+01
 21
4.29545498E+01
  0
LINE
  8
0
 62
4
 10
8.41396243E+01
 20
3.46850315E+01
 11
8.41396243E+01
 21
4.16850315E+01
  0
LINE
  8
0
 62
4
 10
8.68396243E+01
 20
3.96850315E+01
 11
8.71396243E+01
 21
3.93850315E+01
  0
LINE
  8
0
 62
4
 10
8.68396243E+01
 20
3.66850315E+01
 11
8.71396243E+01
 21
3.69850315E+01
  0
LINE
  8
0
 62
4
 10
8.88396243E+01
 20
3.61350315E+01
 11
8.98396243E+01
 21
3.71350315E+01
  0
LINE
  8
0
 62
4
 10
8.88396243E+01
 20
4.02350315E+01
 11
8.98396243E+01
 21
3.92350315E+01
  0
LINE
  8
0
 62
4
 10
8.54396243E+01
 20
4.16850315E+01
 11
9.13396243E+01
 21
4.16850315E+01
  0
LINE
  8
0
 62
4
 10
8.54396243E+01
 20
3.46850315E+01
 11
9.06396243E+01
 21
3.46850315E+01
  0
LINE
  8
0
 62
4
 10
8.49396243E+01
 20
3.38850315E+01
 11
9.06396243E+01
 21
3.38850315E+01
  0
LINE
  8
0
 62
4
 10
9.13396243E+01
 20
4.24850315E+01
 11
8.49396243E+01
 21
4.24850315E+01
  0
LINE
  8
0
 62
4
 10
8.54396243E+01
 20
3.48350315E+01
 11
9.06396243E+01
 21
3.48350315E+01
  0
LINE
  8
0
 62
4
 10
8.71396243E+01
 20
3.49350315E+01
 11
9.06396243E+01
 21
3.49350315E+01
  0
LINE
  8
0
 62
4
 10
9.28396243E+01
 20
3.61350315E+01
 11
9.28396243E+01
 21
4.02350315E+01
  0
LINE
  8
0
 62
4
 10
9.16639145E+01
 20
4.37081399E+01
 11
9.79783489E+01
 21
4.57683215E+01
  0
LINE
  8
0
 62
4
 10
9.78134712E+01
 20
3.08643777E+01
 11
9.06396243E+01
 21
3.48350315E+01
  0
LINE
  8
0
 62
4
 10
9.10396243E+01
 20
3.49350315E+01
 11
9.36396243E+01
 21
3.49350315E+01
  0
LINE
  8
0
 62
4
 10
8.77351202E+01
 20
4.31100315E+01
 11
9.52649759E+01
 21
4.55667629E+01
  0
LINE
  8
0
 62
4
 10
8.78146243E+01
 20
4.26100315E+01
 11
9.94566196E+01
 21
4.64084119E+01
  0
LINE
  8
0
 62
4
 10
8.71396243E+01
 20
4.14350315E+01
 11
9.36396243E+01
 21
4.14350315E+01
  0
LINE
  8
0
 62
4
 10
9.78871767E+01
 20
3.06523006E+01
 11
9.06396243E+01
 21
3.46850315E+01
  0
LINE
  8
0
 62
4
 10
1.02139623E+02
 20
2.83700765E+01
 11
9.98620541E+01
 21
2.96850315E+01
  0
LINE
  8
0
 62
4
 10
1.10639623E+02
 20
3.32775551E+01
 11
1.10063861E+02
 21
3.29451388E+01
  0
ARC
  8
0
 62
7
 10
1.02139624E+02
 20
3.81850315E+01
 40
9.50000000E+00
 50
2.96525349E+02
 51
3.26525357E+02
  0
LINE
  8
0
 62
7
 10
9.78969866E+01
 20
2.96850315E+01
 11
1.00535723E+02
 21
2.96850315E+01
  0
LINE
  8
0
 62
4
 10
1.04417189E+02
 20
2.96850315E+01
 11
1.02139621E+02
 21
2.83700768E+01
  0
LINE
  8
0
 62
7
 10
1.03743526E+02
 20
2.96850315E+01
 11
1.06382262E+02
 21
2.96850315E+01
  0
LINE
  8
0
 62
4
 10
1.10639624E+02
 20
3.65811300E+01
 11
1.10639624E+02
 21
3.32775541E+01
  0
LINE
  8
0
 62
7
 10
1.10063861E+02
 20
3.29451388E+01
 11
1.10063861E+02
 21
3.47167502E+01
  0
LINE
  8
0
 62
4
 10
1.00089624E+02
 20
4.74850315E+01
 11
1.04189624E+02
 21
4.74850315E+01
  0
LINE
  8
0
 62
4
 10
1.09521356E+02
 20
4.50596799E+01
 11
1.09046016E+02
 21
4.49045929E+01
  0
ARC
  8
0
 62
7
 10
1.02139624E+02
 20
3.81850315E+01
 40
9.50000000E+00
 50
4.45950657E+01
 51
6.34746503E+01
  0
LINE
  8
0
 62
7
 10
9.78969866E+01
 20
4.66850315E+01
 11
1.00535723E+02
 21
4.66850315E+01
  0
LINE
  8
0
 62
4
 10
1.10639623E+02
 20
4.30925081E+01
 11
1.10063860E+02
 21
4.34249247E+01
  0
LINE
  8
0
 62
7
 10
1.10063859E+02
 20
4.34249263E+01
 11
1.10063859E+02
 21
4.16533161E+01
  0
LINE
  8
0
 62
7
 10
1.03743526E+02
 20
4.66850315E+01
 11
1.06382262E+02
 21
4.66850315E+01
  0
ARC
  8
0
 62
7
 10
1.02139624E+02
 20
3.81850315E+01
 40
9.50000000E+00
 50
1.16525351E+02
 51
1.24510551E+02
  0
ARC
  8
0
 62
7
 10
1.02139624E+02
 20
3.81850315E+01
 40
9.50000000E+00
 50
3.34746428E+01
 51
4.24915276E+01
  0
LINE
  8
0
 62
4
 10
1.10639624E+02
 20
4.30925088E+01
 11
1.10639624E+02
 21
3.97889330E+01
  0
LINE
  8
0
 62
4
 10
9.88896243E+01
 20
5.31850315E+01
 11
9.88896243E+01
 21
4.96850315E+01
  0
LINE
  8
0
 62
4
 10
9.87896243E+01
 20
5.48850315E+01
 11
9.87896243E+01
 21
4.96850315E+01
  0
LINE
  8
0
 62
4
 10
1.06439624E+02
 20
4.89850315E+01
 11
1.06439624E+02
 21
5.53850315E+01
  0
LINE
  8
0
 62
4
 10
9.78396243E+01
 20
5.53850315E+01
 11
9.78396243E+01
 21
4.96850315E+01
  0
LINE
  8
0
 62
4
 10
9.86396243E+01
 20
5.48850315E+01
 11
9.86396243E+01
 21
4.96850315E+01
  0
LINE
  8
0
 62
4
 10
1.05639624E+02
 20
5.48850315E+01
 11
1.05639624E+02
 21
4.89850315E+01
  0
LINE
  8
0
 62
4
 10
1.04189624E+02
 20
5.14850315E+01
 11
1.03189624E+02
 21
5.04850315E+01
  0
LINE
  8
0
 62
4
 10
1.00089624E+02
 20
5.14850315E+01
 11
1.01089624E+02
 21
5.04850315E+01
  0
LINE
  8
0
 62
4
 10
1.00639624E+02
 20
5.34850315E+01
 11
1.00939624E+02
 21
5.31850315E+01
  0
LINE
  8
0
 62
4
 10
1.03639624E+02
 20
5.34850315E+01
 11
1.03339624E+02
 21
5.31850315E+01
  0
LINE
  8
0
 62
4
 10
9.86396243E+01
 20
5.61850315E+01
 11
1.05639624E+02
 21
5.61850315E+01
  0
LINE
  8
0
 62
4
 10
1.06439624E+02
 20
5.11828092E+01
 11
1.06909143E+02
 21
5.14540865E+01
  0
LINE
  8
0
 62
4
 10
1.07139624E+02
 20
5.44850315E+01
 11
1.07139624E+02
 21
5.28000315E+01
  0
LINE
  8
0
 62
4
 10
1.07139624E+02
 20
5.44850315E+01
 11
1.07939624E+02
 21
5.44850315E+01
  0
LINE
  8
0
 62
4
 10
1.04424624E+02
 20
5.53850315E+01
 11
1.04284624E+02
 21
5.45850315E+01
  0
LINE
  8
0
 62
4
 10
9.98546243E+01
 20
5.53850315E+01
 11
9.99946243E+01
 21
5.45850315E+01
  0
LINE
  8
0
 62
4
 10
9.99946243E+01
 20
5.45850315E+01
 11
1.04284624E+02
 21
5.45850315E+01
  0
LINE
  8
0
 62
6
 10
1.03369624E+02
 20
5.66850315E+01
 11
1.03369624E+02
 21
5.61850315E+01
  0
LINE
  8
0
 62
6
 10
1.00909624E+02
 20
5.66850315E+01
 11
1.00909624E+02
 21
5.61850315E+01
  0
LINE
  8
0
 62
4
 10
9.91396243E+01
 20
5.53850315E+01
 11
1.05139624E+02
 21
5.53850315E+01
  0
LINE
  8
0
 62
4
 10
1.07939624E+02
 20
5.44850315E+01
 11
1.07939624E+02
 21
5.23400315E+01
  0
LINE
  8
0
 62
4
 10
1.06439624E+02
 20
5.21090315E+01
 11
1.06653729E+02
 21
5.22332122E+01
  0
LINE
  8
0
 62
4
 10
9.86396243E+01
 20
5.48850315E+01
 11
9.87896243E+01
 21
5.48850315E+01
  0
LINE
  8
0
 62
4
 10
9.88896243E+01
 20
5.31850315E+01
 11
1.05389624E+02
 21
5.31850315E+01
  0
LINE
  8
0
 62
4
 10
9.88896243E+01
 20
5.24850315E+01
 11
1.05389624E+02
 21
5.24850315E+01
  0
LINE
  8
0
 62
4
 10
1.06564624E+02
 20
5.50100315E+01
 11
1.06564624E+02
 21
5.25100315E+01
  0
LINE
  8
0
 62
4
 10
1.07064624E+02
 20
5.50100315E+01
 11
1.07064624E+02
 21
5.25895355E+01
  0
LINE
  8
0
 62
4
 10
1.06564624E+02
 20
5.50100315E+01
 11
1.07064624E+02
 21
5.50100315E+01
  0
LINE
  8
0
 62
4
 10
1.03639624E+02
 20
5.71850315E+01
 11
1.03639624E+02
 21
5.61850315E+01
  0
LINE
  8
0
 62
4
 10
1.00639624E+02
 20
5.71850315E+01
 11
1.00639624E+02
 21
5.61850315E+01
  0
LINE
  8
0
 62
4
 10
9.96396243E+01
 20
5.71850315E+01
 11
1.04639624E+02
 21
5.71850315E+01
  0
LINE
  8
0
 62
4
 10
1.00639624E+02
 20
5.86850315E+01
 11
1.03639624E+02
 21
5.86850315E+01
  0
LINE
  8
0
 62
4
 10
9.96396243E+01
 20
5.76850315E+01
 11
9.96396243E+01
 21
5.71850315E+01
  0
LINE
  8
0
 62
4
 10
1.04639624E+02
 20
5.76850315E+01
 11
1.04639624E+02
 21
5.71850315E+01
  0
LINE
  8
0
 62
4
 10
1.00639624E+02
 20
5.66850315E+01
 11
1.03639624E+02
 21
5.66850315E+01
  0
ARC
  8
0
 62
4
 10
9.86396275E+01
 20
5.53850282E+01
 40
8.00003254E-01
 50
9.00000002E+01
 51
1.79999767E+02
  0
ARC
  8
0
 62
4
 10
1.05641287E+02
 20
5.53866941E+01
 40
7.98339134E-01
 50
3.59880678E+02
 51
9.01193227E+01
  0
ARC
  8
0
 62
4
 10
9.91396286E+01
 20
5.48850272E+01
 40
5.00004290E-01
 50
9.00000002E+01
 51
1.79999508E+02
  0
ARC
  8
0
 62
4
 10
1.05141287E+02
 20
5.48866941E+01
 40
4.98340176E-01
 50
3.59808845E+02
 51
9.01911544E+01
  0
ARC
  8
0
 62
4
 10
1.07439421E+02
 20
5.23381657E+01
 40
5.00207143E-01
 50
3.00013240E+02
 51
2.13706628E-01
  0
ARC
  8
0
 62
4
 10
1.06640772E+02
 20
5.28023872E+01
 40
4.98857363E-01
 50
3.30554632E+02
 51
3.59729437E+02
  0
ARC
  8
0
 62
4
 10
1.03641037E+02
 20
5.76864438E+01
 40
9.98588677E-01
 50
3.59918966E+02
 51
9.00810348E+01
  0
ARC
  8
0
 62
4
 10
1.00639877E+02
 20
5.76847787E+01
 40
1.00025280E+00
 50
9.00000002E+01
 51
1.79985521E+02
  0
LINE
  8
0
 62
4
 10
1.00089624E+02
 20
5.14850315E+01
 11
1.04189624E+02
 21
5.14850315E+01
  0
LINE
  8
0
 62
4
 10
1.01139624E+02
 20
5.17850315E+01
 11
1.03139624E+02
 21
5.17850315E+01
  0
LINE
  8
0
 62
4
 10
1.01139624E+02
 20
5.17850315E+01
 11
1.01139624E+02
 21
5.14850315E+01
  0
LINE
  8
0
 62
4
 10
1.03139624E+02
 20
5.17850315E+01
 11
1.03139624E+02
 21
5.14850315E+01
  0
LINE
  8
0
 62
4
 10
1.00639624E+02
 20
5.45850315E+01
 11
1.00639624E+02
 21
5.34850315E+01
  0
LINE
  8
0
 62
4
 10
1.03639624E+02
 20
5.45850315E+01
 11
1.03639624E+02
 21
5.34850315E+01
  0
LINE
  8
0
 62
6
 10
1.00909624E+02
 20
5.45850315E+01
 11
1.00909624E+02
 21
5.32150315E+01
  0
LINE
  8
0
 62
6
 10
1.03369624E+02
 20
5.45850315E+01
 11
1.03369624E+02
 21
5.32150315E+01
  0
LINE
  8
0
 62
4
 10
1.07351663E+02
 20
5.17097649E+01
 11
1.07689624E+02
 21
5.19050315E+01
  0
LINE
  8
0
 62
4
 10
1.01089624E+02
 20
4.84850315E+01
 11
1.03189624E+02
 21
4.84850315E+01
  0
LINE
  8
0
 62
4
 10
1.01089624E+02
 20
5.04850315E+01
 11
1.01089624E+02
 21
4.84850315E+01
  0
LINE
  8
0
 62
4
 10
1.01089624E+02
 20
5.04850315E+01
 11
1.03189624E+02
 21
5.04850315E+01
  0
LINE
  8
0
 62
4
 10
1.03189624E+02
 20
5.04850315E+01
 11
1.03189624E+02
 21
4.84850315E+01
  0
LINE
  8
0
 62
4
 10
9.78396243E+01
 20
4.96850315E+01
 11
9.86396243E+01
 21
4.96850315E+01
  0
LINE
  8
0
 62
4
 10
1.05639624E+02
 20
4.89850315E+01
 11
1.06439624E+02
 21
4.89850315E+01
  0
LINE
  8
0
 62
4
 10
9.88896243E+01
 20
4.92850315E+01
 11
1.00089624E+02
 21
4.92850315E+01
  0
LINE
  8
0
 62
4
 10
9.88896243E+01
 20
4.96850315E+01
 11
1.00089624E+02
 21
4.96850315E+01
  0
LINE
  8
0
 62
4
 10
1.07805320E+02
 20
4.87073122E+01
 11
1.07662718E+02
 21
4.86607861E+01
  0
LINE
  8
0
 62
4
 10
1.07662733E+02
 20
4.86607413E+01
 11
1.09722914E+02
 21
4.23463068E+01
  0
LINE
  8
0
 62
4
 10
1.01089624E+02
 20
4.84850315E+01
 11
1.00089624E+02
 21
4.74850315E+01
  0
LINE
  8
0
 62
4
 10
1.04189624E+02
 20
4.74850315E+01
 11
1.03189624E+02
 21
4.84850315E+01
  0
LINE
  8
0
 62
4
 10
9.48189705E+01
 20
4.25111846E+01
 11
9.63227963E+01
 21
4.52281719E+01
  0
LINE
  8
0
 62
4
 10
9.88896243E+01
 20
4.92850315E+01
 11
9.88896243E+01
 21
4.66850315E+01
  0
LINE
  8
0
 62
4
 10
1.07064624E+02
 20
5.25895355E+01
 11
1.09521356E+02
 21
4.50596799E+01
  0
LINE
  8
0
 62
4
 10
1.06564624E+02
 20
5.25100315E+01
 11
1.10363005E+02
 21
4.08680361E+01
  0
LINE
  8
0
 62
4
 10
1.05389624E+02
 20
5.31850315E+01
 11
1.05389624E+02
 21
4.66850315E+01
  0
LINE
  8
0
 62
4
 10
1.00089624E+02
 20
5.14850315E+01
 11
1.00089624E+02
 21
4.74850315E+01
  0
LINE
  8
0
 62
4
 10
1.04189624E+02
 20
5.14850315E+01
 11
1.04189624E+02
 21
4.74850315E+01
  0
LINE
  8
0
  6
CENTER
 62
2
 10
1.02139624E+02
 20
2.61151736E+01
 11
1.02139624E+02
 21
6.11076795E+01
  0
ARC
  8
0
 62
7
 10
1.02139624E+02
 20
3.81850315E+01
 40
9.50000000E+00
 50
1.34595066E+02
 51
1.46525335E+02
  0
LINE
  8
0
 62
7
 10
9.43114165E+01
 20
3.28027305E+01
 11
9.43114165E+01
 21
3.45051316E+01
  0
LINE
  8
0
 62
7
 10
9.42153912E+01
 20
4.34249294E+01
 11
9.42153912E+01
 21
4.16533208E+01
  0
ARC
  8
0
 62
7
 10
1.02139624E+02
 20
3.81850315E+01
 40
9.50000000E+00
 50
2.16485460E+02
 51
2.43474648E+02
  0
LINE
  8
0
 62
4
 10
9.46068934E+01
 20
4.24374790E+01
 11
9.61235346E+01
 21
4.51631597E+01
  0
CIRCLE
  8
0
 62
4
 10
1.02139623E+02
 20
3.81916880E+01
 40
8.00000000E+00
  0
LINE
  8
0
  6
CENTER
 62
2
 10
8.01234062E+01
 20
3.81850315E+01
 11
1.13247538E+02
 21
3.81850315E+01
  0
ARC
  8
0
 62
4
 10
1.02139624E+02
 20
3.81850315E+01
 40
8.65000000E+00
 50
1.50553997E+02
 51
1.40350158E+02
  0
CIRCLE
  8
0
 62
4
 10
1.02139623E+02
 20
3.81916880E+01
 40
8.50000000E+00
  0
LINE
  8
0
  6
CENTER
 62
6
 10
-1.20326312E+02
 20
-7.05748853E+01
 11
-1.20326312E+02
 21
-7.68890238E+01
  0
LINE
  8
0
  6
CENTER
 62
6
 10
-9.11263117E+01
 20
-7.05748853E+01
 11
-9.11263117E+01
 21
-7.68890238E+01
  0
LINE
  8
0
 62
4
 10
-1.26726312E+02
 20
-7.51294654E+01
 11
-8.47263117E+01
 21
-7.51294654E+01
  0
LINE
  8
0
 62
4
 10
-8.47263117E+01
 20
-7.28294654E+01
 11
-8.47263117E+01
 21
-7.51294654E+01
  0
LINE
  8
0
 62
4
 10
-1.26726312E+02
 20
-7.28294654E+01
 11
-1.26726312E+02
 21
-7.51294654E+01
  0
LINE
  8
0
  6
CENTER
 62
6
 10
-1.05726312E+02
 20
-5.27307565E+01
 11
-1.05726312E+02
 21
-6.94052023E+01
  0
LINE
  8
0
  6
CENTER
 62
6
 10
-1.13226312E+02
 20
-6.11294654E+01
 11
-9.82263117E+01
 21
-6.11294654E+01
  0
CIRCLE
  8
0
 62
4
 10
-1.05726312E+02
 20
-6.11294654E+01
 40
6.00000000E+00
  0
LINE
  8
0
 62
4
 10
-1.26726312E+02
 20
-7.28294654E+01
 11
-8.47263117E+01
 21
-7.28294654E+01
  0
ARC
  8
0
 62
4
 10
-1.05726312E+02
 20
-6.11294654E+01
 40
1.00000000E+01
 50
3.62946002E+01
 51
1.43705400E+02
  0
LINE
  8
0
 62
4
 10
-8.47263117E+01
 20
-7.28294654E+01
 11
-9.76664710E+01
 21
-5.52100932E+01
  0
LINE
  8
0
 62
4
 10
-1.26726312E+02
 20
-7.28294654E+01
 11
-1.13786152E+02
 21
-5.52100932E+01
  0
LINE
  8
0
  6
CENTER
 62
6
 10
-7.28263117E+01
 20
-7.05748853E+01
 11
-7.28263117E+01
 21
-7.68890238E+01
  0
LINE
  8
0
 62
4
 10
-7.88263117E+01
 20
-7.28294654E+01
 11
-7.88263117E+01
 21
-7.51294654E+01
  0
LINE
  8
0
 62
4
 10
-7.02263117E+01
 20
-7.28294654E+01
 11
-7.02263117E+01
 21
-7.51294654E+01
  0
LINE
  8
0
 62
4
 10
-7.54263117E+01
 20
-7.28294654E+01
 11
-7.54263117E+01
 21
-7.51294654E+01
  0
LINE
  8
0
 62
4
 10
-6.38263117E+01
 20
-5.11294654E+01
 11
-6.38263117E+01
 21
-7.16794654E+01
  0
LINE
  8
0
 62
4
 10
-6.61263117E+01
 20
-5.11294654E+01
 11
-6.38263117E+01
 21
-5.11294654E+01
  0
LINE
  8
0
  6
CENTER
 62
6
 10
-6.86744785E+01
 20
-6.11294654E+01
 11
-6.13263117E+01
 21
-6.11294654E+01
  0
LINE
  8
0
 62
4
 10
-7.88263117E+01
 20
-7.51294654E+01
 11
-6.72763117E+01
 21
-7.51294654E+01
  0
LINE
  8
0
 62
4
 10
-6.61263117E+01
 20
-5.11294654E+01
 11
-6.61263117E+01
 21
-7.16794654E+01
  0
LINE
  8
0
 62
4
 10
-7.88263117E+01
 20
-7.28294654E+01
 11
-6.72763117E+01
 21
-7.28294654E+01
  0
ARC
  8
0
 62
4
 10
-6.72763117E+01
 20
-7.16794654E+01
 40
1.15000000E+00
 50
2.70000000E+02
 51
0.00000000E+00
  0
ARC
  8
0
 62
4
 10
-6.72763117E+01
 20
-7.16794654E+01
 40
3.45000000E+00
 50
2.70000000E+02
 51
0.00000000E+00
  0
LINE
  8
0
 62
4
 10
-1.26726312E+02
 20
-2.35294654E+01
 11
-8.47263117E+01
 21
-2.35294654E+01
  0
LINE
  8
0
 62
4
 10
-8.47263117E+01
 20
-2.12294654E+01
 11
-8.47263117E+01
 21
-2.76294654E+01
  0
LINE
  8
0
 62
4
 10
-1.26726312E+02
 20
-2.12294654E+01
 11
-8.47263117E+01
 21
-2.12294654E+01
  0
LINE
  8
0
 62
4
 10
-1.26726312E+02
 20
-3.62294654E+01
 11
-8.47263117E+01
 21
-3.62294654E+01
  0
LINE
  8
0
  6
CENTER
 62
6
 10
-1.05726312E+02
 20
-1.98394654E+01
 11
-1.05726312E+02
 21
-3.74694654E+01
  0
LINE
  8
0
  6
CENTER
 62
6
 10
-1.23629276E+02
 20
-3.02294654E+01
 11
-8.82916887E+01
 21
-3.02294654E+01
  0
LINE
  8
0
 62
4
 10
-8.47263117E+01
 20
-3.28294654E+01
 11
-8.47263117E+01
 21
-3.62294654E+01
  0
ARC
  8
0
 62
4
 10
-9.11263117E+01
 20
-3.02294654E+01
 40
2.60000000E+00
 50
9.00000002E+01
 51
2.70000000E+02
  0
LINE
  8
0
  6
CENTER
 62
6
 10
-9.11263117E+01
 20
-3.39024351E+01
 11
-9.11263117E+01
 21
-2.66829211E+01
  0
LINE
  8
0
 62
4
 10
-9.11263117E+01
 20
-3.28294654E+01
 11
-8.47263117E+01
 21
-3.28294654E+01
  0
LINE
  8
0
 62
4
 10
-9.11263117E+01
 20
-2.76294654E+01
 11
-8.47263117E+01
 21
-2.76294654E+01
  0
ARC
  8
0
 62
4
 10
-1.20326312E+02
 20
-3.02294654E+01
 40
2.60000000E+00
 50
2.70000000E+02
 51
9.00000002E+01
  0
LINE
  8
0
  6
CENTER
 62
6
 10
-1.20326312E+02
 20
-3.40628688E+01
 11
-1.20326312E+02
 21
-2.65759653E+01
  0
LINE
  8
0
 62
4
 10
-1.20326312E+02
 20
-3.28294654E+01
 11
-1.26726312E+02
 21
-3.28294654E+01
  0
LINE
  8
0
 62
4
 10
-1.20326312E+02
 20
-2.76294654E+01
 11
-1.26726312E+02
 21
-2.76294654E+01
  0
LINE
  8
0
 62
4
 10
-1.26726312E+02
 20
-3.28294654E+01
 11
-1.26726312E+02
 21
-3.62294654E+01
  0
LINE
  8
0
 62
4
 10
-1.26726312E+02
 20
-2.12294654E+01
 11
-1.26726312E+02
 21
-2.76294654E+01
  0
LINE
  8
0
  6
CENTER
 62
6
 10
9.27368830E+00
 20
-5.39294654E+01
 11
9.27368830E+00
 21
-6.84394654E+01
  0
ARC
  8
0
 62
4
 10
2.38736883E+01
 20
-6.11294654E+01
 40
2.60000000E+00
 50
9.00000002E+01
 51
2.70000000E+02
  0
ARC
  8
0
 62
4
 10
-5.32631170E+00
 20
-6.11294654E+01
 40
2.60000000E+00
 50
2.70000000E+02
 51
9.00000002E+01
  0
CIRCLE
  8
0
 62
4
 10
9.27368830E+00
 20
-6.11294654E+01
 40
6.00000000E+00
  0
LINE
  8
0
  6
CENTER
 62
6
 10
-5.32631170E+00
 20
-5.73694202E+01
 11
-5.32631170E+00
 21
-6.50723884E+01
  0
LINE
  8
0
  6
CENTER
 62
6
 10
2.38736883E+01
 20
-5.73694202E+01
 11
2.38736883E+01
 21
-6.50723884E+01
  0
LINE
  8
0
  6
CENTER
 62
6
 10
-1.47349011E+01
 20
-6.11294654E+01
 11
3.32676604E+01
 21
-6.11294654E+01
  0
LINE
  8
0
 62
4
 10
-1.17263117E+01
 20
-6.37294654E+01
 11
-5.32631170E+00
 21
-6.37294654E+01
  0
LINE
  8
0
 62
4
 10
2.38736883E+01
 20
-6.37294654E+01
 11
3.02736883E+01
 21
-6.37294654E+01
  0
LINE
  8
0
 62
4
 10
-1.17263117E+01
 20
-7.11294654E+01
 11
3.02736883E+01
 21
-7.11294654E+01
  0
LINE
  8
0
 62
4
 10
3.02736883E+01
 20
-6.37294654E+01
 11
3.02736883E+01
 21
-7.11294654E+01
  0
LINE
  8
0
 62
4
 10
-1.17263117E+01
 20
-6.37294654E+01
 11
-1.17263117E+01
 21
-7.11294654E+01
  0
LINE
  8
0
 62
4
 10
3.02736883E+01
 20
-5.11294654E+01
 11
3.02736883E+01
 21
-5.85294654E+01
  0
LINE
  8
0
 62
4
 10
-1.17263117E+01
 20
-5.11294654E+01
 11
-1.17263117E+01
 21
-5.85294654E+01
  0
LINE
  8
0
 62
4
 10
-1.17263117E+01
 20
-5.85294654E+01
 11
-5.32631170E+00
 21
-5.85294654E+01
  0
LINE
  8
0
 62
4
 10
2.38736883E+01
 20
-5.85294654E+01
 11
3.02736883E+01
 21
-5.85294654E+01
  0
LINE
  8
0
 62
4
 10
-1.17263117E+01
 20
-5.11294654E+01
 11
3.02736883E+01
 21
-5.11294654E+01
  0
LINE
  8
0
 62
4
 10
4.02736883E+01
 20
-5.11294654E+01
 11
4.02736883E+01
 21
-7.11294654E+01
  0
LINE
  8
0
 62
4
 10
4.25736883E+01
 20
-5.11294654E+01
 11
4.25736883E+01
 21
-7.11294654E+01
  0
LINE
  8
0
 62
4
 10
4.02736883E+01
 20
-6.37294654E+01
 11
4.25736883E+01
 21
-6.37294654E+01
  0
LINE
  8
0
 62
4
 10
4.02736883E+01
 20
-7.11294654E+01
 11
4.25736883E+01
 21
-7.11294654E+01
  0
LINE
  8
0
 62
4
 10
4.02736883E+01
 20
-5.85294654E+01
 11
4.25736883E+01
 21
-5.85294654E+01
  0
LINE
  8
0
 62
4
 10
4.02736883E+01
 20
-5.11294654E+01
 11
4.25736883E+01
 21
-5.11294654E+01
  0
LINE
  8
0
  6
CENTER
 62
6
 10
3.78709590E+01
 20
-6.11294654E+01
 11
4.48100080E+01
 21
-6.11294654E+01
  0
LINE
  8
0
  6
CENTER
 62
6
 10
2.38736883E+01
 20
-2.56930513E+01
 11
2.38736883E+01
 21
-3.18945288E+01
  0
LINE
  8
0
  6
CENTER
 62
6
 10
-5.32631167E+00
 20
-2.56930513E+01
 11
-5.32631167E+00
 21
-3.18945288E+01
  0
LINE
  8
0
 62
4
 10
-1.17263117E+01
 20
-2.99294654E+01
 11
3.02736883E+01
 21
-2.99294654E+01
  0
LINE
  8
0
 62
4
 10
-1.17263117E+01
 20
-2.76294654E+01
 11
3.02736883E+01
 21
-2.76294654E+01
  0
LINE
  8
0
 62
4
 10
-1.17263117E+01
 20
-2.76294654E+01
 11
-1.17263117E+01
 21
-2.99294654E+01
  0
LINE
  8
0
 62
4
 10
3.02736883E+01
 20
-2.76294654E+01
 11
3.02736883E+01
 21
-2.99294654E+01
  0
LINE
  8
0
  6
CENTER
 62
6
 10
9.27368833E+00
 20
-2.56930513E+01
 11
9.27368833E+00
 21
-3.18945288E+01
  0
TEXT
  8
0
 62
7
 10
6.61070075E+01
 20
1.16036158E+01
 40
3.19999981E+00
  1
STRETCH LIST
 41
1.05263158E+00
  7
MONOTXT
  0
TEXT
  8
0
 62
7
 10
1.21407006E+02
 20
1.16036158E+01
 40
3.19999981E+00
  1
(mm)
 41
1.00000000E+00
  7
MONOTXT
  0
TEXT
  8
0
 62
7
 10
6.30125316E+01
 20
-1.84000010E+01
 40
3.19999981E+00
  1
-30
 41
1.00000000E+00
  7
MONOTXT
  0
TEXT
  8
0
 62
7
 10
7.50125316E+01
 20
-1.84000010E+01
 40
3.19999981E+00
  1
-25
 41
1.00000000E+00
  7
MONOTXT
  0
TEXT
  8
0
 62
7
 10
8.70125316E+01
 20
-1.84000010E+01
 40
3.19999981E+00
  1
-20
 41
1.00000000E+00
  7
MONOTXT
  0
TEXT
  8
0
 62
7
 10
9.90125316E+01
 20
-1.84000010E+01
 40
3.19999981E+00
  1
-10
 41
1.00000000E+00
  7
MONOTXT
  0
TEXT
  8
0
 62
7
 10
4.77125314E+01
 20
-1.84000030E+01
 40
3.19999981E+00
  1
B
 41
1.00000000E+00
  7
MONOTXT
  0
TEXT
  8
0
 62
7
 10
4.77125314E+01
 20
-1.24000030E+01
 40
3.19999981E+00
  1
A
 41
1.00000000E+00
  7
MONOTXT
  0
TEXT
  8
0
 62
7
 10
3.75090011E+01
 20
-1.97637791E+00
 40
3.19999981E+00
  1
STRETCH
 41
1.00000000E+00
  7
MONOTXT
  0
TEXT
  8
0
 62
7
 10
3.75090011E+01
 20
-6.77637810E+00
 40
3.19999981E+00
  1
  PLACE
 41
1.20689655E+00
  7
MONOTXT
  0
TEXT
  8
0
 62
7
 10
6.30125316E+01
 20
-1.24000030E+01
 40
3.19999981E+00
  1
-30
 41
1.00000000E+00
  7
MONOTXT
  0
TEXT
  8
0
 62
7
 10
7.50125316E+01
 20
-1.24000030E+01
 40
3.19999981E+00
  1
-20
 41
1.00000000E+00
  7
MONOTXT
  0
TEXT
  8
0
 62
7
 10
8.70125316E+01
 20
-1.24000030E+01
 40
3.19999981E+00
  1
-15
 41
1.00000000E+00
  7
MONOTXT
  0
TEXT
  8
0
 62
7
 10
9.90125316E+01
 20
-1.24000030E+01
 40
3.19999981E+00
  1
-10
 41
1.00000000E+00
  7
MONOTXT
  0
TEXT
  8
0
 62
7
 10
6.62125314E+01
 20
-3.96380365E-01
 40
3.19999981E+00
  1
5
 41
1.00000000E+00
  7
MONOTXT
  0
TEXT
  8
0
 62
7
 10
7.66125315E+01
 20
-3.96380365E-01
 40
3.19999981E+00
  1
10
 41
1.00000000E+00
  7
MONOTXT
  0
TEXT
  8
0
 62
7
 10
8.86125315E+01
 20
-3.96380365E-01
 40
3.19999981E+00
  1
15
 41
1.00000000E+00
  7
MONOTXT
  0
TEXT
  8
0
 62
7
 10
1.00612531E+02
 20
-3.96380365E-01
 40
3.19999981E+00
  1
20
 41
1.00000000E+00
  7
MONOTXT
  0
TEXT
  8
0
 62
7
 10
4.07125319E+01
 20
5.60361582E+00
 40
3.19999981E+00
  1
STROKE
 41
1.00000000E+00
  7
MONOTXT
  0
LINE
  8
0
 62
7
 10
3.63500061E+01
 20
1.01999969E+01
 11
3.63500061E+01
 21
-1.98000031E+01
  0
LINE
  8
0
 62
7
 10
3.63500061E+01
 20
4.19999695E+00
 11
5.92400061E+01
 21
4.19999695E+00
  0
LINE
  8
0
 62
7
 10
6.13500061E+01
 20
-7.80000305E+00
 11
5.92400061E+01
 21
4.19999695E+00
  0
LINE
  8
0
 62
7
 10
3.63500061E+01
 20
-7.80000305E+00
 11
1.33350006E+02
 21
-7.80000305E+00
  0
LINE
  8
0
 62
7
 10
3.63500061E+01
 20
1.01999969E+01
 11
1.33350006E+02
 21
1.01999969E+01
  0
LINE
  8
0
 62
7
 10
1.09350006E+02
 20
1.01999969E+01
 11
1.09350006E+02
 21
-1.98000031E+01
  0
LINE
  8
0
 62
7
 10
9.73500061E+01
 20
1.01999969E+01
 11
9.73500061E+01
 21
-1.98000031E+01
  0
LINE
  8
0
 62
7
 10
8.53500061E+01
 20
1.01999969E+01
 11
8.53500061E+01
 21
-1.98000031E+01
  0
LINE
  8
0
 62
7
 10
7.33500061E+01
 20
1.01999969E+01
 11
7.33500061E+01
 21
-1.98000031E+01
  0
LINE
  8
0
 62
7
 10
6.13500061E+01
 20
1.01999969E+01
 11
6.13500061E+01
 21
-1.98000031E+01
  0
LINE
  8
0
 62
7
 10
3.63500061E+01
 20
-1.38000031E+01
 11
1.33350006E+02
 21
-1.38000031E+01
  0
LINE
  8
0
 62
7
 10
3.63500061E+01
 20
-1.98000031E+01
 11
1.33350006E+02
 21
-1.98000031E+01
  0
TEXT
  8
0
 62
7
 10
1.12612531E+02
 20
-1.84000010E+01
 40
3.19999981E+00
  1
-5
 41
1.00000000E+00
  7
MONOTXT
  0
TEXT
  8
0
 62
7
 10
1.12612531E+02
 20
-3.96380365E-01
 40
3.19999981E+00
  1
25
 41
1.00000000E+00
  7
MONOTXT
  0
LINE
  8
0
 62
7
 10
1.21350006E+02
 20
1.01999969E+01
 11
1.21350006E+02
 21
-1.98000031E+01
  0
TEXT
  8
0
 62
7
 10
1.12612531E+02
 20
-1.24000030E+01
 40
3.19999981E+00
  1
-5
 41
1.00000000E+00
  7
MONOTXT
  0
TEXT
  8
0
 62
7
 10
1.26212531E+02
 20
-1.84000010E+01
 40
3.19999981E+00
  1
0
 41
1.00000000E+00
  7
MONOTXT
  0
TEXT
  8
0
 62
7
 10
1.24612531E+02
 20
-3.96380365E-01
 40
3.19999981E+00
  1
30
 41
1.00000000E+00
  7
MONOTXT
  0
LINE
  8
0
 62
7
 10
1.33350006E+02
 20
1.01999969E+01
 11
1.33350006E+02
 21
-1.98000031E+01
  0
TEXT
  8
0
 62
7
 10
1.26212531E+02
 20
-1.24000030E+01
 40
3.19999981E+00
  1
0
 41
1.00000000E+00
  7
MONOTXT
  0
TEXT
  8
0
 10
-6.88782471E+01
 20
6.52986513E+01
 40
3.20000005E+00
  1
STRETCH LINE A
 41
1.09375000E+00
  7
MONOTXT
  0
TEXT
  8
0
 10
1.11217529E+01
 20
6.52986513E+01
 40
3.20000005E+00
  1
STRETCH LINE B
 41
1.09375000E+00
  7
MONOTXT
  0
LINE
  8
0
 62
7
 10
-1.38399994E+02
 20
9.45000000E+01
 11
1.38350006E+02
 21
9.45000000E+01
  0
LINE
  8
0
 62
7
 10
1.38350006E+02
 20
9.45000000E+01
 11
1.38350006E+02
 21
-9.48000031E+01
  0
LINE
  8
0
 62
7
 10
-1.38399994E+02
 20
-9.48000031E+01
 11
1.38350006E+02
 21
-9.48000031E+01
  0
LINE
  8
0
 62
7
 10
-1.38399994E+02
 20
9.45000000E+01
 11
-1.38399994E+02
 21
-9.48000031E+01
  0
LINE
  8
0
 62
7
 10
7.33500061E+01
 20
-8.48000031E+01
 11
1.38350006E+02
 21
-8.48000031E+01
  0
LINE
  8
0
 62
7
 10
-1.38399994E+02
 20
8.45000000E+01
 11
-7.33999939E+01
 21
8.45000000E+01
  0
LINE
  8
0
 62
7
 10
7.33500061E+01
 20
8.45000000E+01
 11
1.38350006E+02
 21
8.45000000E+01
  0
LINE
  8
0
 62
7
 10
7.33500061E+01
 20
-8.48000031E+01
 11
7.33500061E+01
 21
-9.48000031E+01
  0
LINE
  8
0
 62
7
 10
7.33500061E+01
 20
9.45000000E+01
 11
7.33500061E+01
 21
8.45000000E+01
  0
LINE
  8
0
 62
7
 10
-7.33999939E+01
 20
9.45000000E+01
 11
-7.33999939E+01
 21
8.45000000E+01
  0
TEXT
  8
0
 62
7
 10
7.72426624E+01
 20
-9.20500031E+01
 40
4.50000000E+00
  1
KOGANEI CORP.
 41
1.04838710E+00
  7
MONOTXT
  0
TEXT
  8
0
 62
7
 10
9.35071493E+01
 20
8.79000001E+01
 40
3.19999981E+00
  1
Ver. 1.0
 41
1.08108108E+00
  7
MONOTXT
  0
TEXT
  8
0
 62
7
 10
-1.31042850E+02
 20
8.79000001E+01
 40
3.19999981E+00
  1
NEW PEN CYLINDER
 41
1.08108108E+00
  7
MONOTXT
  0
TEXT
  8
0
 62
7
 10
-1.29085994E+02
 20
7.29000001E+01
 40
3.19999981E+00
  1
MODEL:PBTALS16*ST(30)-ZC230
 41
1.00000000E+00
  7
MONOTXT
  0
ENDSEC
  0
EOF
