  0
SECTION
  2
HEADER
  9
$ACADVER
  1
AC1003
  9
$EXTMIN
 10
-1.38399994E+02
 20
-9.48000031E+01
  9
$EXTMAX
 10
1.38350006E+02
 20
9.45000000E+01
  9
$LIMMIN
 10
-1.38400994E+02
 20
-9.48010031E+01
  9
$LIMMAX
 10
1.38351006E+02
 20
9.45010000E+01
  9
$SNAPUNIT
 10
1
 20
1
  9
$SNAPBASE
 10
0
 20
0
  9
$GRIDMODE
 70
0
  9
$GRIDUNIT
 10
0
 20
0
  9
$LTSCALE
 40
4.61250000E+00
  9
$TEXTSIZE
 40
3.2
  9
$DIMTAD
 70
0
  9
$LUNITS
 70
2
  9
$LUPREC
 70
4
  9
$FILLETRAD
 40
0
  9
$AUNITS
 70
0
  9
$AUPREC
 70
0
  0
ENDSEC
  0
SECTION
  2
TABLES
  0
TABLE
  2
LTYPE
 70
2
  0
LTYPE
  2
CONTINUOUS
 70
64
  3
Solid-Line
 72
65
 73
0
 40
0
  0
LTYPE
  2
DASHED
 70
64
  3
DASHED
 72
65
 73
2
 40
.75
 49
.5
 49
-.25
  0
LTYPE
  2
HIDDEN
 70
64
  3
HIDDEN
 72
65
 73
2
 40
.375
 49
.25
 49
-.125
  0
LTYPE
  2
CENTER
 70
64
  3
CENTER
 72
65
 73
4
 40
2
 49
1.25
 49
-.25
 49
.25
 49
-.25
  0
LTYPE
  2
PHANTOM
 70
64
  3
PHANTOM
 72
65
 73
6
 40
2.5
 49
1.25
 49
-.25
 49
.25
 49
-.25
 49
.25
 49
-.25
  0
ENDTAB
  0
TABLE
  2
LAYER
 70
1
  0
LAYER
  2
1
 70
0
 62
7
  6
CONTINUOUS
 0
ENDTAB
  0
TABLE
  2
STYLE
 70
2
  0
STYLE
  2
MONOTXT
 70
0
 40
0
 41
1
 50
0
 71
0
 42
.2
  3
monotxt
  0
STYLE
  2
BIGFONT
 70
0
 40
0
 41
1
 50
0
 71
0
 42
.2
  3
txt
  4
bigfont
  0
ENDTAB
  0
ENDSEC
  0
SECTION
  2
ENTITIES
  0
LINE
  8
0
 62
2
 10
-7.70426797E+01
 20
4.21449137E+01
 11
-7.28159926E+01
 21
4.21449137E+01
  0
LINE
  8
0
 62
2
 10
-6.96159880E+01
 20
4.21449137E+01
 11
-6.23926604E+01
 21
4.21449137E+01
  0
TEXT
  8
0
 62
7
 10
-5.22860006E+00
 20
3.95449137E+01
 40
1.50000000E+00
  1
PBTALS10
 41
1.00000000E+00
  7
MONOTXT
  0
LINE
  8
0
  6
PHANTOM
 10
1.93917666E+01
 20
4.81673528E+01
 11
2.94378444E+01
 21
4.81673528E+01
  0
LINE
  8
0
  6
PHANTOM
 10
2.94378444E+01
 20
6.46405416E+01
 11
2.94378444E+01
 21
4.81673528E+01
  0
LINE
  8
0
  6
PHANTOM
 10
1.93917666E+01
 20
4.81673528E+01
 11
1.93917666E+01
 21
3.33127668E+01
  0
LINE
  8
0
 62
4
 10
4.76073358E+01
 20
4.57897929E+01
 11
4.76073358E+01
 21
4.17897929E+01
  0
LINE
  8
0
 62
4
 10
2.36073358E+01
 20
4.57897929E+01
 11
2.81073358E+01
 21
4.57897929E+01
  0
LINE
  8
0
 62
4
 10
2.26073358E+01
 20
4.47897929E+01
 11
2.26073358E+01
 21
4.27897929E+01
  0
LINE
  8
0
 62
4
 10
2.26073358E+01
 20
4.27897929E+01
 11
2.36073358E+01
 21
4.17897929E+01
  0
LINE
  8
0
 62
4
 10
2.36073358E+01
 20
4.17897929E+01
 11
2.81073358E+01
 21
4.17897929E+01
  0
LINE
  8
0
 62
4
 10
2.26073358E+01
 20
4.47897929E+01
 11
2.36073358E+01
 21
4.57897929E+01
  0
LINE
  8
0
 62
4
 10
2.36073358E+01
 20
4.57897929E+01
 11
2.36073358E+01
 21
4.17897929E+01
  0
LINE
  8
0
 62
4
 10
2.81073358E+01
 20
4.05397929E+01
 11
2.81073358E+01
 21
4.70397929E+01
  0
LINE
  8
0
 62
4
 10
6.31073358E+01
 20
3.82897929E+01
 11
6.31073358E+01
 21
4.92897920E+01
  0
LINE
  8
0
 62
7
 10
3.96073358E+01
 20
3.82897929E+01
 11
5.76073358E+01
 21
3.82897929E+01
  0
LINE
  8
0
 62
7
 10
3.96073358E+01
 20
4.92897920E+01
 11
5.76073358E+01
 21
4.92897920E+01
  0
LINE
  8
0
 62
4
 10
5.06073358E+01
 20
4.50897929E+01
 11
5.06073358E+01
 21
4.24897929E+01
  0
LINE
  8
0
 62
4
 10
5.06073358E+01
 20
4.50897929E+01
 11
5.55443349E+01
 21
4.50897929E+01
  0
LINE
  8
0
 62
6
 10
5.55443349E+01
 20
4.50897929E+01
 11
5.29443349E+01
 21
4.24897929E+01
  0
LINE
  8
0
 62
4
 10
5.06073358E+01
 20
4.24897929E+01
 11
5.29443349E+01
 21
4.24897929E+01
  0
LINE
  8
0
 62
4
 10
4.76073358E+01
 20
4.17897929E+01
 11
5.06073358E+01
 21
4.24897929E+01
  0
LINE
  8
0
 62
4
 10
4.76073358E+01
 20
4.57897929E+01
 11
5.06073358E+01
 21
4.50897929E+01
  0
LINE
  8
0
 62
4
 10
4.21073358E+01
 20
4.57897929E+01
 11
4.76073358E+01
 21
4.57897929E+01
  0
LINE
  8
0
 62
4
 10
3.96073358E+01
 20
4.70397929E+01
 11
4.21073358E+01
 21
4.70397929E+01
  0
LINE
  8
0
 62
4
 10
3.31073358E+01
 20
4.86369879E+01
 11
3.31073358E+01
 21
4.96542719E+01
  0
LINE
  8
0
 62
4
 10
3.31073358E+01
 20
4.88897929E+01
 11
3.71073358E+01
 21
4.88897929E+01
  0
LINE
  8
0
 62
4
 10
3.71073358E+01
 20
4.96542719E+01
 11
3.71073358E+01
 21
4.86369879E+01
  0
LINE
  8
0
 62
4
 10
3.06073358E+01
 20
4.96542719E+01
 11
3.96073358E+01
 21
4.96542719E+01
  0
LINE
  8
0
 62
4
 10
3.06073358E+01
 20
4.80898296E+01
 11
3.96073358E+01
 21
4.80898296E+01
  0
LINE
  8
0
 62
4
 10
3.06073358E+01
 20
4.86369879E+01
 11
3.96073358E+01
 21
4.86369879E+01
  0
LINE
  8
0
 62
4
 10
3.06073358E+01
 20
3.81397929E+01
 11
3.96073358E+01
 21
3.81397929E+01
  0
LINE
  8
0
 62
4
 10
3.06073358E+01
 20
3.94897929E+01
 11
3.96073358E+01
 21
3.94897929E+01
  0
LINE
  8
0
 62
4
 10
3.06073358E+01
 20
3.81437393E+01
 11
3.96073358E+01
 21
3.81437393E+01
  0
LINE
  8
0
 62
4
 10
3.61173358E+01
 20
4.27897929E+01
 11
3.40473358E+01
 21
4.48497929E+01
  0
LINE
  8
0
 62
4
 10
3.40473358E+01
 20
4.27297929E+01
 11
3.61673358E+01
 21
4.48497929E+01
  0
LINE
  8
0
 62
4
 10
3.62173358E+01
 20
4.26897929E+01
 11
3.61673358E+01
 21
4.27297929E+01
  0
LINE
  8
0
 62
4
 10
3.96073358E+01
 20
4.05397929E+01
 11
4.21073358E+01
 21
4.05397929E+01
  0
LINE
  8
0
 62
4
 10
4.21073358E+01
 20
4.17897929E+01
 11
4.76073358E+01
 21
4.17897929E+01
  0
LINE
  8
0
 62
4
 10
4.21073358E+01
 20
4.05397929E+01
 11
4.21073358E+01
 21
4.70397929E+01
  0
LINE
  8
0
 62
4
 10
3.96073358E+01
 20
3.81397929E+01
 11
3.96073358E+01
 21
4.96542719E+01
  0
LINE
  8
0
 62
4
 10
3.06073358E+01
 20
3.81397929E+01
 11
3.06073358E+01
 21
4.96542719E+01
  0
CIRCLE
  8
0
 62
4
 10
3.51064605E+01
 20
4.37873344E+01
 40
2.50000000E+00
  0
LINE
  8
0
  6
CENTER
 62
6
 10
3.51073358E+01
 20
5.10897929E+01
 11
3.51073358E+01
 21
3.56097929E+01
  0
LINE
  8
0
 62
4
 10
5.76073358E+01
 20
4.92897920E+01
 11
6.31073358E+01
 21
4.92897920E+01
  0
LINE
  8
0
 62
4
 10
5.76073358E+01
 20
3.82897929E+01
 11
6.31073358E+01
 21
3.82897929E+01
  0
LINE
  8
0
 62
4
 10
6.36073358E+01
 20
3.87897929E+01
 11
6.36073358E+01
 21
4.87897920E+01
  0
LINE
  8
0
 62
4
 10
6.31073402E+01
 20
4.92897936E+01
 11
6.36073407E+01
 21
4.87897930E+01
  0
LINE
  8
0
 62
4
 10
6.36073376E+01
 20
3.87897928E+01
 11
6.31073370E+01
 21
3.82897922E+01
  0
LINE
  8
0
 62
4
 10
5.76073358E+01
 20
3.82897929E+01
 11
5.76073358E+01
 21
4.92897920E+01
  0
LINE
  8
0
 62
4
 10
2.81073358E+01
 20
4.05397929E+01
 11
3.06073358E+01
 21
4.05397929E+01
  0
LINE
  8
0
 62
4
 10
2.81073358E+01
 20
4.70397929E+01
 11
3.06073358E+01
 21
4.70397929E+01
  0
LINE
  8
0
  6
PHANTOM
 10
-4.68607313E+01
 20
6.46405416E+01
 11
-4.68607313E+01
 21
3.33127668E+01
  0
LINE
  8
0
 62
7
 10
1.26073374E+01
 20
3.82949137E+01
 11
3.06073358E+01
 21
3.82949137E+01
  0
LINE
  8
0
 62
7
 10
1.51073374E+01
 20
4.92949128E+01
 11
3.06073358E+01
 21
4.92949128E+01
  0
LINE
  8
0
 62
7
 10
-6.39266256E+00
 20
3.82949137E+01
 11
3.60733744E+00
 21
3.82949137E+01
  0
LINE
  8
0
 62
7
 10
-6.39266256E+00
 20
5.07949142E+01
 11
-6.39266256E+00
 21
3.67949137E+01
  0
LINE
  8
0
 62
7
 10
-2.73926585E+01
 20
4.79949154E+01
 11
-2.73926585E+01
 21
3.95949120E+01
  0
LINE
  8
0
 62
7
 10
-1.93926623E+01
 20
5.07949142E+01
 11
-1.93926623E+01
 21
3.67949137E+01
  0
LINE
  8
0
 62
7
 10
-2.65926631E+01
 20
4.87949128E+01
 11
-2.65926631E+01
 21
3.87949147E+01
  0
LINE
  8
0
  6
CENTER
 62
2
 10
-1.08926627E+01
 20
4.74004654E+01
 11
-1.08926627E+01
 21
4.01893621E+01
  0
LINE
  8
0
 62
7
 10
-2.08926623E+01
 20
4.87949128E+01
 11
-2.08926623E+01
 21
3.87949147E+01
  0
LINE
  8
0
 62
7
 10
-2.65926625E+01
 20
4.87949127E+01
 11
-2.73926620E+01
 21
4.79949132E+01
  0
LINE
  8
0
 62
7
 10
-7.66926710E+01
 20
4.57949224E+01
 11
-7.73926728E+01
 21
4.50949205E+01
  0
LINE
  8
0
 62
2
 10
-7.70426797E+01
 20
4.54449137E+01
 11
-7.28159926E+01
 21
4.54449137E+01
  0
LINE
  8
0
 62
7
 10
-7.66926635E+01
 20
4.17949138E+01
 11
-7.28159926E+01
 21
4.17949138E+01
  0
LINE
  8
0
 62
7
 10
-6.23926604E+01
 20
4.57949137E+01
 11
-6.23926604E+01
 21
4.17949138E+01
  0
LINE
  8
0
 62
7
 10
-7.66926635E+01
 20
4.57949137E+01
 11
-7.66926635E+01
 21
4.17949138E+01
  0
LINE
  8
0
 62
7
 10
-7.73926646E+01
 20
4.24949117E+01
 11
-7.66926628E+01
 21
4.17949099E+01
  0
LINE
  8
0
 62
7
 10
-7.73926604E+01
 20
4.50949139E+01
 11
-7.73926604E+01
 21
4.24949136E+01
  0
LINE
  8
0
  6
CENTER
 62
2
 10
-7.91315056E+01
 20
4.37949137E+01
 11
6.53611276E+01
 21
4.37949137E+01
  0
LINE
  8
0
 62
2
 10
-6.96159880E+01
 20
4.54449137E+01
 11
-6.23926604E+01
 21
4.54449137E+01
  0
LINE
  8
0
 62
4
 10
-6.96159880E+01
 20
4.71949143E+01
 11
-6.96159880E+01
 21
4.03949133E+01
  0
LINE
  8
0
 62
4
 10
-7.28159926E+01
 20
4.71949143E+01
 11
-7.28159926E+01
 21
4.03949133E+01
  0
LINE
  8
0
 62
7
 10
-6.96159880E+01
 20
4.57949137E+01
 11
-6.13926604E+01
 21
4.57949137E+01
  0
LINE
  8
0
 62
4
 10
-7.24456466E+01
 20
4.58156399E+01
 11
-6.99863341E+01
 21
4.58156399E+01
  0
LINE
  8
0
 62
4
 10
-7.24456466E+01
 20
4.17741876E+01
 11
-6.99863341E+01
 21
4.17741876E+01
  0
LINE
  8
0
 62
4
 10
-7.24456466E+01
 20
4.78363652E+01
 11
-6.99863341E+01
 21
4.78363652E+01
  0
LINE
  8
0
 62
4
 10
-7.24456466E+01
 20
3.97534614E+01
 11
-6.99863341E+01
 21
3.97534614E+01
  0
LINE
  8
0
 62
7
 10
-6.96159880E+01
 20
4.17949138E+01
 11
-6.13926604E+01
 21
4.17949138E+01
  0
LINE
  8
0
 62
4
 10
-7.28159812E+01
 20
4.71949101E+01
 11
-7.24456389E+01
 21
4.78363617E+01
  0
LINE
  8
0
 62
4
 10
-6.99863294E+01
 20
4.78363695E+01
 11
-6.96159872E+01
 21
4.71949179E+01
  0
LINE
  8
0
 62
4
 10
-7.28159896E+01
 20
4.03949098E+01
 11
-7.24456473E+01
 21
3.97534582E+01
  0
LINE
  8
0
 62
4
 10
-6.99863238E+01
 20
3.97534608E+01
 11
-6.96159816E+01
 21
4.03949124E+01
  0
LINE
  8
0
 62
4
 10
-2.59887431E+01
 20
4.97949132E+01
 11
-2.59887431E+01
 21
3.77949137E+01
  0
LINE
  8
0
 62
4
 10
-2.19887469E+01
 20
4.97949132E+01
 11
-2.19887469E+01
 21
3.77949137E+01
  0
LINE
  8
0
 62
7
 10
-6.39266256E+00
 20
4.92949128E+01
 11
1.10733744E+00
 21
4.92949128E+01
  0
LINE
  8
0
 62
7
 10
-2.19887469E+01
 20
4.87949128E+01
 11
-1.93926623E+01
 21
4.87949128E+01
  0
LINE
  8
0
 62
7
 10
-1.93926623E+01
 20
5.07949142E+01
 11
-6.39266256E+00
 21
5.07949142E+01
  0
LINE
  8
0
 62
2
 10
-2.19887469E+01
 20
4.82949128E+01
 11
-2.08926623E+01
 21
4.82949128E+01
  0
LINE
  8
0
 62
2
 10
-2.70926593E+01
 20
4.82949128E+01
 11
-2.59887431E+01
 21
4.82949128E+01
  0
LINE
  8
0
 62
7
 10
-2.65926620E+01
 20
3.87949129E+01
 11
-2.73926618E+01
 21
3.95949127E+01
  0
LINE
  8
0
 62
2
 10
-2.19887469E+01
 20
3.92949147E+01
 11
-2.08926623E+01
 21
3.92949147E+01
  0
LINE
  8
0
 62
7
 10
-2.19887469E+01
 20
3.87949147E+01
 11
-1.93926623E+01
 21
3.87949147E+01
  0
LINE
  8
0
 62
2
 10
-2.70926631E+01
 20
3.92949147E+01
 11
-2.59887431E+01
 21
3.92949147E+01
  0
LINE
  8
0
 62
7
 10
-2.65926631E+01
 20
3.87949147E+01
 11
-2.59887431E+01
 21
3.87949147E+01
  0
LINE
  8
0
 62
7
 10
-1.93926623E+01
 20
3.67949137E+01
 11
-6.39266256E+00
 21
3.67949137E+01
  0
LINE
  8
0
 62
7
 10
-6.06567633E+01
 20
4.62197852E+01
 11
-2.73926585E+01
 21
4.62197852E+01
  0
LINE
  8
0
 62
7
 10
-6.06567633E+01
 20
4.50073494E+01
 11
-2.73926585E+01
 21
4.50073494E+01
  0
LINE
  8
0
 62
7
 10
-6.06567633E+01
 20
4.25824781E+01
 11
-2.73926585E+01
 21
4.25824781E+01
  0
LINE
  8
0
 62
7
 10
-6.13926604E+01
 20
4.57949137E+01
 11
-6.13926604E+01
 21
4.17949138E+01
  0
LINE
  8
0
 62
7
 10
-6.13926562E+01
 20
4.57949143E+01
 11
-6.06567606E+01
 21
4.62197839E+01
  0
LINE
  8
0
 62
7
 10
-6.13926568E+01
 20
4.17949130E+01
 11
-6.06567595E+01
 21
4.13700425E+01
  0
LINE
  8
0
 62
7
 10
-6.06567633E+01
 20
4.13700424E+01
 11
-2.73926585E+01
 21
4.13700424E+01
  0
LINE
  8
0
 62
4
 10
-2.53887446E+01
 20
5.18778180E+01
 11
-2.25887454E+01
 21
5.18778180E+01
  0
LINE
  8
0
 62
4
 10
-2.53887408E+01
 20
4.78363656E+01
 11
-2.25887454E+01
 21
4.78363656E+01
  0
LINE
  8
0
 62
4
 10
-2.53887446E+01
 20
3.97534624E+01
 11
-2.25887454E+01
 21
3.97534624E+01
  0
LINE
  8
0
 62
4
 10
-2.53887446E+01
 20
3.57120108E+01
 11
-2.25887454E+01
 21
3.57120108E+01
  0
LINE
  8
0
 62
7
 10
-1.78926623E+01
 20
4.86167392E+01
 11
-7.89266268E+00
 21
4.86167392E+01
  0
LINE
  8
0
 62
7
 10
-1.78926623E+01
 20
3.89730887E+01
 11
-7.89266268E+00
 21
3.89730887E+01
  0
LINE
  8
0
 62
7
 10
-1.78926623E+01
 20
5.07949142E+01
 11
-1.78926623E+01
 21
4.86167392E+01
  0
LINE
  8
0
 62
7
 10
-1.78926623E+01
 20
3.89730887E+01
 11
-1.78926623E+01
 21
3.67949137E+01
  0
LINE
  8
0
 62
7
 10
-7.89266268E+00
 20
5.07949142E+01
 11
-7.89266268E+00
 21
4.86167392E+01
  0
LINE
  8
0
 62
7
 10
-7.89266268E+00
 20
3.89730887E+01
 11
-7.89266268E+00
 21
3.67949137E+01
  0
LINE
  8
0
 62
7
 10
-7.66926635E+01
 20
4.57949137E+01
 11
-7.28159926E+01
 21
4.57949137E+01
  0
LINE
  8
0
 62
7
 10
-2.65926631E+01
 20
4.87949128E+01
 11
-2.59887431E+01
 21
4.87949128E+01
  0
CIRCLE
  8
0
 62
2
 10
-1.08926627E+01
 20
4.37949137E+01
 40
2.50000000E+00
  0
CIRCLE
  8
0
 62
7
 10
-1.08926627E+01
 20
4.37949137E+01
 40
2.00000000E+00
  0
ARC
  8
0
 62
4
 10
-6.71179030E+01
 20
4.37949137E+01
 40
5.69808722E+00
 50
1.59229086E+02
 51
2.00770911E+02
  0
ARC
  8
0
 62
4
 10
-7.53140776E+01
 20
4.37949137E+01
 40
5.69808722E+00
 50
3.39229087E+02
 51
2.07709126E+01
  0
ARC
  8
0
 62
4
 10
-7.12525924E+01
 20
4.68260025E+01
 40
1.56340027E+00
 50
1.39739796E+02
 51
2.20260214E+02
  0
ARC
  8
0
 62
4
 10
-7.11793883E+01
 20
4.07638250E+01
 40
1.56340027E+00
 50
3.19739791E+02
 51
4.02602086E+01
  0
ARC
  8
0
 62
4
 10
-7.12525924E+01
 20
4.07638250E+01
 40
1.56340027E+00
 50
1.39739796E+02
 51
2.20260214E+02
  0
ARC
  8
0
 62
4
 10
-7.11793883E+01
 20
4.68260025E+01
 40
1.56340027E+00
 50
3.19739791E+02
 51
4.02602086E+01
  0
ARC
  8
0
 62
7
 10
-6.00259307E+01
 20
4.37949137E+01
 40
1.36672843E+00
 50
1.17487955E+02
 51
2.42512041E+02
  0
ARC
  8
0
 62
4
 10
-2.22859652E+01
 20
4.98570918E+01
 40
3.70277786E+00
 50
1.46925265E+02
 51
2.13074732E+02
  0
ARC
  8
0
 62
4
 10
-1.20776317E+01
 20
4.37949137E+01
 40
1.39111109E+01
 50
1.63110928E+02
 51
1.96889068E+02
  0
ARC
  8
0
 62
4
 10
-2.22859652E+01
 20
3.77327360E+01
 40
3.70277786E+00
 50
1.46925265E+02
 51
2.13074732E+02
  0
ARC
  8
0
 62
4
 10
-2.56915248E+01
 20
3.77327360E+01
 40
3.70277786E+00
 50
3.26925270E+02
 51
3.30747300E+01
  0
ARC
  8
0
 62
4
 10
-2.56915248E+01
 20
4.98570918E+01
 40
3.70277786E+00
 50
3.26925270E+02
 51
3.30747300E+01
  0
ARC
  8
0
 62
4
 10
-3.58998568E+01
 20
4.37949137E+01
 40
1.39111109E+01
 50
3.43110928E+02
 51
1.68890719E+01
  0
ARC
  8
0
 62
7
 10
-1.08926627E+01
 20
4.37949137E+01
 40
8.50000000E+00
 50
1.45439685E+02
 51
2.14560325E+02
  0
ARC
  8
0
 62
7
 10
-1.48926628E+01
 20
4.37949137E+01
 40
8.50000000E+00
 50
3.25439676E+02
 51
3.45603235E+01
  0
ARC
  8
0
 62
7
 10
-6.07750151E+01
 20
4.56135678E+01
 40
6.17644012E-01
 50
1.61038020E+02
 51
2.81038023E+02
  0
ARC
  8
0
 62
7
 10
-6.07750151E+01
 20
4.19762607E+01
 40
6.17644012E-01
 50
7.89619728E+01
 51
1.98961976E+02
  0
ARC
  8
0
 62
4
 10
9.60567179E+00
 20
6.02932481E+01
 40
1.00166704E+00
 50
9.52762946E-02
 51
8.99047236E+01
  0
ARC
  8
0
 62
4
 10
6.60812893E+00
 20
6.02941222E+01
 40
1.00079180E+00
 50
9.00000002E+01
 51
1.79954687E+02
  0
LINE
  8
0
 62
4
 10
6.60733744E+00
 20
6.12949137E+01
 11
9.60733744E+00
 21
6.12949137E+01
  0
LINE
  8
0
 62
6
 10
2.85443365E+01
 20
5.33949137E+01
 11
2.59443365E+01
 21
5.07949137E+01
  0
LINE
  8
0
 62
4
 10
2.36073374E+01
 20
5.33949137E+01
 11
2.36073374E+01
 21
5.07949137E+01
  0
LINE
  8
0
 62
4
 10
2.06073374E+01
 20
5.40949137E+01
 11
2.06073374E+01
 21
5.00949137E+01
  0
LINE
  8
0
 62
4
 10
2.06073374E+01
 20
5.40949137E+01
 11
2.36073374E+01
 21
5.33949137E+01
  0
LINE
  8
0
 62
4
 10
2.06073374E+01
 20
5.00949137E+01
 11
2.36073374E+01
 21
5.07949137E+01
  0
LINE
  8
0
 62
4
 10
2.36073374E+01
 20
5.07949137E+01
 11
2.59443365E+01
 21
5.07949137E+01
  0
LINE
  8
0
 62
4
 10
2.36073374E+01
 20
5.33949137E+01
 11
2.85443365E+01
 21
5.33949137E+01
  0
LINE
  8
0
 62
4
 10
1.26073374E+01
 20
4.87949137E+01
 11
1.51073374E+01
 21
4.87949137E+01
  0
LINE
  8
0
 62
4
 10
1.10733744E+00
 20
4.87949137E+01
 11
3.60733744E+00
 21
4.87949137E+01
  0
LINE
  8
0
 62
4
 10
1.10733744E+00
 20
5.50949137E+01
 11
1.10733744E+00
 21
5.22949137E+01
  0
LINE
  8
0
 62
4
 10
1.51073374E+01
 20
5.50949137E+01
 11
1.51073374E+01
 21
5.22949137E+01
  0
LINE
  8
0
 62
4
 10
-4.39266256E+00
 20
5.10949137E+01
 11
-3.39266256E+00
 21
5.00949137E+01
  0
LINE
  8
0
 62
4
 10
-4.39266256E+00
 20
5.30949137E+01
 11
-3.39266256E+00
 21
5.40949137E+01
  0
LINE
  8
0
 62
4
 10
-3.39266256E+00
 20
5.40949137E+01
 11
-3.39266256E+00
 21
5.00949137E+01
  0
LINE
  8
0
 62
4
 10
5.60733744E+00
 20
5.97949137E+01
 11
1.06073374E+01
 21
5.97949137E+01
  0
LINE
  8
0
 62
4
 10
-3.39266256E+00
 20
5.00949137E+01
 11
1.10733744E+00
 21
5.00949137E+01
  0
LINE
  8
0
 62
4
 10
-4.39266256E+00
 20
5.30949137E+01
 11
-4.39266256E+00
 21
5.10949137E+01
  0
LINE
  8
0
 62
4
 10
3.60733744E+00
 20
3.81449137E+01
 11
1.26073374E+01
 21
3.81449137E+01
  0
LINE
  8
0
 62
4
 10
1.26073374E+01
 20
5.22949137E+01
 11
1.51073374E+01
 21
5.22949137E+01
  0
LINE
  8
0
 62
4
 10
3.60733744E+00
 20
5.87949137E+01
 11
1.26073374E+01
 21
5.87949137E+01
  0
LINE
  8
0
 62
4
 10
3.60733744E+00
 20
5.22949137E+01
 11
3.60733744E+00
 21
3.81449137E+01
  0
LINE
  8
0
 62
4
 10
1.26073374E+01
 20
5.22949137E+01
 11
1.26073374E+01
 21
3.81449137E+01
  0
LINE
  8
0
 62
4
 10
1.10733744E+00
 20
5.40949137E+01
 11
-3.39266256E+00
 21
5.40949137E+01
  0
LINE
  8
0
 62
4
 10
9.60733744E+00
 20
5.97949137E+01
 11
9.60733744E+00
 21
5.87949137E+01
  0
LINE
  8
0
 62
4
 10
6.60733744E+00
 20
5.97949137E+01
 11
6.60733744E+00
 21
5.87949137E+01
  0
LINE
  8
0
 62
6
 10
9.33733744E+00
 20
5.97949137E+01
 11
9.33733744E+00
 21
5.87949137E+01
  0
LINE
  8
0
 62
6
 10
6.87733744E+00
 20
5.97949137E+01
 11
6.87733744E+00
 21
5.87949137E+01
  0
LINE
  8
0
 62
4
 10
3.60733743E+00
 20
3.81488610E+01
 11
1.26073374E+01
 21
3.81488610E+01
  0
LINE
  8
0
 62
4
 10
1.10733743E+00
 20
5.18949137E+01
 11
3.60733744E+00
 21
5.18949137E+01
  0
LINE
  8
0
 62
4
 10
1.10733743E+00
 20
5.22949137E+01
 11
3.60733744E+00
 21
5.22949137E+01
  0
LINE
  8
0
 62
4
 10
1.10733743E+00
 20
5.50949137E+01
 11
3.60733744E+00
 21
5.50949137E+01
  0
LINE
  8
0
 62
4
 10
1.26073374E+01
 20
5.50949137E+01
 11
1.51073374E+01
 21
5.50949137E+01
  0
LINE
  8
0
 62
4
 10
1.26073374E+01
 20
5.18949137E+01
 11
1.51073374E+01
 21
5.18949137E+01
  0
LINE
  8
0
 62
4
 10
1.26073374E+01
 20
5.22949137E+01
 11
1.26073374E+01
 21
5.87949137E+01
  0
LINE
  8
0
 62
4
 10
3.60733744E+00
 20
5.22949137E+01
 11
3.60733744E+00
 21
5.87949137E+01
  0
LINE
  8
0
 62
4
 10
3.60733744E+00
 20
5.22949137E+01
 11
1.26073374E+01
 21
5.22949137E+01
  0
LINE
  8
0
 62
4
 10
1.51073374E+01
 20
5.18949137E+01
 11
1.51073374E+01
 21
4.87949137E+01
  0
LINE
  8
0
 62
4
 10
1.10733744E+00
 20
5.18949137E+01
 11
1.10733744E+00
 21
4.87949137E+01
  0
LINE
  8
0
 62
4
 10
1.51073374E+01
 20
5.00949137E+01
 11
2.06073374E+01
 21
5.00949137E+01
  0
LINE
  8
0
 62
4
 10
1.51073374E+01
 20
5.40949137E+01
 11
2.06073374E+01
 21
5.40949137E+01
  0
LINE
  8
0
  6
CENTER
 62
6
 10
8.10733744E+00
 20
6.38049137E+01
 11
8.10733744E+00
 21
3.63749137E+01
  0
LINE
  8
0
 62
4
 10
1.06073374E+01
 20
6.02949137E+01
 11
1.06073374E+01
 21
5.97949137E+01
  0
LINE
  8
0
 62
4
 10
5.60733744E+00
 20
6.02949137E+01
 11
5.60733744E+00
 21
5.97949137E+01
  0
LINE
  8
0
 62
4
 10
-1.03806298E+02
 20
5.60949128E+01
 11
-1.00806298E+02
 21
5.60949128E+01
  0
LINE
  8
0
 62
4
 10
-9.00062994E+01
 20
4.52949137E+01
 11
-9.00062994E+01
 21
4.22949137E+01
  0
LINE
  8
0
 62
4
 10
-9.51062994E+01
 20
4.27449137E+01
 11
-9.51062994E+01
 21
4.48449137E+01
  0
LINE
  8
0
 62
4
 10
-9.51062994E+01
 20
4.27449137E+01
 11
-9.53062984E+01
 21
4.25449147E+01
  0
LINE
  8
0
 62
4
 10
-9.51062994E+01
 20
4.48449137E+01
 11
-9.53062984E+01
 21
4.50449128E+01
  0
LINE
  8
0
 62
4
 10
-9.51562994E+01
 20
4.86249137E+01
 11
-9.51417667E+01
 21
4.87742081E+01
  0
LINE
  8
0
 62
4
 10
-9.51562994E+01
 20
4.86249137E+01
 11
-9.53231822E+01
 21
4.86411584E+01
  0
LINE
  8
0
 62
4
 10
-9.45062994E+01
 20
4.72949137E+01
 11
-9.45062994E+01
 21
4.80949137E+01
  0
LINE
  8
0
 62
4
 10
-9.38062994E+01
 20
3.94949137E+01
 11
-9.38062994E+01
 21
4.02949137E+01
  0
LINE
  8
0
 62
4
 10
-9.38062994E+01
 20
4.02949137E+01
 11
-9.53062982E+01
 21
3.98776425E+01
  0
LINE
  8
0
 62
4
 10
-9.38062994E+01
 20
4.04449137E+01
 11
-9.53062982E+01
 21
4.00288582E+01
  0
LINE
  8
0
 62
4
 10
-9.42062994E+01
 20
4.05449137E+01
 11
-9.42062994E+01
 21
4.17449137E+01
  0
LINE
  8
0
 62
4
 10
-9.38062994E+01
 20
4.05449137E+01
 11
-9.38062994E+01
 21
4.17449137E+01
  0
LINE
  8
0
 62
4
 10
-9.42062994E+01
 20
4.05449137E+01
 11
-9.53062982E+01
 21
4.05449137E+01
  0
ARC
  8
0
 62
4
 10
-8.57986726E+01
 20
4.53025404E+01
 40
9.92402587E-01
 50
3.59559672E+02
 51
9.04403286E+01
  0
ARC
  8
0
 62
4
 10
-8.58064289E+01
 20
4.22950433E+01
 40
1.00012957E+00
 50
2.70000000E+02
 51
3.59992577E+02
  0
ARC
  8
0
 62
4
 10
-8.80986742E+01
 20
4.73025389E+01
 40
7.92411497E-01
 50
3.59448647E+02
 51
9.05513523E+01
  0
ARC
  8
0
 62
4
 10
-8.81064377E+01
 20
4.02950521E+01
 40
8.00138358E-01
 50
2.70000000E+02
 51
3.59990093E+02
  0
ARC
  8
0
 62
4
 10
-8.85986742E+01
 20
4.68025389E+01
 40
4.92433852E-01
 50
3.59112757E+02
 51
9.08872431E+01
  0
ARC
  8
0
 62
4
 10
-8.86064595E+01
 20
4.07950739E+01
 40
5.00160181E-01
 50
2.70000000E+02
 51
3.59981653E+02
  0
LINE
  8
0
 62
4
 10
-8.88062994E+01
 20
4.52949137E+01
 11
-9.00062994E+01
 21
4.52949137E+01
  0
LINE
  8
0
 62
6
 10
-8.88062994E+01
 20
4.50249137E+01
 11
-9.02762994E+01
 21
4.50249137E+01
  0
LINE
  8
0
 62
6
 10
-8.88062994E+01
 20
4.25649137E+01
 11
-9.02762994E+01
 21
4.25649137E+01
  0
LINE
  8
0
 62
4
 10
-8.88062994E+01
 20
4.22949137E+01
 11
-9.00062994E+01
 21
4.22949137E+01
  0
LINE
  8
0
 62
4
 10
-8.48062994E+01
 20
4.22949137E+01
 11
-8.48062994E+01
 21
4.52949137E+01
  0
LINE
  8
0
 62
4
 10
-8.58062994E+01
 20
4.12949137E+01
 11
-8.63062994E+01
 21
4.12949137E+01
  0
LINE
  8
0
 62
4
 10
-8.58062994E+01
 20
4.62949137E+01
 11
-8.63062994E+01
 21
4.62949137E+01
  0
LINE
  8
0
 62
6
 10
-8.63062994E+01
 20
4.25649137E+01
 11
-8.73062994E+01
 21
4.25649137E+01
  0
LINE
  8
0
 62
6
 10
-8.63062994E+01
 20
4.50249137E+01
 11
-8.73062994E+01
 21
4.50249137E+01
  0
LINE
  8
0
 62
4
 10
-8.63062994E+01
 20
4.52949137E+01
 11
-8.73062994E+01
 21
4.52949137E+01
  0
LINE
  8
0
 62
4
 10
-8.63062994E+01
 20
4.22949137E+01
 11
-8.73062994E+01
 21
4.22949137E+01
  0
LINE
  8
0
 62
4
 10
-9.18157055E+01
 20
4.89528055E+01
 11
-9.13762994E+01
 21
4.96949137E+01
  0
LINE
  8
0
 62
4
 10
-9.09348667E+01
 20
4.88670628E+01
 11
-9.09162994E+01
 21
4.88949137E+01
  0
LINE
  8
0
 62
4
 10
-8.86062994E+01
 20
4.02949137E+01
 11
-8.86062994E+01
 21
4.04449137E+01
  0
LINE
  8
0
 62
4
 10
-9.13762994E+01
 20
4.80949137E+01
 11
-9.12114605E+01
 21
4.83916237E+01
  0
LINE
  8
0
 62
4
 10
-8.90062994E+01
 20
4.88949137E+01
 11
-9.09162994E+01
 21
4.88949137E+01
  0
LINE
  8
0
 62
4
 10
-8.90062994E+01
 20
4.88949137E+01
 11
-8.90062994E+01
 21
4.96949137E+01
  0
LINE
  8
0
 62
4
 10
-8.90062994E+01
 20
4.96949137E+01
 11
-9.13762994E+01
 21
4.96949137E+01
  0
LINE
  8
0
 62
4
 10
-9.23062994E+01
 20
4.80949137E+01
 11
-9.20836908E+01
 21
4.84765285E+01
  0
LINE
  8
0
 62
4
 10
-8.81062994E+01
 20
4.17349137E+01
 11
-8.88062994E+01
 21
4.17949137E+01
  0
LINE
  8
0
 62
4
 10
-8.81062994E+01
 20
4.58549137E+01
 11
-8.88062994E+01
 21
4.57949137E+01
  0
LINE
  8
0
 62
4
 10
-8.81062994E+01
 20
4.07949137E+01
 11
-8.81062994E+01
 21
4.67949137E+01
  0
LINE
  8
0
 62
4
 10
-8.88062994E+01
 20
4.17949137E+01
 11
-8.88062994E+01
 21
4.57949137E+01
  0
LINE
  8
0
 62
4
 10
-8.73062994E+01
 20
4.02949137E+01
 11
-8.73062994E+01
 21
4.72949137E+01
  0
LINE
  8
0
 62
4
 10
-8.63062994E+01
 20
4.12949137E+01
 11
-8.63062994E+01
 21
4.62949137E+01
  0
LINE
  8
0
 62
4
 10
-9.10062994E+01
 20
4.05449137E+01
 11
-9.10062994E+01
 21
4.70449137E+01
  0
LINE
  8
0
 62
4
 10
-9.17062994E+01
 20
4.27949137E+01
 11
-9.17062994E+01
 21
4.47949137E+01
  0
LINE
  8
0
 62
4
 10
-9.17062994E+01
 20
4.47949137E+01
 11
-9.20062994E+01
 21
4.47949137E+01
  0
LINE
  8
0
 62
4
 10
-9.17062994E+01
 20
4.27949137E+01
 11
-9.20062994E+01
 21
4.27949137E+01
  0
LINE
  8
0
 62
4
 10
-9.20062994E+01
 20
4.17449137E+01
 11
-9.20062994E+01
 21
4.58449137E+01
  0
LINE
  8
0
 62
4
 10
-9.03062994E+01
 20
4.05449137E+01
 11
-9.03062994E+01
 21
4.70449137E+01
  0
LINE
  8
0
 62
4
 10
-8.86723449E+01
 20
4.81444608E+01
 11
-8.86239028E+01
 21
4.86421087E+01
  0
LINE
  8
0
 62
4
 10
-9.00062994E+01
 20
4.52949137E+01
 11
-9.03062994E+01
 21
4.49949137E+01
  0
LINE
  8
0
 62
4
 10
-9.00062994E+01
 20
4.22949137E+01
 11
-9.03062994E+01
 21
4.25949137E+01
  0
LINE
  8
0
 62
4
 10
-9.30062994E+01
 20
4.27449137E+01
 11
-9.30062994E+01
 21
4.48449137E+01
  0
LINE
  8
0
 62
4
 10
-9.30062994E+01
 20
4.48449137E+01
 11
-9.20062994E+01
 21
4.58449137E+01
  0
LINE
  8
0
 62
4
 10
-9.30062994E+01
 20
4.27449137E+01
 11
-9.20062994E+01
 21
4.17449137E+01
  0
LINE
  8
0
 62
4
 10
-9.30062994E+01
 20
4.48449137E+01
 11
-9.51062994E+01
 21
4.48449137E+01
  0
LINE
  8
0
 62
4
 10
-9.30062994E+01
 20
4.27449137E+01
 11
-9.51062994E+01
 21
4.27449137E+01
  0
LINE
  8
0
 62
4
 10
-8.86239028E+01
 20
4.86421087E+01
 11
-9.58705680E+01
 21
4.93475144E+01
  0
LINE
  8
0
 62
4
 10
-8.86723449E+01
 20
4.81444608E+01
 11
-9.54383834E+01
 21
4.88030813E+01
  0
LINE
  8
0
 62
4
 10
-9.03062994E+01
 20
4.70449137E+01
 11
-9.53062982E+01
 21
4.70449137E+01
  0
LINE
  8
0
 62
4
 10
-9.03062994E+01
 20
4.05449137E+01
 11
-9.38062994E+01
 21
4.05449137E+01
  0
LINE
  8
0
 62
4
 10
-9.20062994E+01
 20
4.58449137E+01
 11
-9.53062982E+01
 21
4.58449137E+01
  0
LINE
  8
0
 62
4
 10
-9.20062994E+01
 20
4.17449137E+01
 11
-9.53062982E+01
 21
4.17449137E+01
  0
LINE
  8
0
 62
4
 10
-8.86062994E+01
 20
4.72949137E+01
 11
-9.45062994E+01
 21
4.72949137E+01
  0
LINE
  8
0
 62
4
 10
-8.86062994E+01
 20
4.02949137E+01
 11
-9.38062994E+01
 21
4.02949137E+01
  0
LINE
  8
0
 62
4
 10
-8.81062994E+01
 20
4.80949137E+01
 11
-9.45062994E+01
 21
4.80949137E+01
  0
LINE
  8
0
 62
4
 10
-8.81062994E+01
 20
3.94949137E+01
 11
-9.38062994E+01
 21
3.94949137E+01
  0
LINE
  8
0
 62
4
 10
-8.86062994E+01
 20
4.04449137E+01
 11
-9.38062994E+01
 21
4.04449137E+01
  0
LINE
  8
0
 62
4
 10
-1.01256298E+02
 20
5.30949128E+01
 11
-1.00256298E+02
 21
5.40949128E+01
  0
LINE
  8
0
 62
4
 10
-1.03356298E+02
 20
5.30949128E+01
 11
-1.04356298E+02
 21
5.40949128E+01
  0
LINE
  8
0
 62
4
 10
-1.03356298E+02
 20
5.30949128E+01
 11
-1.03356298E+02
 21
5.12716000E+01
  0
LINE
  8
0
 62
4
 10
-1.01256298E+02
 20
5.30949128E+01
 11
-1.03356298E+02
 21
5.30949128E+01
  0
LINE
  8
0
 62
4
 10
-1.01256298E+02
 20
5.30949128E+01
 11
-1.01256298E+02
 21
5.12715980E+01
  0
LINE
  8
0
 62
4
 10
-1.00806298E+02
 20
5.60949128E+01
 11
-1.01106298E+02
 21
5.57949128E+01
  0
LINE
  8
0
 62
4
 10
-1.03806298E+02
 20
5.60949128E+01
 11
-1.03506298E+02
 21
5.57949128E+01
  0
LINE
  8
0
 62
4
 10
-1.06655846E+02
 20
5.74288672E+01
 11
-1.07153493E+02
 21
5.74773093E+01
  0
LINE
  8
0
 62
4
 10
-1.07153493E+02
 20
5.74773093E+01
 11
-1.07858899E+02
 21
5.02306441E+01
  0
LINE
  8
0
 62
4
 10
-1.07136298E+02
 20
5.09449128E+01
 11
-1.07285593E+02
 21
5.09594454E+01
  0
LINE
  8
0
 62
4
 10
-1.06655846E+02
 20
5.74288672E+01
 11
-1.07314466E+02
 21
5.06628287E+01
  0
LINE
  8
0
 62
4
 10
-1.07136298E+02
 20
5.09449128E+01
 11
-1.07152543E+02
 21
5.07780299E+01
  0
LINE
  8
0
 62
4
 10
-9.88062984E+01
 20
5.22949128E+01
 11
-9.83890272E+01
 21
5.07949139E+01
  0
LINE
  8
0
 62
4
 10
-9.89562984E+01
 20
5.22949128E+01
 11
-9.85402429E+01
 21
5.07949139E+01
  0
LINE
  8
0
 62
4
 10
-1.05556298E+02
 20
5.57949128E+01
 11
-1.05556298E+02
 21
5.07949139E+01
  0
LINE
  8
0
 62
4
 10
-9.90562984E+01
 20
5.57949128E+01
 11
-9.90562984E+01
 21
5.22949128E+01
  0
LINE
  8
0
 62
4
 10
-9.90562984E+01
 20
5.57949128E+01
 11
-1.05556298E+02
 21
5.57949128E+01
  0
LINE
  8
0
 62
4
 10
-1.04356298E+02
 20
5.40949128E+01
 11
-1.04356298E+02
 21
5.07949139E+01
  0
LINE
  8
0
 62
4
 10
-1.00256298E+02
 20
5.40949128E+01
 11
-1.04356298E+02
 21
5.40949128E+01
  0
LINE
  8
0
 62
4
 10
-1.01306298E+02
 20
5.43949128E+01
 11
-1.01306298E+02
 21
5.40949128E+01
  0
LINE
  8
0
 62
4
 10
-1.03306298E+02
 20
5.43949128E+01
 11
-1.03306298E+02
 21
5.40949128E+01
  0
LINE
  8
0
 62
4
 10
-1.01306298E+02
 20
5.43949128E+01
 11
-1.03306298E+02
 21
5.43949128E+01
  0
LINE
  8
0
 62
4
 10
-9.90562984E+01
 20
5.50949128E+01
 11
-1.05556298E+02
 21
5.50949128E+01
  0
LINE
  8
0
 62
4
 10
-9.90562984E+01
 20
5.18949128E+01
 11
-1.00256298E+02
 21
5.18949128E+01
  0
LINE
  8
0
 62
4
 10
-9.90562984E+01
 20
5.22949128E+01
 11
-1.00256298E+02
 21
5.22949128E+01
  0
LINE
  8
0
 62
4
 10
-9.90562984E+01
 20
5.18949128E+01
 11
-9.90562984E+01
 21
5.07949139E+01
  0
LINE
  8
0
 62
4
 10
-1.00256298E+02
 20
5.40949128E+01
 11
-1.00256298E+02
 21
5.07949139E+01
  0
LINE
  8
0
 62
4
 10
-1.05806298E+02
 20
5.74949128E+01
 11
-1.05806298E+02
 21
5.15949128E+01
  0
LINE
  8
0
 62
4
 10
-9.88062984E+01
 20
5.74949128E+01
 11
-9.88062984E+01
 21
5.22949128E+01
  0
LINE
  8
0
 62
4
 10
-9.98062984E+01
 20
5.97949128E+01
 11
-1.04806298E+02
 21
5.97949128E+01
  0
LINE
  8
0
 62
4
 10
-9.88062984E+01
 20
5.87949128E+01
 11
-1.05806298E+02
 21
5.87949128E+01
  0
LINE
  8
0
 62
4
 10
-1.00306298E+02
 20
5.72949128E+01
 11
-1.04306298E+02
 21
5.72949128E+01
  0
LINE
  8
0
 62
4
 10
-9.93062984E+01
 20
5.79949128E+01
 11
-1.05306298E+02
 21
5.79949128E+01
  0
LINE
  8
0
 62
4
 10
-1.06606298E+02
 20
5.79949128E+01
 11
-1.06606298E+02
 21
5.15949128E+01
  0
LINE
  8
0
 62
4
 10
-9.80062984E+01
 20
5.79949128E+01
 11
-9.80062984E+01
 21
5.22949128E+01
  0
LINE
  8
0
 62
4
 10
-1.04366298E+02
 20
5.79949128E+01
 11
-1.04306298E+02
 21
5.72949128E+01
  0
LINE
  8
0
 62
4
 10
-1.00246298E+02
 20
5.79949128E+01
 11
-1.00306298E+02
 21
5.72949128E+01
  0
LINE
  8
0
 62
4
 10
-9.80062984E+01
 20
5.22949128E+01
 11
-9.88062984E+01
 21
5.22949128E+01
  0
LINE
  8
0
 62
4
 10
-1.05806298E+02
 20
5.15949128E+01
 11
-1.06606298E+02
 21
5.15949128E+01
  0
LINE
  8
0
 62
4
 10
-1.06606298E+02
 20
5.37949128E+01
 11
-1.06987913E+02
 21
5.40175214E+01
  0
LINE
  8
0
 62
4
 10
-1.08206298E+02
 20
5.70949128E+01
 11
-1.08206298E+02
 21
5.47249128E+01
  0
LINE
  8
0
 62
4
 10
-1.07406298E+02
 20
5.70949128E+01
 11
-1.08206298E+02
 21
5.70949128E+01
  0
LINE
  8
0
 62
4
 10
-1.07406298E+02
 20
5.70949128E+01
 11
-1.07406298E+02
 21
5.51849128E+01
  0
LINE
  8
0
 62
4
 10
-1.06606298E+02
 20
5.47249128E+01
 11
-1.06903008E+02
 21
5.48897516E+01
  0
LINE
  8
0
 62
4
 10
-9.89562984E+01
 20
5.74949128E+01
 11
-9.89562984E+01
 21
5.22949128E+01
  0
LINE
  8
0
 62
4
 10
-9.88062984E+01
 20
5.74949128E+01
 11
-9.89562984E+01
 21
5.74949128E+01
  0
LINE
  8
0
 62
4
 10
-1.07378447E+02
 20
5.51663455E+01
 11
-1.07406298E+02
 21
5.51849128E+01
  0
LINE
  8
0
 62
4
 10
-1.07464190E+02
 20
5.42855066E+01
 11
-1.08206298E+02
 21
5.47249128E+01
  0
LINE
  8
0
 62
4
 10
-1.00806298E+02
 20
5.97949128E+01
 11
-1.00806298E+02
 21
5.87949128E+01
  0
LINE
  8
0
 62
4
 10
-1.03806298E+02
 20
5.97949128E+01
 11
-1.03806298E+02
 21
5.87949128E+01
  0
LINE
  8
0
 62
6
 10
-1.03536298E+02
 20
5.97949128E+01
 11
-1.03536298E+02
 21
5.87949128E+01
  0
LINE
  8
0
 62
6
 10
-1.01076298E+02
 20
5.97949128E+01
 11
-1.01076298E+02
 21
5.87949128E+01
  0
LINE
  8
0
 62
4
 10
-1.04806298E+02
 20
6.02949128E+01
 11
-1.04806298E+02
 21
5.97949128E+01
  0
LINE
  8
0
 62
4
 10
-9.98062984E+01
 20
6.02949128E+01
 11
-9.98062984E+01
 21
5.97949128E+01
  0
LINE
  8
0
 62
4
 10
-1.00806298E+02
 20
6.12949128E+01
 11
-1.03806298E+02
 21
6.12949128E+01
  0
LINE
  8
0
 62
4
 10
-1.00806298E+02
 20
5.72949128E+01
 11
-1.00806298E+02
 21
5.60949128E+01
  0
LINE
  8
0
 62
6
 10
-1.01076298E+02
 20
5.72949128E+01
 11
-1.01076298E+02
 21
5.58249128E+01
  0
LINE
  8
0
 62
6
 10
-1.03536298E+02
 20
5.72949128E+01
 11
-1.03536298E+02
 21
5.58249128E+01
  0
LINE
  8
0
 62
4
 10
-1.03806298E+02
 20
5.72949128E+01
 11
-1.03806298E+02
 21
5.60949128E+01
  0
ARC
  8
0
 62
4
 10
-9.93064586E+01
 20
5.74947526E+01
 40
5.00160181E-01
 50
1.83465799E-02
 51
9.00000002E+01
  0
ARC
  8
0
 62
4
 10
-1.05313924E+02
 20
5.75025379E+01
 40
4.92433852E-01
 50
8.91127567E+01
 51
1.80887243E+02
  0
ARC
  8
0
 62
4
 10
-9.88064368E+01
 20
5.79947744E+01
 40
8.00138358E-01
 50
9.90662024E-03
 51
9.00000002E+01
  0
ARC
  8
0
 62
4
 10
-1.05813924E+02
 20
5.80025379E+01
 40
7.92411497E-01
 50
8.94486475E+01
 51
1.80551352E+02
  0
ARC
  8
0
 62
4
 10
-1.00806428E+02
 20
6.02947832E+01
 40
1.00012957E+00
 50
7.42247612E-03
 51
9.00000002E+01
  0
ARC
  8
0
 62
4
 10
-1.03813925E+02
 20
6.03025395E+01
 40
9.92402587E-01
 50
8.95596718E+01
 51
1.80440329E+02
  0
LINE
  8
0
 62
4
 10
-9.53062984E+01
 20
4.78363638E+01
 11
-9.53062984E+01
 21
3.97534615E+01
  0
LINE
  8
0
 62
7
 10
-9.53062984E+01
 20
3.97534615E+01
 11
-9.53062984E+01
 21
3.89730887E+01
  0
LINE
  8
0
 62
7
 10
-1.09306298E+02
 20
3.97534630E+01
 11
-1.09306298E+02
 21
3.89730887E+01
  0
LINE
  8
0
 62
4
 10
-1.09306298E+02
 20
4.78363665E+01
 11
-1.09306298E+02
 21
3.97534630E+01
  0
LINE
  8
0
  6
CENTER
 62
2
 10
-1.10306298E+02
 20
4.37949137E+01
 11
-8.38414483E+01
 21
4.37949137E+01
  0
LINE
  8
0
 62
4
 10
-9.88062984E+01
 20
4.17741875E+01
 11
-9.88062984E+01
 21
4.58156399E+01
  0
LINE
  8
0
  6
CENTER
 62
2
 10
-1.02306298E+02
 20
6.21589179E+01
 11
-1.02306298E+02
 21
3.57949137E+01
  0
LINE
  8
0
 62
4
 10
-1.05806302E+02
 20
4.17741926E+01
 11
-1.02306296E+02
 21
3.97534635E+01
  0
LINE
  8
0
 62
4
 10
-1.05806298E+02
 20
4.58156399E+01
 11
-1.05806298E+02
 21
4.17741875E+01
  0
LINE
  8
0
 62
4
 10
-1.02306299E+02
 20
3.97534573E+01
 11
-9.88063006E+01
 21
4.17741825E+01
  0
LINE
  8
0
 62
4
 10
-1.02306299E+02
 20
4.78363570E+01
 11
-1.05806297E+02
 21
4.58156317E+01
  0
LINE
  8
0
 62
4
 10
-9.88062964E+01
 20
4.58156412E+01
 11
-1.02306302E+02
 21
4.78363703E+01
  0
LINE
  8
0
 62
7
 10
-1.07128122E+02
 20
5.07949139E+01
 11
-1.04181939E+02
 21
5.07949139E+01
  0
LINE
  8
0
 62
7
 10
-1.07128122E+02
 20
3.67949137E+01
 11
-1.04181939E+02
 21
3.67949137E+01
  0
LINE
  8
0
 62
7
 10
-9.53062984E+01
 20
4.86167392E+01
 11
-9.53062984E+01
 21
4.78363638E+01
  0
LINE
  8
0
 62
7
 10
-1.09306298E+02
 20
4.86167392E+01
 11
-1.09306298E+02
 21
4.78363665E+01
  0
LINE
  8
0
 62
4
 10
-1.09306303E+02
 20
3.97534630E+01
 11
-1.02306299E+02
 21
3.57120087E+01
  0
LINE
  8
0
 62
4
 10
-1.02306303E+02
 20
5.18778185E+01
 11
-9.53062990E+01
 21
4.78363642E+01
  0
LINE
  8
0
 62
4
 10
-1.02306297E+02
 20
3.57120110E+01
 11
-9.53062999E+01
 21
3.97534615E+01
  0
LINE
  8
0
 62
4
 10
-1.09306297E+02
 20
4.78363665E+01
 11
-1.02306300E+02
 21
5.18778170E+01
  0
LINE
  8
0
 62
7
 10
-1.00430658E+02
 20
3.67949137E+01
 11
-9.74844753E+01
 21
3.67949137E+01
  0
LINE
  8
0
 62
7
 10
-1.00430658E+02
 20
5.07949139E+01
 11
-9.74844753E+01
 21
5.07949139E+01
  0
CIRCLE
  8
0
 62
2
 10
-1.02306298E+02
 20
4.37949137E+01
 40
1.65000000E+00
  0
CIRCLE
  8
0
 62
7
 10
-1.02306298E+02
 20
4.37949137E+01
 40
2.00000000E+00
  0
CIRCLE
  8
0
 62
4
 10
-1.02306298E+02
 20
4.37949137E+01
 40
3.50000000E+00
  0
ARC
  8
0
 62
7
 10
-1.02306298E+02
 20
4.37949137E+01
 40
8.50000000E+00
 50
3.45603235E+01
 51
5.54396790E+01
  0
ARC
  8
0
 62
7
 10
-1.02306298E+02
 20
4.37949137E+01
 40
8.50000000E+00
 50
1.24560316E+02
 51
1.45439685E+02
  0
ARC
  8
0
 62
7
 10
-1.02306298E+02
 20
4.37949137E+01
 40
8.50000000E+00
 50
2.14560315E+02
 51
2.35439684E+02
  0
ARC
  8
0
 62
7
 10
-1.02306298E+02
 20
4.37949137E+01
 40
8.50000000E+00
 50
3.04560321E+02
 51
3.25439676E+02
  0
CIRCLE
  8
0
 62
4
 10
-1.02306298E+02
 20
4.37949137E+01
 40
7.00000000E+00
  0
CIRCLE
  8
0
 62
7
 10
-1.02306298E+02
 20
4.37949137E+01
 40
5.00000000E+00
  0
CIRCLE
  8
0
 62
2
 10
-1.02306298E+02
 20
4.37949137E+01
 40
4.40000010E+00
  0
CIRCLE
  8
0
 62
7
 10
9.86937016E+01
 20
4.37949137E+01
 40
5.00000000E-01
  0
LINE
  8
0
 62
7
 10
9.49276461E+01
 20
5.07949139E+01
 11
9.54437016E+01
 21
5.07949139E+01
  0
LINE
  8
0
 62
4
 10
8.63937025E+01
 20
4.52949137E+01
 11
8.63937025E+01
 21
4.22949137E+01
  0
LINE
  8
0
 62
4
 10
9.71937016E+01
 20
5.60949128E+01
 11
1.00193702E+02
 21
5.60949128E+01
  0
LINE
  8
0
 62
7
 10
9.16937016E+01
 20
3.98776425E+01
 11
9.16937016E+01
 21
3.89730887E+01
  0
LINE
  8
0
 62
7
 10
9.16937016E+01
 20
4.05449137E+01
 11
9.16937016E+01
 21
4.00288581E+01
  0
LINE
  8
0
 62
4
 10
9.44029511E+01
 20
4.89032390E+01
 11
9.33937972E+01
 21
4.52649512E+01
  0
LINE
  8
0
 62
4
 10
9.42459510E+01
 20
4.88879563E+01
 11
9.31029937E+01
 21
4.47792741E+01
  0
LINE
  8
0
 62
4
 10
9.36937025E+01
 20
4.60862016E+01
 11
9.36937025E+01
 21
4.65449137E+01
  0
LINE
  8
0
 62
4
 10
9.36937025E+01
 20
4.65449137E+01
 11
9.31937025E+01
 21
4.70449137E+01
  0
LINE
  8
0
 62
4
 10
9.36937025E+01
 20
4.10449137E+01
 11
9.31937025E+01
 21
4.05449137E+01
  0
LINE
  8
0
 62
4
 10
9.36937025E+01
 20
4.10449137E+01
 11
9.36937025E+01
 21
4.15036259E+01
  0
LINE
  8
0
 62
4
 10
9.23937025E+01
 20
4.17449137E+01
 11
9.23937025E+01
 21
4.58449137E+01
  0
LINE
  8
0
 62
4
 10
9.26937025E+01
 20
4.27949137E+01
 11
9.26937025E+01
 21
4.47949137E+01
  0
LINE
  8
0
 62
4
 10
9.23937025E+01
 20
4.47949137E+01
 11
9.26937025E+01
 21
4.47949137E+01
  0
LINE
  8
0
 62
4
 10
9.23937025E+01
 20
4.27949137E+01
 11
9.26937025E+01
 21
4.27949137E+01
  0
LINE
  8
0
 62
4
 10
9.16937025E+01
 20
4.24949137E+01
 11
9.16937025E+01
 21
4.50949137E+01
  0
LINE
  8
0
 62
4
 10
9.15437025E+01
 20
4.86249137E+01
 11
9.15291699E+01
 21
4.87742081E+01
  0
LINE
  8
0
 62
4
 10
9.16937025E+01
 20
4.24949137E+01
 11
9.23937025E+01
 21
4.17449137E+01
  0
LINE
  8
0
 62
4
 10
9.16937025E+01
 20
4.50949137E+01
 11
9.23937025E+01
 21
4.58449137E+01
  0
LINE
  8
0
 62
4
 10
9.55103526E+01
 20
4.91617448E+01
 11
9.54619105E+01
 21
4.96593926E+01
  0
LINE
  8
0
 62
4
 10
9.15437025E+01
 20
4.86249137E+01
 11
9.81608395E+01
 21
4.92690398E+01
  0
LINE
  8
0
 62
4
 10
8.91437025E+01
 20
4.24949137E+01
 11
8.83937025E+01
 21
4.17449137E+01
  0
LINE
  8
0
 62
4
 10
8.63937025E+01
 20
4.22949137E+01
 11
8.66937025E+01
 21
4.25949137E+01
  0
LINE
  8
0
 62
4
 10
8.63937025E+01
 20
4.52949137E+01
 11
8.66937025E+01
 21
4.49949137E+01
  0
LINE
  8
0
 62
4
 10
8.50597481E+01
 20
4.81444608E+01
 11
8.50113060E+01
 21
4.86421087E+01
  0
LINE
  8
0
 62
4
 10
8.66937025E+01
 20
4.05449137E+01
 11
9.01937025E+01
 21
4.05449137E+01
  0
LINE
  8
0
 62
4
 10
8.66937025E+01
 20
4.05449137E+01
 11
8.66937025E+01
 21
4.70449137E+01
  0
LINE
  8
0
 62
4
 10
8.83937025E+01
 20
4.17449137E+01
 11
8.83937025E+01
 21
4.58449137E+01
  0
LINE
  8
0
 62
4
 10
8.80937025E+01
 20
4.27949137E+01
 11
8.83937025E+01
 21
4.27949137E+01
  0
LINE
  8
0
 62
4
 10
8.80937025E+01
 20
4.47949137E+01
 11
8.83937025E+01
 21
4.47949137E+01
  0
LINE
  8
0
 62
4
 10
8.80937025E+01
 20
4.27949137E+01
 11
8.80937025E+01
 21
4.47949137E+01
  0
LINE
  8
0
 62
4
 10
8.73937025E+01
 20
4.05449137E+01
 11
8.73937025E+01
 21
4.70449137E+01
  0
LINE
  8
0
 62
4
 10
9.05937025E+01
 20
4.05449137E+01
 11
9.05937025E+01
 21
4.17449137E+01
  0
LINE
  8
0
 62
4
 10
9.01937025E+01
 20
4.05449137E+01
 11
9.01937025E+01
 21
4.17449137E+01
  0
LINE
  8
0
 62
4
 10
8.49937025E+01
 20
4.72949137E+01
 11
9.08937025E+01
 21
4.72949137E+01
  0
LINE
  8
0
 62
4
 10
8.49937025E+01
 20
4.02949137E+01
 11
9.01937025E+01
 21
4.02949137E+01
  0
LINE
  8
0
 62
4
 10
8.26937025E+01
 20
4.12949137E+01
 11
8.26937025E+01
 21
4.62949137E+01
  0
LINE
  8
0
 62
4
 10
8.36937025E+01
 20
4.02949137E+01
 11
8.36937025E+01
 21
4.72949137E+01
  0
LINE
  8
0
 62
4
 10
8.51937025E+01
 20
4.17949137E+01
 11
8.51937025E+01
 21
4.57949137E+01
  0
LINE
  8
0
 62
4
 10
8.44937025E+01
 20
4.07949137E+01
 11
8.44937025E+01
 21
4.67949137E+01
  0
LINE
  8
0
 62
4
 10
8.44937025E+01
 20
4.80949137E+01
 11
9.08937025E+01
 21
4.80949137E+01
  0
LINE
  8
0
 62
4
 10
8.44937025E+01
 20
3.94949137E+01
 11
9.01937025E+01
 21
3.94949137E+01
  0
LINE
  8
0
 62
4
 10
8.44937025E+01
 20
4.58549137E+01
 11
8.51937025E+01
 21
4.57949137E+01
  0
LINE
  8
0
 62
4
 10
8.44937025E+01
 20
4.17349137E+01
 11
8.51937025E+01
 21
4.17949137E+01
  0
LINE
  8
0
 62
4
 10
9.01937025E+01
 20
3.94949137E+01
 11
9.01937025E+01
 21
4.02949137E+01
  0
LINE
  8
0
 62
4
 10
9.08937025E+01
 20
4.72949137E+01
 11
9.08937025E+01
 21
4.80949137E+01
  0
LINE
  8
0
 62
4
 10
8.86937025E+01
 20
4.80949137E+01
 11
8.84710939E+01
 21
4.84765285E+01
  0
LINE
  8
0
 62
4
 10
8.53937025E+01
 20
4.96949137E+01
 11
8.77637025E+01
 21
4.96949137E+01
  0
LINE
  8
0
 62
4
 10
8.53937025E+01
 20
4.88949137E+01
 11
8.53937025E+01
 21
4.96949137E+01
  0
LINE
  8
0
 62
4
 10
8.53937025E+01
 20
4.88949137E+01
 11
8.73037025E+01
 21
4.88949137E+01
  0
LINE
  8
0
 62
4
 10
8.77637025E+01
 20
4.80949137E+01
 11
8.75988637E+01
 21
4.83916237E+01
  0
LINE
  8
0
 62
4
 10
8.49937025E+01
 20
4.04449137E+01
 11
9.01937025E+01
 21
4.04449137E+01
  0
LINE
  8
0
 62
4
 10
8.49937025E+01
 20
4.02949137E+01
 11
8.49937025E+01
 21
4.04449137E+01
  0
LINE
  8
0
 62
4
 10
8.73222698E+01
 20
4.88670628E+01
 11
8.73037025E+01
 21
4.88949137E+01
  0
LINE
  8
0
 62
4
 10
8.82031087E+01
 20
4.89528055E+01
 11
8.77637025E+01
 21
4.96949137E+01
  0
LINE
  8
0
 62
4
 10
8.26937025E+01
 20
4.22949137E+01
 11
8.36937025E+01
 21
4.22949137E+01
  0
LINE
  8
0
 62
4
 10
8.26937025E+01
 20
4.52949137E+01
 11
8.36937025E+01
 21
4.52949137E+01
  0
LINE
  8
0
 62
6
 10
8.26937025E+01
 20
4.50249137E+01
 11
8.36937025E+01
 21
4.50249137E+01
  0
LINE
  8
0
 62
6
 10
8.26937025E+01
 20
4.25649137E+01
 11
8.36937025E+01
 21
4.25649137E+01
  0
LINE
  8
0
 62
4
 10
8.21937025E+01
 20
4.62949137E+01
 11
8.26937025E+01
 21
4.62949137E+01
  0
LINE
  8
0
 62
4
 10
8.21937025E+01
 20
4.12949137E+01
 11
8.26937025E+01
 21
4.12949137E+01
  0
LINE
  8
0
 62
4
 10
8.11937025E+01
 20
4.22949137E+01
 11
8.11937025E+01
 21
4.52949137E+01
  0
LINE
  8
0
 62
4
 10
8.51937025E+01
 20
4.22949137E+01
 11
8.63937025E+01
 21
4.22949137E+01
  0
LINE
  8
0
 62
6
 10
8.51937025E+01
 20
4.25649137E+01
 11
8.66637025E+01
 21
4.25649137E+01
  0
LINE
  8
0
 62
6
 10
8.51937025E+01
 20
4.50249137E+01
 11
8.66637025E+01
 21
4.50249137E+01
  0
LINE
  8
0
 62
4
 10
8.51937025E+01
 20
4.52949137E+01
 11
8.63937025E+01
 21
4.52949137E+01
  0
ARC
  8
0
 62
4
 10
8.49938627E+01
 20
4.07950739E+01
 40
5.00160181E-01
 50
1.80018346E+02
 51
2.70000000E+02
  0
ARC
  8
0
 62
4
 10
8.49860774E+01
 20
4.68025389E+01
 40
4.92433852E-01
 50
8.91127567E+01
 51
1.80887243E+02
  0
ARC
  8
0
 62
4
 10
8.44938409E+01
 20
4.02950521E+01
 40
8.00138358E-01
 50
1.80009907E+02
 51
2.70000000E+02
  0
ARC
  8
0
 62
4
 10
8.44860774E+01
 20
4.73025389E+01
 40
7.92411497E-01
 50
8.94486475E+01
 51
1.80551352E+02
  0
ARC
  8
0
 62
4
 10
8.21938321E+01
 20
4.22950433E+01
 40
1.00012957E+00
 50
1.80007422E+02
 51
2.70000000E+02
  0
ARC
  8
0
 62
4
 10
8.21860758E+01
 20
4.53025404E+01
 40
9.92402587E-01
 50
8.95596718E+01
 51
1.80440329E+02
  0
LINE
  8
0
 62
4
 10
8.90937025E+01
 20
4.50949137E+01
 11
8.83937025E+01
 21
4.58449137E+01
  0
LINE
  8
0
 62
4
 10
8.90937025E+01
 20
4.50949137E+01
 11
8.90937025E+01
 21
4.24949137E+01
  0
LINE
  8
0
 62
4
 10
9.16937025E+01
 20
4.24949137E+01
 11
8.91437025E+01
 21
4.24949137E+01
  0
LINE
  8
0
 62
4
 10
9.16937025E+01
 20
4.50949137E+01
 11
8.90937025E+01
 21
4.50949137E+01
  0
LINE
  8
0
 62
4
 10
8.83937025E+01
 20
4.58449137E+01
 11
9.23937025E+01
 21
4.58449137E+01
  0
LINE
  8
0
 62
4
 10
8.50113060E+01
 20
4.86421087E+01
 11
9.54619105E+01
 21
4.96593926E+01
  0
CIRCLE
  8
0
 62
4
 10
9.03937025E+01
 20
4.37949137E+01
 40
1.30000000E+00
  0
LINE
  8
0
 62
4
 10
8.83937025E+01
 20
4.17449137E+01
 11
9.23937025E+01
 21
4.17449137E+01
  0
LINE
  8
0
 62
4
 10
9.05937025E+01
 20
4.05449137E+01
 11
9.31937025E+01
 21
4.05449137E+01
  0
LINE
  8
0
 62
4
 10
8.66937025E+01
 20
4.70449137E+01
 11
9.31937025E+01
 21
4.70449137E+01
  0
LINE
  8
0
 62
4
 10
9.01937025E+01
 20
4.04449137E+01
 11
9.72236641E+01
 21
3.84950093E+01
  0
LINE
  8
0
 62
4
 10
9.01937025E+01
 20
4.02949137E+01
 11
9.77093412E+01
 21
3.82042058E+01
  0
LINE
  8
0
 62
4
 10
8.50597481E+01
 20
4.81444608E+01
 11
9.86937016E+01
 21
4.94716188E+01
  0
LINE
  8
0
 62
4
 10
1.00569349E+02
 20
3.67949137E+01
 11
9.86937022E+01
 21
3.57120087E+01
  0
LINE
  8
0
 62
7
 10
9.16937016E+01
 20
4.86167383E+01
 11
9.16937016E+01
 21
4.70449137E+01
  0
LINE
  8
0
 62
4
 10
9.68180546E+01
 20
3.67949137E+01
 11
9.86937010E+01
 21
3.57120087E+01
  0
ARC
  8
0
 62
7
 10
9.86937016E+01
 20
4.37949137E+01
 40
8.50000000E+00
 50
2.14560315E+02
 51
2.35439684E+02
  0
LINE
  8
0
 62
7
 10
9.38718785E+01
 20
3.67949137E+01
 11
1.03515525E+02
 21
3.67949137E+01
  0
LINE
  8
0
 62
7
 10
1.05693702E+02
 20
4.86167393E+01
 11
1.05693702E+02
 21
3.89730887E+01
  0
ARC
  8
0
 62
7
 10
9.86937016E+01
 20
4.37949137E+01
 40
8.50000000E+00
 50
3.04560321E+02
 51
3.25439676E+02
  0
LINE
  8
0
 62
7
 10
1.01943702E+02
 20
5.07949139E+01
 11
1.03515525E+02
 21
5.07949139E+01
  0
ARC
  8
0
 62
7
 10
9.86937016E+01
 20
4.37949137E+01
 40
8.50000000E+00
 50
3.45603235E+01
 51
4.92131278E+01
  0
LINE
  8
0
 62
7
 10
9.38718785E+01
 20
5.07949139E+01
 11
9.47764304E+01
 21
5.07949139E+01
  0
ARC
  8
0
 62
7
 10
9.86937016E+01
 20
4.37949137E+01
 40
8.50000000E+00
 50
1.24560316E+02
 51
1.39213128E+02
  0
ARC
  8
0
 62
4
 10
9.86937016E+01
 20
4.37949137E+01
 40
5.67670505E+00
 50
1.70014236E+02
 51
1.11195525E+01
  0
LINE
  8
0
 62
4
 10
9.99937016E+01
 20
5.33949128E+01
 11
9.73937016E+01
 21
5.33949128E+01
  0
LINE
  8
0
 62
4
 10
9.73937016E+01
 20
5.07949128E+01
 11
9.73937016E+01
 21
5.33449128E+01
  0
LINE
  8
0
 62
4
 10
9.99937016E+01
 20
5.07949128E+01
 11
9.99937016E+01
 21
5.33949128E+01
  0
LINE
  8
0
 62
4
 10
1.00743702E+02
 20
5.40949128E+01
 11
1.00743702E+02
 21
5.00949128E+01
  0
LINE
  8
0
 62
4
 10
9.99937016E+01
 20
5.33949128E+01
 11
1.00743702E+02
 21
5.40949128E+01
  0
LINE
  8
0
 62
4
 10
1.04060533E+02
 20
4.69782627E+01
 11
1.04558181E+02
 21
4.70267048E+01
  0
LINE
  8
0
 62
4
 10
1.03540897E+02
 20
5.74773093E+01
 11
1.04558181E+02
 21
4.70267048E+01
  0
LINE
  8
0
 62
4
 10
1.03523702E+02
 20
5.09449128E+01
 11
1.03672996E+02
 21
5.09594454E+01
  0
LINE
  8
0
 62
4
 10
1.03523702E+02
 20
5.09449128E+01
 11
1.04167828E+02
 21
4.43277758E+01
  0
LINE
  8
0
 62
4
 10
9.76937016E+01
 20
5.00949128E+01
 11
9.76937016E+01
 21
4.97949128E+01
  0
LINE
  8
0
 62
4
 10
9.73937016E+01
 20
5.07949128E+01
 11
9.99937016E+01
 21
5.07949128E+01
  0
CIRCLE
  8
0
 62
4
 10
9.86937016E+01
 20
5.20949128E+01
 40
1.30000000E+00
  0
LINE
  8
0
 62
4
 10
9.73937016E+01
 20
5.07949128E+01
 11
9.66437016E+01
 21
5.00949128E+01
  0
LINE
  8
0
 62
4
 10
9.96937016E+01
 20
5.00949128E+01
 11
9.96937016E+01
 21
4.97949128E+01
  0
LINE
  8
0
 62
4
 10
9.99937016E+01
 20
5.07949128E+01
 11
1.00743702E+02
 21
5.00949128E+01
  0
LINE
  8
0
 62
4
 10
9.76937016E+01
 20
4.97949128E+01
 11
9.96937016E+01
 21
4.97949128E+01
  0
LINE
  8
0
 62
4
 10
9.66437016E+01
 20
5.00949128E+01
 11
1.00743702E+02
 21
5.00949128E+01
  0
LINE
  8
0
 62
4
 10
1.00984989E+02
 20
4.87949128E+01
 11
1.01443702E+02
 21
4.87949128E+01
  0
LINE
  8
0
 62
4
 10
1.01443702E+02
 20
4.87949128E+01
 11
1.01943702E+02
 21
4.92949128E+01
  0
LINE
  8
0
 62
4
 10
9.59437016E+01
 20
4.87949128E+01
 11
9.64024137E+01
 21
4.87949128E+01
  0
LINE
  8
0
 62
4
 10
9.59437016E+01
 20
4.87949128E+01
 11
9.57083090E+01
 21
4.90303053E+01
  0
CIRCLE
  8
0
 62
4
 10
9.86937016E+01
 20
4.37949137E+01
 40
5.00000000E+00
  0
CIRCLE
  8
0
 62
4
 10
9.86937016E+01
 20
4.37949137E+01
 40
5.50000000E+00
  0
LINE
  8
0
  6
CENTER
 62
2
 10
1.06950573E+02
 20
4.37949137E+01
 11
8.02299890E+01
 21
4.37949137E+01
  0
LINE
  8
0
  6
CENTER
 62
2
 10
9.86937016E+01
 20
6.23529741E+01
 11
9.86937016E+01
 21
3.42258167E+01
  0
ARC
  8
0
 62
4
 10
1.00201328E+02
 20
6.03025395E+01
 40
9.92402587E-01
 50
3.59559672E+02
 51
9.04403286E+01
  0
ARC
  8
0
 62
4
 10
9.71938312E+01
 20
6.02947832E+01
 40
1.00012957E+00
 50
9.00000002E+01
 51
1.79992578E+02
  0
ARC
  8
0
 62
4
 10
1.02201327E+02
 20
5.80025379E+01
 40
7.92411497E-01
 50
3.59448647E+02
 51
9.05513523E+01
  0
ARC
  8
0
 62
4
 10
9.51938399E+01
 20
5.79947744E+01
 40
8.00138358E-01
 50
9.00000002E+01
 51
1.79990093E+02
  0
ARC
  8
0
 62
4
 10
1.01701327E+02
 20
5.75025379E+01
 40
4.92433852E-01
 50
3.59112757E+02
 51
9.08872431E+01
  0
ARC
  8
0
 62
4
 10
9.56938617E+01
 20
5.74947526E+01
 40
5.00160181E-01
 50
9.00000002E+01
 51
1.79981654E+02
  0
LINE
  8
0
 62
4
 10
1.00193702E+02
 20
5.72949128E+01
 11
1.00193702E+02
 21
5.60949128E+01
  0
LINE
  8
0
 62
6
 10
9.99237016E+01
 20
5.72949128E+01
 11
9.99237016E+01
 21
5.58249128E+01
  0
LINE
  8
0
 62
6
 10
9.74637016E+01
 20
5.72949128E+01
 11
9.74637016E+01
 21
5.58249128E+01
  0
LINE
  8
0
 62
4
 10
9.71937016E+01
 20
5.72949128E+01
 11
9.71937016E+01
 21
5.60949128E+01
  0
LINE
  8
0
 62
4
 10
9.71937016E+01
 20
6.12949128E+01
 11
1.00193702E+02
 21
6.12949128E+01
  0
LINE
  8
0
 62
4
 10
9.61937016E+01
 20
6.02949128E+01
 11
9.61937016E+01
 21
5.97949128E+01
  0
LINE
  8
0
 62
4
 10
1.01193702E+02
 20
6.02949128E+01
 11
1.01193702E+02
 21
5.97949128E+01
  0
LINE
  8
0
 62
6
 10
9.74637016E+01
 20
5.97949128E+01
 11
9.74637016E+01
 21
5.87949128E+01
  0
LINE
  8
0
 62
6
 10
9.99237016E+01
 20
5.97949128E+01
 11
9.99237016E+01
 21
5.87949128E+01
  0
LINE
  8
0
 62
4
 10
1.00193702E+02
 20
5.97949128E+01
 11
1.00193702E+02
 21
5.87949128E+01
  0
LINE
  8
0
 62
4
 10
9.71937016E+01
 20
5.97949128E+01
 11
9.71937016E+01
 21
5.87949128E+01
  0
LINE
  8
0
 62
4
 10
1.03851593E+02
 20
5.42855066E+01
 11
1.04593702E+02
 21
5.47249128E+01
  0
LINE
  8
0
 62
4
 10
1.03765851E+02
 20
5.51663455E+01
 11
1.03793702E+02
 21
5.51849128E+01
  0
LINE
  8
0
 62
4
 10
9.51937016E+01
 20
5.74949128E+01
 11
9.53437016E+01
 21
5.74949128E+01
  0
LINE
  8
0
 62
4
 10
9.53437016E+01
 20
5.74949128E+01
 11
9.53437016E+01
 21
5.22949128E+01
  0
LINE
  8
0
 62
4
 10
1.02993702E+02
 20
5.47249128E+01
 11
1.03290412E+02
 21
5.48897516E+01
  0
LINE
  8
0
 62
4
 10
1.03793702E+02
 20
5.70949128E+01
 11
1.03793702E+02
 21
5.51849128E+01
  0
LINE
  8
0
 62
4
 10
1.03793702E+02
 20
5.70949128E+01
 11
1.04593702E+02
 21
5.70949128E+01
  0
LINE
  8
0
 62
4
 10
1.04593702E+02
 20
5.70949128E+01
 11
1.04593702E+02
 21
5.47249128E+01
  0
LINE
  8
0
 62
4
 10
1.02993702E+02
 20
5.37949128E+01
 11
1.03375316E+02
 21
5.40175214E+01
  0
LINE
  8
0
 62
4
 10
1.02193702E+02
 20
5.15949128E+01
 11
1.02993702E+02
 21
5.15949128E+01
  0
LINE
  8
0
 62
4
 10
9.43937016E+01
 20
5.22949128E+01
 11
9.51937016E+01
 21
5.22949128E+01
  0
LINE
  8
0
 62
4
 10
9.66337016E+01
 20
5.79949128E+01
 11
9.66937016E+01
 21
5.72949128E+01
  0
LINE
  8
0
 62
4
 10
1.00753702E+02
 20
5.79949128E+01
 11
1.00693702E+02
 21
5.72949128E+01
  0
LINE
  8
0
 62
4
 10
9.43937016E+01
 20
5.79949128E+01
 11
9.43937016E+01
 21
5.22949128E+01
  0
LINE
  8
0
 62
4
 10
1.02993702E+02
 20
5.79949128E+01
 11
1.02993702E+02
 21
5.15949128E+01
  0
LINE
  8
0
 62
4
 10
9.56937016E+01
 20
5.79949128E+01
 11
1.01693702E+02
 21
5.79949128E+01
  0
LINE
  8
0
 62
4
 10
9.66937016E+01
 20
5.72949128E+01
 11
1.00693702E+02
 21
5.72949128E+01
  0
LINE
  8
0
 62
4
 10
9.51937016E+01
 20
5.87949128E+01
 11
1.02193702E+02
 21
5.87949128E+01
  0
LINE
  8
0
 62
4
 10
9.61937016E+01
 20
5.97949128E+01
 11
1.01193702E+02
 21
5.97949128E+01
  0
LINE
  8
0
 62
4
 10
9.51937016E+01
 20
5.74949128E+01
 11
9.51937016E+01
 21
5.22949128E+01
  0
LINE
  8
0
 62
4
 10
1.02193702E+02
 20
5.74949128E+01
 11
1.02193702E+02
 21
5.15949128E+01
  0
LINE
  8
0
 62
4
 10
9.66437016E+01
 20
5.40949128E+01
 11
9.66437016E+01
 21
5.00949128E+01
  0
LINE
  8
0
 62
4
 10
9.54437016E+01
 20
5.18949128E+01
 11
9.54437016E+01
 21
4.96576202E+01
  0
LINE
  8
0
 62
4
 10
9.54437016E+01
 20
5.22949128E+01
 11
9.66437016E+01
 21
5.22949128E+01
  0
LINE
  8
0
 62
4
 10
9.54437016E+01
 20
5.18949128E+01
 11
9.66437016E+01
 21
5.18949128E+01
  0
LINE
  8
0
 62
4
 10
9.54437016E+01
 20
5.50949128E+01
 11
1.01943702E+02
 21
5.50949128E+01
  0
LINE
  8
0
 62
4
 10
9.76937016E+01
 20
5.43949128E+01
 11
9.96937016E+01
 21
5.43949128E+01
  0
LINE
  8
0
 62
4
 10
9.96937016E+01
 20
5.43949128E+01
 11
9.96937016E+01
 21
5.40949128E+01
  0
LINE
  8
0
 62
4
 10
9.76937016E+01
 20
5.43949128E+01
 11
9.76937016E+01
 21
5.40949128E+01
  0
LINE
  8
0
 62
4
 10
9.66437016E+01
 20
5.40949128E+01
 11
1.00743702E+02
 21
5.40949128E+01
  0
LINE
  8
0
 62
4
 10
9.54437016E+01
 20
5.57949128E+01
 11
1.01943702E+02
 21
5.57949128E+01
  0
LINE
  8
0
 62
4
 10
9.54437016E+01
 20
5.57949128E+01
 11
9.54437016E+01
 21
5.22949128E+01
  0
LINE
  8
0
 62
4
 10
1.01943702E+02
 20
5.57949128E+01
 11
1.01943702E+02
 21
4.92949128E+01
  0
LINE
  8
0
 62
4
 10
9.53437016E+01
 20
5.22949128E+01
 11
9.45891207E+01
 21
4.95744334E+01
  0
LINE
  8
0
 62
4
 10
9.51937016E+01
 20
5.22949128E+01
 11
9.44326797E+01
 21
4.95592051E+01
  0
LINE
  8
0
 62
4
 10
1.03043249E+02
 20
5.74288672E+01
 11
1.04370407E+02
 21
4.37949137E+01
  0
LINE
  8
0
 62
4
 10
1.03043249E+02
 20
5.74288672E+01
 11
1.03540897E+02
 21
5.74773093E+01
  0
LINE
  8
0
 62
4
 10
1.00193702E+02
 20
5.60949128E+01
 11
9.98937016E+01
 21
5.57949128E+01
  0
LINE
  8
0
 62
4
 10
9.71937016E+01
 20
5.60949128E+01
 11
9.74937016E+01
 21
5.57949128E+01
  0
LINE
  8
0
 62
4
 10
9.73937016E+01
 20
5.33449128E+01
 11
9.66437016E+01
 21
5.40949128E+01
  0
CIRCLE
  8
0
 62
4
 10
-1.05726312E+02
 20
-6.11294654E+01
 40
5.00000000E+00
  0
LINE
  8
0
  6
CENTER
 62
6
 10
-1.13226312E+02
 20
-6.11294654E+01
 11
-9.82263117E+01
 21
-6.11294654E+01
  0
LINE
  8
0
  6
CENTER
 62
6
 10
-1.05726312E+02
 20
-5.27307565E+01
 11
-1.05726312E+02
 21
-6.94052023E+01
  0
LINE
  8
0
 62
4
 10
-1.26726312E+02
 20
-7.28294654E+01
 11
-1.26726312E+02
 21
-7.51294654E+01
  0
LINE
  8
0
 62
4
 10
-8.47263117E+01
 20
-7.28294654E+01
 11
-8.47263117E+01
 21
-7.51294654E+01
  0
LINE
  8
0
 62
4
 10
-1.26726312E+02
 20
-7.51294654E+01
 11
-8.47263117E+01
 21
-7.51294654E+01
  0
LINE
  8
0
  6
CENTER
 62
6
 10
-9.11263117E+01
 20
-7.05748853E+01
 11
-9.11263117E+01
 21
-7.68890238E+01
  0
LINE
  8
0
  6
CENTER
 62
6
 10
-1.20326312E+02
 20
-7.05748853E+01
 11
-1.20326312E+02
 21
-7.68890238E+01
  0
LINE
  8
0
 62
4
 10
-1.26726312E+02
 20
-7.28294654E+01
 11
-8.47263117E+01
 21
-7.28294654E+01
  0
ARC
  8
0
 62
4
 10
-1.05726312E+02
 20
-6.11294654E+01
 40
1.00000000E+01
 50
3.62946002E+01
 51
1.43705400E+02
  0
LINE
  8
0
 62
4
 10
-8.47263117E+01
 20
-7.28294654E+01
 11
-9.76664710E+01
 21
-5.52100932E+01
  0
LINE
  8
0
 62
4
 10
-1.26726312E+02
 20
-7.28294654E+01
 11
-1.13786152E+02
 21
-5.52100932E+01
  0
LINE
  8
0
 62
4
 10
-7.88263117E+01
 20
-7.51294654E+01
 11
-6.72763117E+01
 21
-7.51294654E+01
  0
LINE
  8
0
  6
CENTER
 62
6
 10
-6.86744785E+01
 20
-6.11294654E+01
 11
-6.13263117E+01
 21
-6.11294654E+01
  0
LINE
  8
0
 62
4
 10
-6.61263117E+01
 20
-5.11294654E+01
 11
-6.38263117E+01
 21
-5.11294654E+01
  0
LINE
  8
0
 62
4
 10
-6.38263117E+01
 20
-5.11294654E+01
 11
-6.38263117E+01
 21
-7.16794654E+01
  0
LINE
  8
0
 62
4
 10
-7.54263117E+01
 20
-7.28294654E+01
 11
-7.54263117E+01
 21
-7.51294654E+01
  0
LINE
  8
0
 62
4
 10
-7.02263117E+01
 20
-7.28294654E+01
 11
-7.02263117E+01
 21
-7.51294654E+01
  0
LINE
  8
0
 62
4
 10
-7.88263117E+01
 20
-7.28294654E+01
 11
-7.88263117E+01
 21
-7.51294654E+01
  0
LINE
  8
0
  6
CENTER
 62
6
 10
-7.28263117E+01
 20
-7.05748853E+01
 11
-7.28263117E+01
 21
-7.68890238E+01
  0
LINE
  8
0
 62
4
 10
-6.61263117E+01
 20
-5.11294654E+01
 11
-6.61263117E+01
 21
-7.16794654E+01
  0
LINE
  8
0
 62
4
 10
-7.88263117E+01
 20
-7.28294654E+01
 11
-6.72763117E+01
 21
-7.28294654E+01
  0
ARC
  8
0
 62
4
 10
-6.72763117E+01
 20
-7.16794654E+01
 40
1.15000000E+00
 50
2.70000000E+02
 51
0.00000000E+00
  0
ARC
  8
0
 62
4
 10
-6.72763117E+01
 20
-7.16794654E+01
 40
3.45000000E+00
 50
2.70000000E+02
 51
0.00000000E+00
  0
LINE
  8
0
 62
4
 10
-1.26726312E+02
 20
-2.12294654E+01
 11
-1.26726312E+02
 21
-2.76294654E+01
  0
LINE
  8
0
 62
4
 10
-1.26726312E+02
 20
-3.28294654E+01
 11
-1.26726312E+02
 21
-3.62294654E+01
  0
LINE
  8
0
 62
4
 10
-1.20326312E+02
 20
-2.76294654E+01
 11
-1.26726312E+02
 21
-2.76294654E+01
  0
LINE
  8
0
 62
4
 10
-1.20326312E+02
 20
-3.28294654E+01
 11
-1.26726312E+02
 21
-3.28294654E+01
  0
LINE
  8
0
  6
CENTER
 62
6
 10
-1.20326312E+02
 20
-3.40628688E+01
 11
-1.20326312E+02
 21
-2.65759653E+01
  0
ARC
  8
0
 62
4
 10
-1.20326312E+02
 20
-3.02294654E+01
 40
2.60000000E+00
 50
2.70000000E+02
 51
9.00000002E+01
  0
LINE
  8
0
 62
4
 10
-9.11263117E+01
 20
-2.76294654E+01
 11
-8.47263117E+01
 21
-2.76294654E+01
  0
LINE
  8
0
 62
4
 10
-9.11263117E+01
 20
-3.28294654E+01
 11
-8.47263117E+01
 21
-3.28294654E+01
  0
LINE
  8
0
  6
CENTER
 62
6
 10
-9.11263117E+01
 20
-3.39024351E+01
 11
-9.11263117E+01
 21
-2.66829211E+01
  0
ARC
  8
0
 62
4
 10
-9.11263117E+01
 20
-3.02294654E+01
 40
2.60000000E+00
 50
9.00000002E+01
 51
2.70000000E+02
  0
LINE
  8
0
 62
4
 10
-8.47263117E+01
 20
-3.28294654E+01
 11
-8.47263117E+01
 21
-3.62294654E+01
  0
LINE
  8
0
  6
CENTER
 62
6
 10
-1.23629276E+02
 20
-3.02294654E+01
 11
-8.82916887E+01
 21
-3.02294654E+01
  0
LINE
  8
0
  6
CENTER
 62
6
 10
-1.05726312E+02
 20
-1.98394654E+01
 11
-1.05726312E+02
 21
-3.74694654E+01
  0
LINE
  8
0
 62
4
 10
-1.26726312E+02
 20
-3.62294654E+01
 11
-8.47263117E+01
 21
-3.62294654E+01
  0
LINE
  8
0
 62
4
 10
-1.26726312E+02
 20
-2.12294654E+01
 11
-8.47263117E+01
 21
-2.12294654E+01
  0
LINE
  8
0
 62
4
 10
-8.47263117E+01
 20
-2.12294654E+01
 11
-8.47263117E+01
 21
-2.76294654E+01
  0
LINE
  8
0
 62
4
 10
-1.26726312E+02
 20
-2.35294654E+01
 11
-8.47263117E+01
 21
-2.35294654E+01
  0
LINE
  8
0
  6
CENTER
 62
6
 10
-1.43351197E+01
 20
-6.11294654E+01
 11
3.32736476E+01
 21
-6.11294654E+01
  0
LINE
  8
0
 62
4
 10
-1.17263117E+01
 20
-5.11294654E+01
 11
3.02736883E+01
 21
-5.11294654E+01
  0
LINE
  8
0
 62
4
 10
2.38736883E+01
 20
-5.85294654E+01
 11
3.02736883E+01
 21
-5.85294654E+01
  0
LINE
  8
0
 62
4
 10
-1.17263117E+01
 20
-5.85294654E+01
 11
-5.32631170E+00
 21
-5.85294654E+01
  0
LINE
  8
0
 62
4
 10
-1.17263117E+01
 20
-5.11294654E+01
 11
-1.17263117E+01
 21
-5.85294654E+01
  0
LINE
  8
0
 62
4
 10
3.02736883E+01
 20
-5.11294654E+01
 11
3.02736883E+01
 21
-5.85294654E+01
  0
LINE
  8
0
 62
4
 10
-1.17263117E+01
 20
-6.37294654E+01
 11
-1.17263117E+01
 21
-7.11294654E+01
  0
LINE
  8
0
 62
4
 10
3.02736883E+01
 20
-6.37294654E+01
 11
3.02736883E+01
 21
-7.11294654E+01
  0
LINE
  8
0
 62
4
 10
-1.17263117E+01
 20
-7.11294654E+01
 11
3.02736883E+01
 21
-7.11294654E+01
  0
LINE
  8
0
 62
4
 10
2.38736883E+01
 20
-6.37294654E+01
 11
3.02736883E+01
 21
-6.37294654E+01
  0
LINE
  8
0
 62
4
 10
-1.17263117E+01
 20
-6.37294654E+01
 11
-5.32631170E+00
 21
-6.37294654E+01
  0
LINE
  8
0
  6
CENTER
 62
6
 10
2.38736883E+01
 20
-5.73694202E+01
 11
2.38736883E+01
 21
-6.50723884E+01
  0
LINE
  8
0
  6
CENTER
 62
6
 10
-5.32631170E+00
 20
-5.73694202E+01
 11
-5.32631170E+00
 21
-6.50723884E+01
  0
CIRCLE
  8
0
 62
4
 10
9.27368830E+00
 20
-6.11294654E+01
 40
5.00000000E+00
  0
ARC
  8
0
 62
4
 10
-5.32631170E+00
 20
-6.11294654E+01
 40
2.60000000E+00
 50
2.70000000E+02
 51
9.00000002E+01
  0
ARC
  8
0
 62
4
 10
2.38736883E+01
 20
-6.11294654E+01
 40
2.60000000E+00
 50
9.00000002E+01
 51
2.70000000E+02
  0
LINE
  8
0
  6
CENTER
 62
6
 10
9.27368830E+00
 20
-5.39294654E+01
 11
9.27368830E+00
 21
-6.84394654E+01
  0
LINE
  8
0
  6
CENTER
 62
6
 10
3.78709590E+01
 20
-6.11294654E+01
 11
4.48100080E+01
 21
-6.11294654E+01
  0
LINE
  8
0
 62
4
 10
4.02736883E+01
 20
-5.11294654E+01
 11
4.25736883E+01
 21
-5.11294654E+01
  0
LINE
  8
0
 62
4
 10
4.02736883E+01
 20
-5.85294654E+01
 11
4.25736883E+01
 21
-5.85294654E+01
  0
LINE
  8
0
 62
4
 10
4.02736883E+01
 20
-7.11294654E+01
 11
4.25736883E+01
 21
-7.11294654E+01
  0
LINE
  8
0
 62
4
 10
4.02736883E+01
 20
-6.37294654E+01
 11
4.25736883E+01
 21
-6.37294654E+01
  0
LINE
  8
0
 62
4
 10
4.25736883E+01
 20
-5.11294654E+01
 11
4.25736883E+01
 21
-7.11294654E+01
  0
LINE
  8
0
 62
4
 10
4.02736883E+01
 20
-5.11294654E+01
 11
4.02736883E+01
 21
-7.11294654E+01
  0
LINE
  8
0
  6
CENTER
 62
6
 10
9.27368833E+00
 20
-2.56930513E+01
 11
9.27368833E+00
 21
-3.18945288E+01
  0
LINE
  8
0
 62
4
 10
3.02736883E+01
 20
-2.76294654E+01
 11
3.02736883E+01
 21
-2.99294654E+01
  0
LINE
  8
0
 62
4
 10
-1.17263117E+01
 20
-2.76294654E+01
 11
-1.17263117E+01
 21
-2.99294654E+01
  0
LINE
  8
0
 62
4
 10
-1.17263117E+01
 20
-2.76294654E+01
 11
3.02736883E+01
 21
-2.76294654E+01
  0
LINE
  8
0
 62
4
 10
-1.17263117E+01
 20
-2.99294654E+01
 11
3.02736883E+01
 21
-2.99294654E+01
  0
LINE
  8
0
  6
CENTER
 62
6
 10
-5.32631167E+00
 20
-2.56930513E+01
 11
-5.32631167E+00
 21
-3.18945288E+01
  0
LINE
  8
0
  6
CENTER
 62
6
 10
2.38736883E+01
 20
-2.56930513E+01
 11
2.38736883E+01
 21
-3.18945288E+01
  0
TEXT
  8
0
 62
7
 10
1.26212531E+02
 20
-1.24000030E+01
 40
3.19999981E+00
  1
0
 41
1.00000000E+00
  7
MONOTXT
  0
LINE
  8
0
 62
7
 10
1.33350006E+02
 20
1.01999969E+01
 11
1.33350006E+02
 21
-1.98000031E+01
  0
TEXT
  8
0
 62
7
 10
1.24612531E+02
 20
-3.96380365E-01
 40
3.19999981E+00
  1
30
 41
1.00000000E+00
  7
MONOTXT
  0
TEXT
  8
0
 62
7
 10
1.26212531E+02
 20
-1.84000010E+01
 40
3.19999981E+00
  1
0
 41
1.00000000E+00
  7
MONOTXT
  0
TEXT
  8
0
 62
7
 10
1.12612531E+02
 20
-1.24000030E+01
 40
3.19999981E+00
  1
-5
 41
1.00000000E+00
  7
MONOTXT
  0
LINE
  8
0
 62
7
 10
1.21350006E+02
 20
1.01999969E+01
 11
1.21350006E+02
 21
-1.98000031E+01
  0
TEXT
  8
0
 62
7
 10
1.12612531E+02
 20
-3.96380365E-01
 40
3.19999981E+00
  1
25
 41
1.00000000E+00
  7
MONOTXT
  0
TEXT
  8
0
 62
7
 10
1.12612531E+02
 20
-1.84000010E+01
 40
3.19999981E+00
  1
-5
 41
1.00000000E+00
  7
MONOTXT
  0
LINE
  8
0
 62
7
 10
3.63500061E+01
 20
-1.98000031E+01
 11
1.33350006E+02
 21
-1.98000031E+01
  0
LINE
  8
0
 62
7
 10
3.63500061E+01
 20
-1.38000031E+01
 11
1.33350006E+02
 21
-1.38000031E+01
  0
LINE
  8
0
 62
7
 10
6.13500061E+01
 20
1.01999969E+01
 11
6.13500061E+01
 21
-1.98000031E+01
  0
LINE
  8
0
 62
7
 10
7.33500061E+01
 20
1.01999969E+01
 11
7.33500061E+01
 21
-1.98000031E+01
  0
LINE
  8
0
 62
7
 10
8.53500061E+01
 20
1.01999969E+01
 11
8.53500061E+01
 21
-1.98000031E+01
  0
LINE
  8
0
 62
7
 10
9.73500061E+01
 20
1.01999969E+01
 11
9.73500061E+01
 21
-1.98000031E+01
  0
LINE
  8
0
 62
7
 10
1.09350006E+02
 20
1.01999969E+01
 11
1.09350006E+02
 21
-1.98000031E+01
  0
LINE
  8
0
 62
7
 10
3.63500061E+01
 20
1.01999969E+01
 11
1.33350006E+02
 21
1.01999969E+01
  0
LINE
  8
0
 62
7
 10
3.63500061E+01
 20
-7.80000305E+00
 11
1.33350006E+02
 21
-7.80000305E+00
  0
LINE
  8
0
 62
7
 10
6.13500061E+01
 20
-7.80000305E+00
 11
5.92400061E+01
 21
4.19999695E+00
  0
LINE
  8
0
 62
7
 10
3.63500061E+01
 20
4.19999695E+00
 11
5.92400061E+01
 21
4.19999695E+00
  0
LINE
  8
0
 62
7
 10
3.63500061E+01
 20
1.01999969E+01
 11
3.63500061E+01
 21
-1.98000031E+01
  0
TEXT
  8
0
 62
7
 10
4.07125319E+01
 20
5.60361582E+00
 40
3.19999981E+00
  1
STROKE
 41
1.00000000E+00
  7
MONOTXT
  0
TEXT
  8
0
 62
7
 10
1.00612531E+02
 20
-3.96380365E-01
 40
3.19999981E+00
  1
20
 41
1.00000000E+00
  7
MONOTXT
  0
TEXT
  8
0
 62
7
 10
8.86125315E+01
 20
-3.96380365E-01
 40
3.19999981E+00
  1
15
 41
1.00000000E+00
  7
MONOTXT
  0
TEXT
  8
0
 62
7
 10
7.66125315E+01
 20
-3.96380365E-01
 40
3.19999981E+00
  1
10
 41
1.00000000E+00
  7
MONOTXT
  0
TEXT
  8
0
 62
7
 10
6.62125314E+01
 20
-3.96380365E-01
 40
3.19999981E+00
  1
5
 41
1.00000000E+00
  7
MONOTXT
  0
TEXT
  8
0
 62
7
 10
9.90125316E+01
 20
-1.24000030E+01
 40
3.19999981E+00
  1
-10
 41
1.00000000E+00
  7
MONOTXT
  0
TEXT
  8
0
 62
7
 10
8.70125316E+01
 20
-1.24000030E+01
 40
3.19999981E+00
  1
-15
 41
1.00000000E+00
  7
MONOTXT
  0
TEXT
  8
0
 62
7
 10
7.50125316E+01
 20
-1.24000030E+01
 40
3.19999981E+00
  1
-20
 41
1.00000000E+00
  7
MONOTXT
  0
TEXT
  8
0
 62
7
 10
6.30125316E+01
 20
-1.24000030E+01
 40
3.19999981E+00
  1
-30
 41
1.00000000E+00
  7
MONOTXT
  0
TEXT
  8
0
 62
7
 10
3.75090011E+01
 20
-1.97637791E+00
 40
3.19999981E+00
  1
STRETCH
 41
1.00000000E+00
  7
MONOTXT
  0
TEXT
  8
0
 62
7
 10
3.75090011E+01
 20
-6.77637810E+00
 40
3.19999981E+00
  1
  PLACE
 41
1.20689655E+00
  7
MONOTXT
  0
TEXT
  8
0
 62
7
 10
4.77125314E+01
 20
-1.24000030E+01
 40
3.19999981E+00
  1
A
 41
1.00000000E+00
  7
MONOTXT
  0
TEXT
  8
0
 62
7
 10
4.77125314E+01
 20
-1.84000030E+01
 40
3.19999981E+00
  1
B
 41
1.00000000E+00
  7
MONOTXT
  0
TEXT
  8
0
 62
7
 10
9.90125316E+01
 20
-1.84000010E+01
 40
3.19999981E+00
  1
-10
 41
1.00000000E+00
  7
MONOTXT
  0
TEXT
  8
0
 62
7
 10
8.70125316E+01
 20
-1.84000010E+01
 40
3.19999981E+00
  1
-20
 41
1.00000000E+00
  7
MONOTXT
  0
TEXT
  8
0
 62
7
 10
7.50125316E+01
 20
-1.84000010E+01
 40
3.19999981E+00
  1
-25
 41
1.00000000E+00
  7
MONOTXT
  0
TEXT
  8
0
 62
7
 10
6.30125316E+01
 20
-1.84000010E+01
 40
3.19999981E+00
  1
-30
 41
1.00000000E+00
  7
MONOTXT
  0
TEXT
  8
0
 62
7
 10
6.61070075E+01
 20
1.16036158E+01
 40
3.19999981E+00
  1
STRETCH LIST
 41
1.05263158E+00
  7
MONOTXT
  0
TEXT
  8
0
 62
7
 10
1.21407006E+02
 20
1.16036158E+01
 40
3.19999981E+00
  1
(mm)
 41
1.00000000E+00
  7
MONOTXT
  0
TEXT
  8
0
 10
-6.73701417E+01
 20
6.66138623E+01
 40
3.20000005E+00
  1
STRETCH LINE A
 41
1.09375000E+00
  7
MONOTXT
  0
TEXT
  8
0
 10
1.06298583E+01
 20
6.66138623E+01
 40
3.20000005E+00
  1
STRETCH LINE B
 41
1.09375000E+00
  7
MONOTXT
  0
LINE
  8
0
 62
7
 10
-1.38399994E+02
 20
9.45000000E+01
 11
1.38350006E+02
 21
9.45000000E+01
  0
LINE
  8
0
 62
7
 10
1.38350006E+02
 20
9.45000000E+01
 11
1.38350006E+02
 21
-9.48000031E+01
  0
LINE
  8
0
 62
7
 10
-1.38399994E+02
 20
-9.48000031E+01
 11
1.38350006E+02
 21
-9.48000031E+01
  0
LINE
  8
0
 62
7
 10
-1.38399994E+02
 20
9.45000000E+01
 11
-1.38399994E+02
 21
-9.48000031E+01
  0
LINE
  8
0
 62
7
 10
7.33500061E+01
 20
-8.48000031E+01
 11
1.38350006E+02
 21
-8.48000031E+01
  0
LINE
  8
0
 62
7
 10
-1.38399994E+02
 20
8.45000000E+01
 11
-7.33999939E+01
 21
8.45000000E+01
  0
LINE
  8
0
 62
7
 10
7.33500061E+01
 20
8.45000000E+01
 11
1.38350006E+02
 21
8.45000000E+01
  0
LINE
  8
0
 62
7
 10
7.33500061E+01
 20
-8.48000031E+01
 11
7.33500061E+01
 21
-9.48000031E+01
  0
LINE
  8
0
 62
7
 10
7.33500061E+01
 20
9.45000000E+01
 11
7.33500061E+01
 21
8.45000000E+01
  0
LINE
  8
0
 62
7
 10
-7.33999939E+01
 20
9.45000000E+01
 11
-7.33999939E+01
 21
8.45000000E+01
  0
TEXT
  8
0
 62
7
 10
7.72426624E+01
 20
-9.20500031E+01
 40
4.50000000E+00
  1
KOGANEI CORP.
 41
1.04838710E+00
  7
MONOTXT
  0
TEXT
  8
0
 62
7
 10
9.35071493E+01
 20
8.79000001E+01
 40
3.19999981E+00
  1
Ver. 1.0
 41
1.08108108E+00
  7
MONOTXT
  0
TEXT
  8
0
 62
7
 10
-1.31042850E+02
 20
8.79000001E+01
 40
3.19999981E+00
  1
NEW PEN CYLINDER
 41
1.08108108E+00
  7
MONOTXT
  0
TEXT
  8
0
 62
7
 10
-1.29085994E+02
 20
7.29000001E+01
 40
3.19999981E+00
  1
MODEL:PBTALS10*ST(30)-ZC230
 41
1.00000000E+00
  7
MONOTXT
  0
ENDSEC
  0
EOF
