  0
SECTION
  2
HEADER
  9
$ACADVER
  1
AC1003
  9
$EXTMIN
 10
-1.38399994E+02
 20
-9.48000031E+01
  9
$EXTMAX
 10
1.38350006E+02
 20
9.45000000E+01
  9
$LIMMIN
 10
-1.38400994E+02
 20
-9.48010031E+01
  9
$LIMMAX
 10
1.38351006E+02
 20
9.45010000E+01
  9
$SNAPUNIT
 10
1
 20
1
  9
$SNAPBASE
 10
0
 20
0
  9
$GRIDMODE
 70
0
  9
$GRIDUNIT
 10
0
 20
0
  9
$LTSCALE
 40
4.61250000E+00
  9
$TEXTSIZE
 40
3.2
  9
$DIMTAD
 70
0
  9
$LUNITS
 70
2
  9
$LUPREC
 70
4
  9
$FILLETRAD
 40
0
  9
$AUNITS
 70
0
  9
$AUPREC
 70
0
  0
ENDSEC
  0
SECTION
  2
TABLES
  0
TABLE
  2
LTYPE
 70
2
  0
LTYPE
  2
CONTINUOUS
 70
64
  3
Solid-Line
 72
65
 73
0
 40
0
  0
LTYPE
  2
DASHED
 70
64
  3
DASHED
 72
65
 73
2
 40
.75
 49
.5
 49
-.25
  0
LTYPE
  2
HIDDEN
 70
64
  3
HIDDEN
 72
65
 73
2
 40
.375
 49
.25
 49
-.125
  0
LTYPE
  2
CENTER
 70
64
  3
CENTER
 72
65
 73
4
 40
2
 49
1.25
 49
-.25
 49
.25
 49
-.25
  0
LTYPE
  2
PHANTOM
 70
64
  3
PHANTOM
 72
65
 73
6
 40
2.5
 49
1.25
 49
-.25
 49
.25
 49
-.25
 49
.25
 49
-.25
  0
ENDTAB
  0
TABLE
  2
LAYER
 70
1
  0
LAYER
  2
1
 70
0
 62
7
  6
CONTINUOUS
 0
ENDTAB
  0
TABLE
  2
STYLE
 70
2
  0
STYLE
  2
MONOTXT
 70
0
 40
0
 41
1
 50
0
 71
0
 42
.2
  3
monotxt
  0
STYLE
  2
BIGFONT
 70
0
 40
0
 41
1
 50
0
 71
0
 42
.2
  3
txt
  4
bigfont
  0
ENDTAB
  0
ENDSEC
  0
SECTION
  2
ENTITIES
  0
LINE
  8
0
  6
PHANTOM
 10
3.69139568E+01
 20
3.43749201E+01
 11
3.69139568E+01
 21
5.46540488E+01
  0
LINE
  8
0
  6
PHANTOM
 10
2.98266299E+01
 20
1.15516774E+01
 11
2.98266299E+01
 21
3.43749201E+01
  0
LINE
  8
0
  6
PHANTOM
 10
-4.80860432E+01
 20
1.15516774E+01
 11
-4.80860432E+01
 21
5.46540488E+01
  0
TEXT
  8
0
 62
7
 10
2.09387688E+01
 20
2.91516774E+01
 40
1.50000000E+00
  1
PBTAS6
 41
1.00000000E+00
  7
MONOTXT
  0
LINE
  8
0
  6
PHANTOM
 10
2.98266299E+01
 20
3.43749201E+01
 11
3.69139568E+01
 21
3.43749201E+01
  0
LINE
  8
0
 62
7
 10
1.92747063E+01
 20
2.80516774E+01
 11
4.02647063E+01
 21
2.80516774E+01
  0
ARC
  8
0
 62
4
 10
6.51576657E+01
 20
3.15516774E+01
 40
2.89422250E+00
 50
2.07130379E+02
 51
2.25378526E+02
  0
LINE
  8
0
 62
4
 10
6.22647063E+01
 20
3.02516774E+01
 11
6.22647063E+01
 21
2.75516774E+01
  0
LINE
  8
0
 62
7
 10
4.92647063E+01
 20
3.50516774E+01
 11
6.22647063E+01
 21
3.50516774E+01
  0
LINE
  8
0
 62
7
 10
4.92647063E+01
 20
2.80516774E+01
 11
6.22647063E+01
 21
2.80516774E+01
  0
LINE
  8
0
 62
7
 10
2.17747063E+01
 20
3.50516774E+01
 11
4.02647063E+01
 21
3.50516774E+01
  0
LINE
  8
0
 62
4
 10
4.02647063E+01
 20
3.65516774E+01
 11
4.92647063E+01
 21
3.65516774E+01
  0
LINE
  8
0
 62
6
 10
6.52017054E+01
 20
3.28516774E+01
 11
6.26017054E+01
 21
3.02516774E+01
  0
LINE
  8
0
 62
4
 10
5.72647063E+01
 20
2.95516774E+01
 11
6.02647063E+01
 21
3.02516774E+01
  0
LINE
  8
0
 62
4
 10
5.72647063E+01
 20
3.35516774E+01
 11
6.02647063E+01
 21
3.28516774E+01
  0
LINE
  8
0
 62
4
 10
6.02647063E+01
 20
3.28516774E+01
 11
6.02647063E+01
 21
3.02516774E+01
  0
LINE
  8
0
 62
4
 10
6.02647063E+01
 20
3.02516774E+01
 11
6.26017054E+01
 21
3.02516774E+01
  0
LINE
  8
0
 62
4
 10
6.02647063E+01
 20
3.28516774E+01
 11
6.52017054E+01
 21
3.28516774E+01
  0
LINE
  8
0
 62
4
 10
4.67647063E+01
 20
3.66542274E+01
 11
4.92647063E+01
 21
3.66542274E+01
  0
LINE
  8
0
 62
4
 10
4.27647063E+01
 20
3.73516774E+01
 11
4.67647063E+01
 21
3.73516774E+01
  0
LINE
  8
0
 62
4
 10
4.02647063E+01
 20
3.66542274E+01
 11
4.27647063E+01
 21
3.66542274E+01
  0
LINE
  8
0
 62
4
 10
4.02647063E+01
 20
3.59766774E+01
 11
4.92647063E+01
 21
3.59766774E+01
  0
LINE
  8
0
 62
4
 10
4.02647063E+01
 20
3.58516774E+01
 11
4.92647063E+01
 21
3.58516774E+01
  0
LINE
  8
0
 62
4
 10
4.02647063E+01
 20
2.72516774E+01
 11
4.92647063E+01
 21
2.72516774E+01
  0
LINE
  8
0
 62
4
 10
4.67647063E+01
 20
3.73516774E+01
 11
4.67647063E+01
 21
3.65516774E+01
  0
LINE
  8
0
 62
4
 10
4.27647063E+01
 20
3.65516774E+01
 11
4.27647063E+01
 21
3.73516774E+01
  0
LINE
  8
0
 62
4
 10
3.22647063E+01
 20
3.25516774E+01
 11
3.22647063E+01
 21
3.05516774E+01
  0
CIRCLE
  8
0
 62
4
 10
4.47638310E+01
 20
3.15492189E+01
 40
2.50000000E+00
  0
LINE
  8
0
 62
4
 10
5.17647063E+01
 20
2.95516774E+01
 11
5.72647063E+01
 21
2.95516774E+01
  0
LINE
  8
0
 62
4
 10
5.17647063E+01
 20
3.35516774E+01
 11
5.72647063E+01
 21
3.35516774E+01
  0
LINE
  8
0
 62
4
 10
4.92647063E+01
 20
2.83016774E+01
 11
5.17647063E+01
 21
2.83016774E+01
  0
LINE
  8
0
 62
4
 10
4.92647063E+01
 20
3.48016774E+01
 11
5.17647063E+01
 21
3.48016774E+01
  0
LINE
  8
0
 62
4
 10
5.17647063E+01
 20
2.83016774E+01
 11
5.17647063E+01
 21
3.48016774E+01
  0
LINE
  8
0
 62
4
 10
3.77647063E+01
 20
3.48016774E+01
 11
4.02647063E+01
 21
3.48016774E+01
  0
LINE
  8
0
 62
4
 10
3.77647063E+01
 20
2.83016774E+01
 11
4.02647063E+01
 21
2.83016774E+01
  0
LINE
  8
0
 62
4
 10
3.32647063E+01
 20
3.35516774E+01
 11
3.32647063E+01
 21
2.95516774E+01
  0
LINE
  8
0
 62
4
 10
3.32647063E+01
 20
3.35516774E+01
 11
3.77647063E+01
 21
3.35516774E+01
  0
LINE
  8
0
 62
4
 10
3.32647063E+01
 20
2.95516774E+01
 11
3.77647063E+01
 21
2.95516774E+01
  0
LINE
  8
0
 62
4
 10
5.72647063E+01
 20
3.35516774E+01
 11
5.72647063E+01
 21
2.95516774E+01
  0
LINE
  8
0
 62
4
 10
4.57747063E+01
 20
3.05516774E+01
 11
4.37047063E+01
 21
3.26116774E+01
  0
LINE
  8
0
 62
4
 10
4.37047063E+01
 20
3.04916774E+01
 11
4.58247063E+01
 21
3.26116774E+01
  0
LINE
  8
0
 62
4
 10
4.58747063E+01
 20
3.04516774E+01
 11
4.58247063E+01
 21
3.04916774E+01
  0
LINE
  8
0
 62
4
 10
3.77647063E+01
 20
2.83016774E+01
 11
3.77647063E+01
 21
3.48016774E+01
  0
LINE
  8
0
 62
4
 10
4.02647063E+01
 20
2.72516774E+01
 11
4.02647063E+01
 21
3.66542274E+01
  0
LINE
  8
0
 62
4
 10
4.92647063E+01
 20
2.72516774E+01
 11
4.92647063E+01
 21
3.66542274E+01
  0
LINE
  8
0
  6
CENTER
 62
6
 10
4.47647063E+01
 20
3.88516774E+01
 11
4.47647063E+01
 21
2.52795173E+01
  0
LINE
  8
0
 62
4
 10
3.22647063E+01
 20
3.25516774E+01
 11
3.32647063E+01
 21
3.35516774E+01
  0
LINE
  8
0
 62
4
 10
3.22647063E+01
 20
3.05516774E+01
 11
3.32647063E+01
 21
2.95516774E+01
  0
LINE
  8
0
 62
4
 10
7.77470629E+00
 20
3.75516774E+01
 11
7.77470629E+00
 21
3.44516774E+01
  0
LINE
  8
0
 62
4
 10
2.17747063E+01
 20
3.75516774E+01
 11
2.17747063E+01
 21
3.44516774E+01
  0
LINE
  8
0
 62
4
 10
1.02747063E+01
 20
2.79016774E+01
 11
1.92747063E+01
 21
2.79016774E+01
  0
LINE
  8
0
 62
4
 10
1.02747063E+01
 20
4.45516774E+01
 11
1.02747063E+01
 21
3.80516774E+01
  0
LINE
  8
0
 62
4
 10
1.92747063E+01
 20
4.45516774E+01
 11
1.92747063E+01
 21
3.80516774E+01
  0
LINE
  8
0
 62
6
 10
3.52117054E+01
 20
3.90516774E+01
 11
3.26117054E+01
 21
3.64516774E+01
  0
LINE
  8
0
 62
4
 10
1.92747063E+01
 20
3.79516774E+01
 11
2.17747063E+01
 21
3.79516774E+01
  0
LINE
  8
0
 62
4
 10
1.92747063E+01
 20
3.44516774E+01
 11
2.17747063E+01
 21
3.44516774E+01
  0
LINE
  8
0
 62
4
 10
1.92747063E+01
 20
3.75516774E+01
 11
2.17747063E+01
 21
3.75516774E+01
  0
LINE
  8
0
 62
4
 10
1.92747063E+01
 20
4.07516774E+01
 11
2.17747063E+01
 21
4.07516774E+01
  0
LINE
  8
0
 62
4
 10
7.77470628E+00
 20
3.44516774E+01
 11
1.02747063E+01
 21
3.44516774E+01
  0
LINE
  8
0
 62
4
 10
7.77470628E+00
 20
3.75516774E+01
 11
1.02747063E+01
 21
3.75516774E+01
  0
LINE
  8
0
 62
4
 10
7.77470628E+00
 20
3.79516774E+01
 11
1.02747063E+01
 21
3.79516774E+01
  0
LINE
  8
0
 62
4
 10
7.77470628E+00
 20
4.07516774E+01
 11
1.02747063E+01
 21
4.07516774E+01
  0
LINE
  8
0
 62
4
 10
2.72747063E+01
 20
3.57516774E+01
 11
3.02747063E+01
 21
3.64516774E+01
  0
LINE
  8
0
 62
4
 10
2.72747063E+01
 20
3.97516774E+01
 11
3.02747063E+01
 21
3.90516774E+01
  0
LINE
  8
0
 62
4
 10
3.02747063E+01
 20
3.90516774E+01
 11
3.02747063E+01
 21
3.64516774E+01
  0
LINE
  8
0
 62
4
 10
3.02747063E+01
 20
3.64516774E+01
 11
3.26117054E+01
 21
3.64516774E+01
  0
LINE
  8
0
 62
4
 10
3.02747063E+01
 20
3.90516774E+01
 11
3.52117054E+01
 21
3.90516774E+01
  0
LINE
  8
0
 62
4
 10
2.17747063E+01
 20
4.07516774E+01
 11
2.17747063E+01
 21
3.79516774E+01
  0
LINE
  8
0
 62
4
 10
2.72747063E+01
 20
3.97516774E+01
 11
2.72747063E+01
 21
3.57516774E+01
  0
LINE
  8
0
 62
4
 10
2.17747063E+01
 20
3.57516774E+01
 11
2.72747063E+01
 21
3.57516774E+01
  0
ARC
  8
0
 62
4
 10
1.62730406E+01
 20
4.59500117E+01
 40
1.00166704E+00
 50
9.52762946E-02
 51
8.99047236E+01
  0
ARC
  8
0
 62
4
 10
1.32754978E+01
 20
4.59508859E+01
 40
1.00079180E+00
 50
9.00000002E+01
 51
1.79954687E+02
  0
LINE
  8
0
 62
4
 10
1.22747063E+01
 20
4.59516774E+01
 11
1.22747063E+01
 21
4.54516774E+01
  0
LINE
  8
0
 62
4
 10
1.72747063E+01
 20
4.59516774E+01
 11
1.72747063E+01
 21
4.54516774E+01
  0
LINE
  8
0
 62
4
 10
1.32747063E+01
 20
4.69516774E+01
 11
1.62747063E+01
 21
4.69516774E+01
  0
LINE
  8
0
 62
4
 10
1.22747063E+01
 20
4.54516774E+01
 11
1.72747063E+01
 21
4.54516774E+01
  0
LINE
  8
0
 62
4
 10
3.27470629E+00
 20
3.57516774E+01
 11
7.77470629E+00
 21
3.57516774E+01
  0
LINE
  8
0
 62
4
 10
3.27470629E+00
 20
3.97516774E+01
 11
7.77470629E+00
 21
3.97516774E+01
  0
LINE
  8
0
 62
4
 10
1.02747063E+01
 20
4.45516774E+01
 11
1.92747063E+01
 21
4.45516774E+01
  0
LINE
  8
0
 62
4
 10
1.02747063E+01
 20
3.80516774E+01
 11
1.92747063E+01
 21
3.80516774E+01
  0
LINE
  8
0
 62
4
 10
1.62747063E+01
 20
4.54516774E+01
 11
1.62747063E+01
 21
4.45516774E+01
  0
LINE
  8
0
 62
4
 10
1.32747063E+01
 20
4.54516774E+01
 11
1.32747063E+01
 21
4.45516774E+01
  0
LINE
  8
0
 62
6
 10
1.60047063E+01
 20
4.54516774E+01
 11
1.60047063E+01
 21
4.45516774E+01
  0
LINE
  8
0
 62
6
 10
1.35447063E+01
 20
4.54516774E+01
 11
1.35447063E+01
 21
4.45516774E+01
  0
LINE
  8
0
 62
4
 10
7.77470629E+00
 20
4.07516774E+01
 11
7.77470629E+00
 21
3.79516774E+01
  0
LINE
  8
0
 62
4
 10
2.27470629E+00
 20
3.67516774E+01
 11
3.27470629E+00
 21
3.57516774E+01
  0
LINE
  8
0
 62
4
 10
3.27470629E+00
 20
3.97516774E+01
 11
3.27470629E+00
 21
3.57516774E+01
  0
LINE
  8
0
 62
4
 10
2.27470629E+00
 20
3.87516774E+01
 11
2.27470629E+00
 21
3.67516774E+01
  0
LINE
  8
0
 62
4
 10
2.27470629E+00
 20
3.87516774E+01
 11
3.27470629E+00
 21
3.97516774E+01
  0
LINE
  8
0
 62
4
 10
1.02747063E+01
 20
3.80516774E+01
 11
1.02747063E+01
 21
2.79016774E+01
  0
LINE
  8
0
 62
4
 10
1.92747063E+01
 20
3.80516774E+01
 11
1.92747063E+01
 21
2.79016774E+01
  0
LINE
  8
0
  6
CENTER
 62
6
 10
1.47747063E+01
 20
4.94616774E+01
 11
1.47747063E+01
 21
2.52795173E+01
  0
LINE
  8
0
 62
4
 10
2.17747063E+01
 20
3.97516774E+01
 11
2.72747063E+01
 21
3.97516774E+01
  0
CIRCLE
  8
0
 62
7
 10
-5.72529371E+00
 20
3.15516774E+01
 40
2.06700000E+00
  0
LINE
  8
0
 62
2
 10
-1.84752937E+01
 20
2.90931774E+01
 11
-1.72252937E+01
 21
2.90931774E+01
  0
LINE
  8
0
 62
2
 10
-1.84752937E+01
 20
3.40101774E+01
 11
-1.72252937E+01
 21
3.40101774E+01
  0
LINE
  8
0
 62
2
 10
-2.37252937E+01
 20
2.90931774E+01
 11
-2.24752937E+01
 21
2.90931774E+01
  0
LINE
  8
0
 62
2
 10
-2.24752937E+01
 20
3.40101774E+01
 11
-2.37252937E+01
 21
3.40101774E+01
  0
LINE
  8
0
 62
2
 10
-6.78052937E+01
 20
3.03041774E+01
 11
-2.37252937E+01
 21
3.03041774E+01
  0
LINE
  8
0
 62
2
 10
-6.78052937E+01
 20
3.27991774E+01
 11
-2.37252937E+01
 21
3.27991774E+01
  0
LINE
  8
0
 62
2
 10
-7.35777937E+01
 20
3.03041774E+01
 11
-7.02052937E+01
 21
3.03041774E+01
  0
LINE
  8
0
 62
2
 10
-7.35777937E+01
 20
3.27991774E+01
 11
-7.02052937E+01
 21
3.27991774E+01
  0
LINE
  8
0
 62
7
 10
-1.22529371E+00
 20
3.75516774E+01
 11
-1.22529371E+00
 21
2.55516774E+01
  0
LINE
  8
0
 62
7
 10
-1.22529371E+00
 20
3.50516774E+01
 11
7.77470629E+00
 21
3.50516774E+01
  0
LINE
  8
0
 62
7
 10
-1.37252937E+01
 20
3.75516774E+01
 11
-1.37252937E+01
 21
2.55516774E+01
  0
LINE
  8
0
 62
7
 10
-1.57252937E+01
 20
3.70516774E+01
 11
-1.57252937E+01
 21
2.60516774E+01
  0
LINE
  8
0
 62
7
 10
-2.32252937E+01
 20
3.45516774E+01
 11
-2.24752937E+01
 21
3.45516774E+01
  0
LINE
  8
0
 62
7
 10
-7.37252937E+01
 20
3.26516774E+01
 11
-7.37252937E+01
 21
3.15516774E+01
  0
LINE
  8
0
  6
CENTER
 62
2
 10
-7.49335940E+01
 20
3.15516774E+01
 11
7.01764265E+01
 21
3.15516774E+01
  0
LINE
  8
0
 62
7
 10
-7.33252937E+01
 20
3.30516774E+01
 11
-7.02052937E+01
 21
3.30516774E+01
  0
LINE
  8
0
 62
7
 10
-5.87252937E+01
 20
3.30516774E+01
 11
-5.87252937E+01
 21
3.15516774E+01
  0
LINE
  8
0
 62
7
 10
-7.37252937E+01
 20
3.26516774E+01
 11
-7.33252937E+01
 21
3.30516774E+01
  0
LINE
  8
0
 62
4
 10
6.22647063E+01
 20
3.55516774E+01
 11
6.22647063E+01
 21
3.28516774E+01
  0
LINE
  8
0
 62
7
 10
-2.37252937E+01
 20
3.40516774E+01
 11
-2.32252937E+01
 21
3.45516774E+01
  0
LINE
  8
0
 62
7
 10
-1.72252937E+01
 20
3.45516774E+01
 11
-1.72252937E+01
 21
2.85516774E+01
  0
LINE
  8
0
  6
CENTER
 62
2
 10
-5.72529371E+00
 20
3.61234401E+01
 11
-5.72529371E+00
 21
2.69816774E+01
  0
LINE
  8
0
 62
7
 10
-1.22529371E+00
 20
2.80516774E+01
 11
1.02747063E+01
 21
2.80516774E+01
  0
LINE
  8
0
 62
7
 10
-2.37252937E+01
 20
2.90516774E+01
 11
-2.37252937E+01
 21
3.40516774E+01
  0
LINE
  8
0
 62
7
 10
-2.32252937E+01
 20
2.85516774E+01
 11
-2.24752937E+01
 21
2.85516774E+01
  0
LINE
  8
0
 62
7
 10
-7.37252937E+01
 20
3.04516774E+01
 11
-7.37252937E+01
 21
3.15516774E+01
  0
LINE
  8
0
 62
7
 10
-7.33252937E+01
 20
3.00516774E+01
 11
-7.02052937E+01
 21
3.00516774E+01
  0
LINE
  8
0
 62
7
 10
-5.87252937E+01
 20
3.00516774E+01
 11
-5.87252937E+01
 21
3.15516774E+01
  0
LINE
  8
0
 62
7
 10
-7.37252937E+01
 20
3.04516774E+01
 11
-7.33252937E+01
 21
3.00516774E+01
  0
LINE
  8
0
 62
7
 10
-2.37252937E+01
 20
2.90516774E+01
 11
-2.32252937E+01
 21
2.85516774E+01
  0
LINE
  8
0
 62
4
 10
6.22647063E+01
 20
3.55516774E+01
 11
6.82647063E+01
 21
3.55516774E+01
  0
LINE
  8
0
 62
4
 10
6.22647063E+01
 20
2.75516774E+01
 11
6.82647063E+01
 21
2.75516774E+01
  0
LINE
  8
0
 62
7
 10
-2.32252937E+01
 20
3.45516774E+01
 11
-2.32252937E+01
 21
2.85516774E+01
  0
LINE
  8
0
 62
4
 10
-2.24752937E+01
 20
3.58716774E+01
 11
-2.24752937E+01
 21
2.72316774E+01
  0
LINE
  8
0
 62
4
 10
-1.84752937E+01
 20
3.58716774E+01
 11
-1.84752937E+01
 21
2.72316774E+01
  0
LINE
  8
0
 62
4
 10
-2.20752937E+01
 20
2.58016774E+01
 11
-1.88752937E+01
 21
2.58016774E+01
  0
LINE
  8
0
 62
4
 10
-2.20752937E+01
 20
3.73016774E+01
 11
-1.88752937E+01
 21
3.73016774E+01
  0
LINE
  8
0
 62
4
 10
-7.02052937E+01
 20
3.39316774E+01
 11
-7.02052937E+01
 21
2.91716774E+01
  0
LINE
  8
0
 62
4
 10
-6.78052937E+01
 20
3.39316774E+01
 11
-6.78052937E+01
 21
2.91716774E+01
  0
LINE
  8
0
 62
4
 10
-6.99052937E+01
 20
3.31416774E+01
 11
-6.81052937E+01
 21
3.31416774E+01
  0
LINE
  8
0
 62
4
 10
-6.99052937E+01
 20
2.99616774E+01
 11
-6.81052937E+01
 21
2.99616774E+01
  0
LINE
  8
0
 62
4
 10
-6.99052937E+01
 20
3.47316774E+01
 11
-6.81052937E+01
 21
3.47316774E+01
  0
LINE
  8
0
 62
4
 10
-6.99052937E+01
 20
2.83716774E+01
 11
-6.81052937E+01
 21
2.83716774E+01
  0
LINE
  8
0
 62
7
 10
-6.78052937E+01
 20
3.30516774E+01
 11
-2.37252937E+01
 21
3.30516774E+01
  0
LINE
  8
0
 62
7
 10
-6.78052937E+01
 20
3.00516774E+01
 11
-2.37252937E+01
 21
3.00516774E+01
  0
LINE
  8
0
 62
7
 10
-7.33252937E+01
 20
3.30516774E+01
 11
-7.33252937E+01
 21
3.00516774E+01
  0
LINE
  8
0
 62
4
 10
-2.20752937E+01
 20
3.44416774E+01
 11
-1.88752937E+01
 21
3.44416774E+01
  0
LINE
  8
0
 62
4
 10
-2.20752937E+01
 20
2.86616774E+01
 11
-1.88752937E+01
 21
2.86616774E+01
  0
LINE
  8
0
 62
7
 10
-1.84752937E+01
 20
2.85516774E+01
 11
-1.57252937E+01
 21
2.85516774E+01
  0
LINE
  8
0
 62
7
 10
-1.84752937E+01
 20
3.45516774E+01
 11
-1.57252937E+01
 21
3.45516774E+01
  0
LINE
  8
0
 62
7
 10
-1.37252937E+01
 20
2.55516774E+01
 11
-1.22529371E+00
 21
2.55516774E+01
  0
LINE
  8
0
 62
7
 10
-1.37252937E+01
 20
3.75516774E+01
 11
-1.22529371E+00
 21
3.75516774E+01
  0
LINE
  8
0
 62
7
 10
-1.57252937E+01
 20
3.70516774E+01
 11
-1.37252937E+01
 21
3.70516774E+01
  0
LINE
  8
0
 62
7
 10
-1.57252937E+01
 20
2.60516774E+01
 11
-1.37252937E+01
 21
2.60516774E+01
  0
LINE
  8
0
 62
7
 10
-1.19952937E+01
 20
3.51616774E+01
 11
-2.95529371E+00
 21
3.51616774E+01
  0
LINE
  8
0
 62
7
 10
-1.19952937E+01
 20
2.79416774E+01
 11
-2.95529371E+00
 21
2.79416774E+01
  0
LINE
  8
0
 62
7
 10
-1.19952937E+01
 20
3.75516774E+01
 11
-1.19952937E+01
 21
3.51616774E+01
  0
LINE
  8
0
 62
7
 10
-2.95529371E+00
 20
3.75516774E+01
 11
-2.95529371E+00
 21
3.51616774E+01
  0
LINE
  8
0
 62
7
 10
-1.19952937E+01
 20
2.79416774E+01
 11
-1.19952937E+01
 21
2.55516774E+01
  0
LINE
  8
0
 62
7
 10
-2.95529371E+00
 20
2.79416774E+01
 11
-2.95529371E+00
 21
2.55516774E+01
  0
LINE
  8
0
 62
4
 10
6.82647063E+01
 20
3.55516774E+01
 11
6.82647063E+01
 21
2.75516774E+01
  0
LINE
  8
0
 62
4
 10
6.31247063E+01
 20
3.36116774E+01
 11
6.73947063E+01
 21
3.36116774E+01
  0
LINE
  8
0
 62
4
 10
6.31247063E+01
 20
2.94916774E+01
 11
6.73947063E+01
 21
2.94916774E+01
  0
LINE
  8
0
 62
4
 10
6.31247063E+01
 20
3.55516774E+01
 11
6.31247063E+01
 21
3.36116774E+01
  0
LINE
  8
0
 62
4
 10
6.73947063E+01
 20
3.55516774E+01
 11
6.73947063E+01
 21
3.36116774E+01
  0
LINE
  8
0
 62
4
 10
6.31247063E+01
 20
2.94916774E+01
 11
6.31247063E+01
 21
2.75516774E+01
  0
LINE
  8
0
 62
4
 10
6.73947063E+01
 20
2.94916774E+01
 11
6.73947063E+01
 21
2.75516774E+01
  0
ARC
  8
0
 62
4
 10
-1.97178696E+01
 20
3.58713140E+01
 40
2.75742415E+00
 50
1.48752783E+02
 51
1.79992449E+02
  0
ARC
  8
0
 62
4
 10
-1.18624569E+01
 20
3.15554543E+01
 40
1.06128375E+01
 50
1.64219317E+02
 51
1.80020390E+02
  0
ARC
  8
0
 62
4
 10
-1.97165647E+01
 20
3.58724058E+01
 40
2.75872912E+00
 50
1.80015128E+02
 51
2.11239639E+02
  0
ARC
  8
0
 62
4
 10
-1.18613290E+01
 20
3.15480566E+01
 40
1.06139654E+01
 50
1.79980454E+02
 51
1.95779839E+02
  0
ARC
  8
0
 62
4
 10
-1.97187081E+01
 20
2.72315485E+01
 40
2.75658562E+00
 50
1.48747910E+02
 51
1.79997322E+02
  0
ARC
  8
0
 62
4
 10
-1.97157178E+01
 20
2.72326427E+01
 40
2.75957610E+00
 50
1.80020042E+02
 51
2.11234725E+02
  0
ARC
  8
0
 62
4
 10
-2.12395772E+01
 20
3.58693953E+01
 40
2.76428443E+00
 50
4.73013359E-02
 51
3.12074661E+01
  0
ARC
  8
0
 62
4
 10
-2.12408789E+01
 20
3.58743236E+01
 40
2.76558641E+00
 50
3.28800055E+02
 51
3.59945178E+02
  0
ARC
  8
0
 62
4
 10
-2.90953849E+01
 20
3.15544502E+01
 40
1.06200915E+01
 50
3.59985040E+02
 51
1.57752528E+01
  0
ARC
  8
0
 62
4
 10
-2.90965120E+01
 20
3.15490605E+01
 40
1.06212186E+01
 50
3.44225590E+02
 51
1.41164945E-02
  0
ARC
  8
0
 62
4
 10
-2.12387408E+01
 20
2.72296293E+01
 40
2.76344781E+00
 50
4.24647208E-02
 51
3.12123027E+01
  0
ARC
  8
0
 62
4
 10
-2.12417237E+01
 20
2.72345599E+01
 40
2.76643146E+00
 50
3.28804933E+02
 51
3.59940300E+02
  0
CIRCLE
  8
0
 62
2
 10
-5.73148512E+00
 20
3.15558195E+01
 40
2.50000000E+00
  0
ARC
  8
0
 62
4
 10
-6.90046586E+01
 20
3.39376892E+01
 40
1.20065014E+00
 50
1.38601020E+02
 51
1.80286890E+02
  0
ARC
  8
0
 62
4
 10
-6.58540815E+01
 20
3.15539958E+01
 40
4.35121281E+00
 50
1.58599646E+02
 51
1.80030529E+02
  0
ARC
  8
0
 62
4
 10
-6.90041777E+01
 20
3.39358354E+01
 40
1.20112325E+00
 50
1.80198345E+02
 51
2.21389885E+02
  0
ARC
  8
0
 62
4
 10
-6.58525682E+01
 20
3.15496445E+01
 40
4.35272602E+00
 50
1.79973240E+02
 51
2.01396584E+02
  0
ARC
  8
0
 62
4
 10
-6.90069146E+01
 20
2.91685587E+01
 40
1.19838315E+00
 50
1.38560875E+02
 51
1.79850895E+02
  0
ARC
  8
0
 62
4
 10
-6.90019113E+01
 20
2.91666958E+01
 40
1.20339268E+00
 50
1.79762815E+02
 51
2.21349275E+02
  0
ARC
  8
0
 62
4
 10
-6.90056126E+01
 20
3.39378078E+01
 40
1.20033453E+00
 50
3.59707374E+02
 51
4.14047162E+01
  0
ARC
  8
0
 62
4
 10
-6.90060947E+01
 20
3.39357157E+01
 40
1.20080775E+00
 50
3.18604457E+02
 51
3.59807313E+02
  0
ARC
  8
0
 62
4
 10
-7.21561576E+01
 20
3.15540616E+01
 40
4.35086450E+00
 50
3.59968603E+02
 51
2.14012217E+01
  0
ARC
  8
0
 62
4
 10
-7.21576710E+01
 20
3.15495788E+01
 40
4.35237783E+00
 50
3.38602549E+02
 51
2.76267359E-02
  0
ARC
  8
0
 62
4
 10
-6.90033570E+01
 20
2.91686787E+01
 40
1.19806703E+00
 50
1.43409086E-01
 51
4.14448208E+01
  0
ARC
  8
0
 62
4
 10
-6.90083606E+01
 20
2.91665775E+01
 40
1.20307768E+00
 50
3.18645028E+02
 51
2.42881135E-01
  0
ARC
  8
0
 62
7
 10
-9.10924580E+00
 20
3.15516774E+01
 40
4.62183649E+00
 50
1.28640912E+02
 51
2.31359089E+02
  0
ARC
  8
0
 62
7
 10
-5.85370918E+00
 20
3.15516774E+01
 40
4.62956933E+00
 50
3.08760464E+02
 51
5.12395359E+01
  0
ARC
  8
0
 62
4
 10
6.51576657E+01
 20
3.15516774E+01
 40
2.89422250E+00
 50
1.34621474E+02
 51
1.53309509E+02
  0
ARC
  8
0
 62
4
 10
6.53793641E+01
 20
3.15516774E+01
 40
2.88187512E+00
 50
3.14372175E+02
 51
4.56278248E+01
  0
LINE
  8
0
  6
CENTER
 62
2
 10
-1.01365294E+02
 20
4.81573111E+01
 11
-1.01365294E+02
 21
2.29616311E+01
  0
LINE
  8
0
 62
4
 10
-9.41652937E+01
 20
3.05016774E+01
 11
-9.31652937E+01
 21
2.95016774E+01
  0
LINE
  8
0
 62
4
 10
-9.31652937E+01
 20
3.36016774E+01
 11
-9.41652937E+01
 21
3.26016774E+01
  0
LINE
  8
0
 62
4
 10
-9.93152937E+01
 20
3.97516774E+01
 11
-1.00315294E+02
 21
3.87516774E+01
  0
LINE
  8
0
 62
4
 10
-1.03415294E+02
 20
3.97516774E+01
 11
-1.02415294E+02
 21
3.87516774E+01
  0
LINE
  8
0
 62
4
 10
-9.41652937E+01
 20
3.05016774E+01
 11
-9.53652937E+01
 21
3.05016774E+01
  0
LINE
  8
0
 62
4
 10
-9.41652937E+01
 20
3.05016774E+01
 11
-9.41652937E+01
 21
3.26016774E+01
  0
LINE
  8
0
 62
4
 10
-9.41652937E+01
 20
3.26016774E+01
 11
-9.53652937E+01
 21
3.26016774E+01
  0
LINE
  8
0
 62
4
 10
-1.00315294E+02
 20
3.87516774E+01
 11
-1.00315294E+02
 21
3.75516774E+01
  0
LINE
  8
0
 62
4
 10
-1.02415294E+02
 20
3.87516774E+01
 11
-1.02415294E+02
 21
3.75516774E+01
  0
LINE
  8
0
 62
4
 10
-1.00315294E+02
 20
3.87516774E+01
 11
-1.02415294E+02
 21
3.87516774E+01
  0
LINE
  8
0
 62
4
 10
-9.56652937E+01
 20
3.56191271E+01
 11
-9.56652937E+01
 21
3.58516774E+01
  0
LINE
  8
0
 62
4
 10
-9.34675159E+01
 20
3.58516774E+01
 11
-9.33184397E+01
 21
3.61096939E+01
  0
LINE
  8
0
 62
4
 10
-9.00652937E+01
 20
3.30516774E+01
 11
-9.11652937E+01
 21
3.30516774E+01
  0
LINE
  8
0
 62
6
 10
-9.00652937E+01
 20
3.27816774E+01
 11
-9.14352937E+01
 21
3.27816774E+01
  0
LINE
  8
0
 62
4
 10
-9.00652937E+01
 20
3.00516774E+01
 11
-9.11652937E+01
 21
3.00516774E+01
  0
LINE
  8
0
 62
6
 10
-9.00652937E+01
 20
3.03216774E+01
 11
-9.14352937E+01
 21
3.03216774E+01
  0
LINE
  8
0
 62
4
 10
-9.28652937E+01
 20
3.25516774E+01
 11
-9.31652937E+01
 21
3.25516774E+01
  0
LINE
  8
0
 62
4
 10
-9.28652937E+01
 20
3.05516774E+01
 11
-9.31652937E+01
 21
3.05516774E+01
  0
LINE
  8
0
 62
4
 10
-9.49652937E+01
 20
2.83016774E+01
 11
-9.49652937E+01
 21
2.95016774E+01
  0
LINE
  8
0
 62
4
 10
-9.28652937E+01
 20
3.05516774E+01
 11
-9.28652937E+01
 21
3.25516774E+01
  0
LINE
  8
0
 62
4
 10
-9.31652937E+01
 20
2.95016774E+01
 11
-9.31652937E+01
 21
3.36016774E+01
  0
ARC
  8
0
 62
4
 10
-8.69655457E+01
 20
3.00519294E+01
 40
1.00025204E+00
 50
2.70000000E+02
 51
3.59985565E+02
  0
ARC
  8
0
 62
4
 10
-8.69638806E+01
 20
3.30530905E+01
 40
9.98587915E-01
 50
3.59918921E+02
 51
9.00810783E+01
  0
ARC
  8
0
 62
4
 10
-9.18479376E+01
 20
3.60528249E+01
 40
4.98858030E-01
 50
9.02706064E+01
 51
1.21850680E+02
  0
ARC
  8
0
 62
4
 10
-9.23121610E+01
 20
3.68514764E+01
 40
5.00204483E-01
 50
8.97861168E+01
 51
1.49986937E+02
  0
ARC
  8
0
 62
4
 10
-8.97636303E+01
 20
3.45533407E+01
 40
4.98339415E-01
 50
3.59808757E+02
 51
9.01912426E+01
  0
ARC
  8
0
 62
4
 10
-8.97652972E+01
 20
2.85516809E+01
 40
5.00003530E-01
 50
2.70000000E+02
 51
3.59999596E+02
  0
ARC
  8
0
 62
4
 10
-8.92636303E+01
 20
3.50533407E+01
 40
7.98338372E-01
 50
3.59880623E+02
 51
9.01193777E+01
  0
ARC
  8
0
 62
4
 10
-8.92652962E+01
 20
2.80516799E+01
 40
8.00002492E-01
 50
2.70000000E+02
 51
3.59999821E+02
  0
LINE
  8
0
 62
4
 10
-8.69652937E+01
 20
2.90516774E+01
 11
-8.74652937E+01
 21
2.90516774E+01
  0
LINE
  8
0
 62
4
 10
-8.59652937E+01
 20
3.00516774E+01
 11
-8.59652937E+01
 21
3.30516774E+01
  0
LINE
  8
0
 62
4
 10
-8.69652937E+01
 20
3.40516774E+01
 11
-8.74652937E+01
 21
3.40516774E+01
  0
LINE
  8
0
 62
4
 10
-8.74652937E+01
 20
2.90516774E+01
 11
-8.74652937E+01
 21
3.40516774E+01
  0
LINE
  8
0
 62
4
 10
-9.11652937E+01
 20
3.30516774E+01
 11
-9.14652937E+01
 21
3.27516774E+01
  0
LINE
  8
0
 62
4
 10
-8.74652937E+01
 20
3.30516774E+01
 11
-8.84652937E+01
 21
3.30516774E+01
  0
LINE
  8
0
 62
6
 10
-8.79652937E+01
 20
3.28016774E+01
 11
-8.84652937E+01
 21
3.28016774E+01
  0
LINE
  8
0
 62
4
 10
-9.11652937E+01
 20
3.00516774E+01
 11
-9.14652937E+01
 21
3.03516774E+01
  0
LINE
  8
0
 62
4
 10
-8.79652937E+01
 20
3.00516774E+01
 11
-8.79652937E+01
 21
3.30516774E+01
  0
LINE
  8
0
 62
6
 10
-8.79652937E+01
 20
3.03216774E+01
 11
-8.84652937E+01
 21
3.03216774E+01
  0
LINE
  8
0
 62
4
 10
-8.74652937E+01
 20
3.00516774E+01
 11
-8.84652937E+01
 21
3.00516774E+01
  0
LINE
  8
0
 62
4
 10
-9.49652937E+01
 20
2.72516774E+01
 11
-9.49652937E+01
 21
2.80516774E+01
  0
LINE
  8
0
 62
4
 10
-9.21402937E+01
 20
3.59766774E+01
 11
-9.33256063E+01
 21
3.61105030E+01
  0
LINE
  8
0
 62
4
 10
-8.96402937E+01
 20
3.59766774E+01
 11
-8.96402937E+01
 21
3.64766774E+01
  0
LINE
  8
0
 62
4
 10
-8.96402937E+01
 20
3.64766774E+01
 11
-9.21110126E+01
 21
3.64766774E+01
  0
LINE
  8
0
 62
4
 10
-8.96402937E+01
 20
3.59766774E+01
 11
-9.21402937E+01
 21
3.59766774E+01
  0
LINE
  8
0
 62
4
 10
-9.21652937E+01
 20
2.83016774E+01
 11
-9.21652937E+01
 21
3.48016774E+01
  0
LINE
  8
0
 62
4
 10
-9.14652937E+01
 20
2.83016774E+01
 11
-9.49652937E+01
 21
2.83016774E+01
  0
LINE
  8
0
 62
4
 10
-9.14652937E+01
 20
2.83016774E+01
 11
-9.14652937E+01
 21
3.48016774E+01
  0
LINE
  8
0
 62
4
 10
-8.97652937E+01
 20
2.80516774E+01
 11
-8.97652937E+01
 21
2.82016774E+01
  0
LINE
  8
0
 62
4
 10
-8.97652937E+01
 20
2.82016774E+01
 11
-9.49652937E+01
 21
2.82016774E+01
  0
LINE
  8
0
 62
4
 10
-9.25412937E+01
 20
3.58516774E+01
 11
-9.24486043E+01
 21
3.60114866E+01
  0
LINE
  8
0
 62
4
 10
-9.01652937E+01
 20
3.73516774E+01
 11
-9.23102937E+01
 21
3.73516774E+01
  0
LINE
  8
0
 62
4
 10
-8.92652937E+01
 20
3.45516774E+01
 11
-8.92652937E+01
 21
2.85516774E+01
  0
LINE
  8
0
 62
4
 10
-8.92652937E+01
 20
2.72516774E+01
 11
-9.49652937E+01
 21
2.72516774E+01
  0
LINE
  8
0
 62
4
 10
-9.00652937E+01
 20
3.36966774E+01
 11
-9.00652937E+01
 21
2.94066774E+01
  0
LINE
  8
0
 62
4
 10
-8.92652937E+01
 20
2.92666774E+01
 11
-9.00652937E+01
 21
2.94066774E+01
  0
LINE
  8
0
 62
4
 10
-8.92652937E+01
 20
3.38366774E+01
 11
-9.00652937E+01
 21
3.36966774E+01
  0
LINE
  8
0
 62
4
 10
-9.01652937E+01
 20
3.65516774E+01
 11
-9.01652937E+01
 21
3.73516774E+01
  0
LINE
  8
0
 62
4
 10
-9.01652937E+01
 20
3.65516774E+01
 11
-9.18502937E+01
 21
3.65516774E+01
  0
LINE
  8
0
 62
4
 10
-8.97652937E+01
 20
2.80516774E+01
 11
-9.49652937E+01
 21
2.80516774E+01
  0
LINE
  8
0
 62
4
 10
-8.84652937E+01
 20
2.80516774E+01
 11
-8.84652937E+01
 21
3.50516774E+01
  0
LINE
  8
0
 62
4
 10
-9.30455189E+01
 20
3.65820569E+01
 11
-9.27452937E+01
 21
3.71016774E+01
  0
LINE
  8
0
 62
4
 10
-9.21121573E+01
 20
3.64766774E+01
 11
-9.33200718E+01
 21
3.66130548E+01
  0
LINE
  8
0
 62
6
 10
-8.79652937E+01
 20
3.28016774E+01
 11
-8.84652937E+01
 21
3.28016774E+01
  0
LINE
  8
0
 62
6
 10
-8.79652937E+01
 20
3.27816774E+01
 11
-8.84652937E+01
 21
3.27816774E+01
  0
LINE
  8
0
 62
4
 10
-9.33200718E+01
 20
3.66130548E+01
 11
-9.62133018E+01
 21
3.62943328E+01
  0
LINE
  8
0
 62
4
 10
-9.33207531E+01
 20
3.61099551E+01
 11
-9.58249163E+01
 21
3.58340932E+01
  0
LINE
  8
0
 62
4
 10
-9.49617562E+01
 20
2.80517191E+01
 11
-9.53652937E+01
 21
2.80421998E+01
  0
LINE
  8
0
 62
4
 10
-9.49652937E+01
 20
2.82016774E+01
 11
-9.53652937E+01
 21
2.81922415E+01
  0
LINE
  8
0
 62
4
 10
-8.97652937E+01
 20
3.50516774E+01
 11
-9.53652937E+01
 21
3.50516774E+01
  0
LINE
  8
0
 62
4
 10
-9.56652937E+01
 20
3.58516774E+01
 11
-8.92652937E+01
 21
3.58516774E+01
  0
LINE
  8
0
 62
4
 10
-9.14652937E+01
 20
3.48016774E+01
 11
-9.53652937E+01
 21
3.48016774E+01
  0
LINE
  8
0
 62
4
 10
-9.31652937E+01
 20
2.95016774E+01
 11
-9.53652937E+01
 21
2.95016774E+01
  0
LINE
  8
0
 62
4
 10
-9.31652937E+01
 20
3.36016774E+01
 11
-9.53652937E+01
 21
3.36016774E+01
  0
LINE
  8
0
 62
6
 10
-1.02595294E+02
 20
4.49516774E+01
 11
-1.02595294E+02
 21
4.44516774E+01
  0
LINE
  8
0
 62
6
 10
-1.02615294E+02
 20
4.49516774E+01
 11
-1.02615294E+02
 21
4.44516774E+01
  0
LINE
  8
0
 62
4
 10
-1.06290294E+02
 20
4.08048138E+01
 11
-1.06426671E+02
 21
3.95968993E+01
  0
LINE
  8
0
 62
4
 10
-1.06395673E+02
 20
3.98714522E+01
 11
-1.06915294E+02
 21
4.01716774E+01
  0
LINE
  8
0
 62
4
 10
-1.06426671E+02
 20
3.95968993E+01
 11
-1.06107949E+02
 21
3.67036693E+01
  0
LINE
  8
0
 62
4
 10
-1.05923571E+02
 20
3.95962180E+01
 11
-1.05647709E+02
 21
3.70920548E+01
  0
LINE
  8
0
 62
4
 10
-9.78653354E+01
 20
3.79552148E+01
 11
-9.78558161E+01
 21
3.75516774E+01
  0
LINE
  8
0
 62
4
 10
-9.80152937E+01
 20
3.79516774E+01
 11
-9.80058579E+01
 21
3.75516774E+01
  0
LINE
  8
0
 62
4
 10
-9.78652937E+01
 20
4.44516774E+01
 11
-1.04865294E+02
 21
4.44516774E+01
  0
LINE
  8
0
 62
4
 10
-1.04865294E+02
 20
4.31516774E+01
 11
-1.04865294E+02
 21
3.75516774E+01
  0
LINE
  8
0
 62
4
 10
-9.78652937E+01
 20
4.31516774E+01
 11
-9.78652937E+01
 21
3.79516774E+01
  0
LINE
  8
0
 62
4
 10
-1.06365294E+02
 20
4.27516774E+01
 11
-1.06365294E+02
 21
4.10666774E+01
  0
LINE
  8
0
 62
4
 10
-1.06365294E+02
 20
4.27516774E+01
 11
-1.07165294E+02
 21
4.27516774E+01
  0
LINE
  8
0
 62
4
 10
-1.03650294E+02
 20
4.36516774E+01
 11
-1.03510294E+02
 21
4.28516774E+01
  0
LINE
  8
0
 62
4
 10
-9.90802937E+01
 20
4.36516774E+01
 11
-9.92202937E+01
 21
4.28516774E+01
  0
LINE
  8
0
 62
4
 10
-1.03510294E+02
 20
4.28516774E+01
 11
-9.92202937E+01
 21
4.28516774E+01
  0
LINE
  8
0
 62
4
 10
-9.70652937E+01
 20
4.36516774E+01
 11
-9.70652937E+01
 21
3.79516774E+01
  0
LINE
  8
0
 62
4
 10
-1.05665294E+02
 20
3.72516774E+01
 11
-1.05665294E+02
 21
4.36516774E+01
  0
LINE
  8
0
 62
4
 10
-1.04365294E+02
 20
4.36516774E+01
 11
-9.83652937E+01
 21
4.36516774E+01
  0
LINE
  8
0
 62
4
 10
-1.07165294E+02
 20
4.27516774E+01
 11
-1.07165294E+02
 21
4.06066774E+01
  0
LINE
  8
0
 62
4
 10
-1.05665294E+02
 20
4.03756774E+01
 11
-1.05825103E+02
 21
4.04683668E+01
  0
LINE
  8
0
 62
4
 10
-9.80152937E+01
 20
4.31516774E+01
 11
-9.80152937E+01
 21
3.79516774E+01
  0
LINE
  8
0
 62
4
 10
-9.78652937E+01
 20
4.31516774E+01
 11
-9.80152937E+01
 21
4.31516774E+01
  0
LINE
  8
0
 62
4
 10
-9.81152937E+01
 20
4.14516774E+01
 11
-1.04615294E+02
 21
4.14516774E+01
  0
LINE
  8
0
 62
4
 10
-1.04615294E+02
 20
4.14516774E+01
 11
-1.04615294E+02
 21
3.75516774E+01
  0
LINE
  8
0
 62
4
 10
-9.81152937E+01
 20
4.14516774E+01
 11
-9.81152937E+01
 21
3.79516774E+01
  0
LINE
  8
0
 62
4
 10
-9.81152937E+01
 20
4.07516774E+01
 11
-1.04615294E+02
 21
4.07516774E+01
  0
LINE
  8
0
 62
4
 10
-1.05790294E+02
 20
4.32766774E+01
 11
-1.05790294E+02
 21
4.07766774E+01
  0
LINE
  8
0
 62
4
 10
-1.06290294E+02
 20
4.32766774E+01
 11
-1.06290294E+02
 21
4.08059585E+01
  0
LINE
  8
0
 62
4
 10
-1.05790294E+02
 20
4.32766774E+01
 11
-1.06290294E+02
 21
4.32766774E+01
  0
LINE
  8
0
 62
4
 10
-1.05790294E+02
 20
4.07766774E+01
 11
-1.05924119E+02
 21
3.95913648E+01
  0
LINE
  8
0
 62
4
 10
-9.70652937E+01
 20
3.79516774E+01
 11
-9.78652937E+01
 21
3.79516774E+01
  0
LINE
  8
0
 62
4
 10
-1.05432743E+02
 20
3.72516774E+01
 11
-1.05665294E+02
 21
3.72516774E+01
  0
LINE
  8
0
 62
4
 10
-9.98652937E+01
 20
4.54516774E+01
 11
-9.98652937E+01
 21
4.44516774E+01
  0
LINE
  8
0
 62
6
 10
-1.00135294E+02
 20
4.49516774E+01
 11
-1.00135294E+02
 21
4.44516774E+01
  0
LINE
  8
0
 62
4
 10
-9.98652937E+01
 20
4.49516774E+01
 11
-1.02865294E+02
 21
4.49516774E+01
  0
LINE
  8
0
 62
4
 10
-9.98652937E+01
 20
4.17516774E+01
 11
-1.00165294E+02
 21
4.14516774E+01
  0
LINE
  8
0
 62
6
 10
-1.02615294E+02
 20
4.49516774E+01
 11
-1.02615294E+02
 21
4.44516774E+01
  0
LINE
  8
0
 62
4
 10
-1.02865294E+02
 20
4.54516774E+01
 11
-1.02865294E+02
 21
4.44516774E+01
  0
LINE
  8
0
 62
4
 10
-1.02865294E+02
 20
4.17516774E+01
 11
-1.02565294E+02
 21
4.14516774E+01
  0
LINE
  8
0
 62
4
 10
-9.88652937E+01
 20
4.54516774E+01
 11
-1.03865294E+02
 21
4.54516774E+01
  0
LINE
  8
0
 62
4
 10
-1.03865294E+02
 20
4.59516774E+01
 11
-1.03865294E+02
 21
4.54516774E+01
  0
LINE
  8
0
 62
4
 10
-9.98652937E+01
 20
4.69516774E+01
 11
-1.02865294E+02
 21
4.69516774E+01
  0
LINE
  8
0
 62
4
 10
-9.88652937E+01
 20
4.59516774E+01
 11
-9.88652937E+01
 21
4.54516774E+01
  0
ARC
  8
0
 62
4
 10
-9.78652962E+01
 20
4.36516749E+01
 40
8.00002492E-01
 50
1.78488222E-04
 51
9.00000002E+01
  0
ARC
  8
0
 62
4
 10
-1.04866957E+02
 20
4.36533407E+01
 40
7.98338372E-01
 50
8.98806227E+01
 51
1.80119377E+02
  0
ARC
  8
0
 62
4
 10
-9.83652972E+01
 20
4.31516739E+01
 40
5.00003530E-01
 50
4.04473633E-04
 51
9.00000002E+01
  0
ARC
  8
0
 62
4
 10
-1.04366957E+02
 20
4.31533407E+01
 40
4.98339415E-01
 50
8.98087572E+01
 51
1.80191243E+02
  0
ARC
  8
0
 62
4
 10
-1.06665093E+02
 20
4.06048101E+01
 40
5.00204483E-01
 50
1.79786117E+02
 51
2.39986937E+02
  0
ARC
  8
0
 62
4
 10
-1.05866441E+02
 20
4.10690335E+01
 40
4.98858030E-01
 50
1.80270607E+02
 51
2.11850680E+02
  0
ARC
  8
0
 62
4
 10
-1.02866707E+02
 20
4.59530905E+01
 40
9.98587915E-01
 50
8.99189215E+01
 51
1.80081078E+02
  0
ARC
  8
0
 62
4
 10
-9.98655457E+01
 20
4.59514254E+01
 40
1.00025204E+00
 50
1.44352152E-02
 51
9.00000002E+01
  0
LINE
  8
0
 62
4
 10
-9.93152937E+01
 20
3.97516774E+01
 11
-1.03415294E+02
 21
3.97516774E+01
  0
LINE
  8
0
 62
4
 10
-1.00365294E+02
 20
4.00516774E+01
 11
-1.02365294E+02
 21
4.00516774E+01
  0
LINE
  8
0
 62
4
 10
-9.81152937E+01
 20
3.79516774E+01
 11
-9.93152937E+01
 21
3.79516774E+01
  0
LINE
  8
0
 62
4
 10
-9.93152937E+01
 20
3.97516774E+01
 11
-9.93152937E+01
 21
3.75516774E+01
  0
LINE
  8
0
 62
4
 10
-1.00365294E+02
 20
4.00516774E+01
 11
-1.00365294E+02
 21
3.97516774E+01
  0
LINE
  8
0
 62
4
 10
-1.02365294E+02
 20
4.00516774E+01
 11
-1.02365294E+02
 21
3.97516774E+01
  0
LINE
  8
0
 62
4
 10
-1.03415294E+02
 20
3.97516774E+01
 11
-1.03415294E+02
 21
3.75516774E+01
  0
LINE
  8
0
 62
6
 10
-1.00135294E+02
 20
4.28516774E+01
 11
-1.00135294E+02
 21
4.14816774E+01
  0
LINE
  8
0
 62
4
 10
-9.98652937E+01
 20
4.28516774E+01
 11
-9.98652937E+01
 21
4.17516774E+01
  0
LINE
  8
0
 62
6
 10
-1.02595294E+02
 20
4.28516774E+01
 11
-1.02595294E+02
 21
4.14816774E+01
  0
LINE
  8
0
 62
4
 10
-1.02865294E+02
 20
4.28516774E+01
 11
-1.02865294E+02
 21
4.17516774E+01
  0
LINE
  8
0
 62
4
 10
-1.05665294E+02
 20
3.94494552E+01
 11
-1.05923310E+02
 21
3.95985314E+01
  0
CIRCLE
  8
0
 62
2
 10
-1.01365294E+02
 20
3.15516774E+01
 40
1.22950000E+00
  0
LINE
  8
0
  6
CENTER
 62
2
 10
-1.08485294E+02
 20
3.15516774E+01
 11
-8.46722336E+01
 21
3.15516774E+01
  0
LINE
  8
0
 62
4
 10
-1.01365294E+02
 20
2.57816774E+01
 11
-9.63652937E+01
 21
2.86616774E+01
  0
LINE
  8
0
 62
4
 10
-1.06365294E+02
 20
3.44416774E+01
 11
-1.01365294E+02
 21
3.73216774E+01
  0
LINE
  8
0
 62
4
 10
-1.06365294E+02
 20
3.44416774E+01
 11
-1.06365294E+02
 21
2.86616774E+01
  0
LINE
  8
0
 62
4
 10
-9.63652937E+01
 20
3.44416774E+01
 11
-9.63652937E+01
 21
2.86616774E+01
  0
LINE
  8
0
 62
4
 10
-1.06365294E+02
 20
2.86616774E+01
 11
-1.01365294E+02
 21
2.57816774E+01
  0
LINE
  8
0
 62
4
 10
-1.01365294E+02
 20
3.73216774E+01
 11
-9.63652937E+01
 21
3.44416774E+01
  0
LINE
  8
0
 62
4
 10
-1.01365294E+02
 20
2.83716774E+01
 11
-9.86152937E+01
 21
2.99616774E+01
  0
LINE
  8
0
 62
4
 10
-1.04115294E+02
 20
3.31416774E+01
 11
-1.01365294E+02
 21
3.47316774E+01
  0
LINE
  8
0
 62
4
 10
-1.04115294E+02
 20
3.31416774E+01
 11
-1.04115294E+02
 21
2.99616774E+01
  0
LINE
  8
0
 62
4
 10
-9.86152937E+01
 20
3.31416774E+01
 11
-9.86152937E+01
 21
2.99616774E+01
  0
LINE
  8
0
 62
4
 10
-1.04115294E+02
 20
2.99616774E+01
 11
-1.01365294E+02
 21
2.83716774E+01
  0
LINE
  8
0
 62
4
 10
-1.01365294E+02
 20
3.47316774E+01
 11
-9.86152937E+01
 21
3.31416774E+01
  0
LINE
  8
0
 62
7
 10
-1.04975294E+02
 20
3.75516774E+01
 11
-9.77652937E+01
 21
3.75516774E+01
  0
LINE
  8
0
 62
7
 10
-1.04975294E+02
 20
2.55516774E+01
 11
-9.77652937E+01
 21
2.55516774E+01
  0
LINE
  8
0
 62
7
 10
-1.07365294E+02
 20
3.51616774E+01
 11
-1.07365294E+02
 21
2.79416774E+01
  0
LINE
  8
0
 62
7
 10
-9.53652937E+01
 20
3.51616774E+01
 11
-9.53652937E+01
 21
2.79416774E+01
  0
CIRCLE
  8
0
 62
7
 10
-1.01374155E+02
 20
3.15558195E+01
 40
1.50000000E+00
  0
ARC
  8
0
 62
7
 10
-1.01371609E+02
 20
3.15572900E+01
 40
3.00449502E+00
 50
2.76427003E+02
 51
3.23536276E+02
  0
CIRCLE
  8
0
 62
4
 10
-1.01374155E+02
 20
3.15558195E+01
 40
5.00000000E+00
  0
CIRCLE
  8
0
 62
4
 10
-1.01374155E+02
 20
3.15558195E+01
 40
2.75000000E+00
  0
ARC
  8
0
 62
7
 10
-1.01374494E+02
 20
3.15556240E+01
 40
2.99438181E+00
 50
9.63426149E+01
 51
1.43620663E+02
  0
ARC
  8
0
 62
7
 10
-1.01374152E+02
 20
3.15516774E+01
 40
2.99229961E+00
 50
1.56357456E+02
 51
2.03642545E+02
  0
ARC
  8
0
 62
7
 10
-1.01370907E+02
 20
3.15539481E+01
 40
3.00095876E+00
 50
2.16434287E+02
 51
2.63602434E+02
  0
ARC
  8
0
 62
7
 10
-1.01374157E+02
 20
3.15516774E+01
 40
3.00854266E+00
 50
3.36492806E+02
 51
2.35071942E+01
  0
ARC
  8
0
 62
7
 10
-1.01368026E+02
 20
3.15522748E+01
 40
2.99792434E+00
 50
3.64089673E+01
 51
8.36277538E+01
  0
ARC
  8
0
 62
7
 10
-1.01360112E+02
 20
3.15417969E+01
 40
7.00295530E+00
 50
3.11250437E+01
 51
5.91141866E+01
  0
ARC
  8
0
 62
7
 10
-1.01371795E+02
 20
3.15581785E+01
 40
6.99337071E+00
 50
1.21015741E+02
 51
1.48984259E+02
  0
ARC
  8
0
 62
7
 10
-1.01367649E+02
 20
3.15493221E+01
 40
6.99906007E+00
 50
2.11027339E+02
 51
2.38972661E+02
  0
ARC
  8
0
 62
7
 10
-1.01364245E+02
 20
3.15657076E+01
 40
7.00863801E+00
 50
3.00897391E+02
 51
3.28863378E+02
  0
CIRCLE
  8
0
 62
7
 10
-1.01374155E+02
 20
3.15558195E+01
 40
6.00000000E+00
  0
LINE
  8
0
  6
CENTER
 62
2
 10
9.67047063E+01
 20
4.89456660E+01
 11
9.67047063E+01
 21
2.29616311E+01
  0
LINE
  8
0
 62
7
 10
9.33452704E+01
 20
3.75516774E+01
 11
9.34547063E+01
 21
3.75516774E+01
  0
LINE
  8
0
 62
7
 10
9.07047063E+01
 20
2.81922415E+01
 11
9.07047063E+01
 21
2.83016774E+01
  0
ARC
  8
0
 62
7
 10
9.66958452E+01
 20
3.15558195E+01
 40
6.00000000E+00
 50
2.16165077E+02
 51
3.98288033E+01
  0
ARC
  8
0
 62
7
 10
9.66958452E+01
 20
3.15558195E+01
 40
6.00000000E+00
 50
2.12844236E+02
 51
2.14380240E+02
  0
ARC
  8
0
 62
7
 10
9.66982052E+01
 20
3.15581785E+01
 40
6.99337071E+00
 50
1.42307461E+02
 51
1.44501232E+02
  0
ARC
  8
0
 62
7
 10
9.66958452E+01
 20
3.15558195E+01
 40
6.00000000E+00
 50
1.38065225E+02
 51
1.47249875E+02
  0
LINE
  8
0
 62
4
 10
9.34491438E+01
 20
2.84461149E+01
 11
9.33047063E+01
 21
2.83016774E+01
  0
LINE
  8
0
 62
4
 10
9.25047063E+01
 20
3.05516774E+01
 11
9.27047063E+01
 21
3.05516774E+01
  0
LINE
  8
0
 62
4
 10
9.34488855E+01
 20
3.46574981E+01
 11
9.33047063E+01
 21
3.48016774E+01
  0
LINE
  8
0
 62
4
 10
9.14361307E+01
 20
3.56532437E+01
 11
9.14525556E+01
 21
3.58023417E+01
  0
LINE
  8
0
 62
4
 10
9.31460020E+01
 20
3.54648820E+01
 11
9.31303572E+01
 21
3.48016774E+01
  0
LINE
  8
0
 62
4
 10
9.32956548E+01
 20
3.54483961E+01
 11
9.32803989E+01
 21
3.48016774E+01
  0
LINE
  8
0
 62
4
 10
9.34547063E+01
 20
3.54308748E+01
 11
9.34547063E+01
 21
3.49516774E+01
  0
LINE
  8
0
 62
4
 10
9.25047063E+01
 20
3.25516774E+01
 11
9.27047063E+01
 21
3.25516774E+01
  0
LINE
  8
0
 62
4
 10
9.25047063E+01
 20
2.95016774E+01
 11
9.25047063E+01
 21
3.36016774E+01
  0
LINE
  8
0
 62
4
 10
9.18047063E+01
 20
3.28516774E+01
 11
9.25047063E+01
 21
3.36016774E+01
  0
LINE
  8
0
 62
4
 10
9.18047063E+01
 20
3.02516774E+01
 11
9.18047063E+01
 21
3.28516774E+01
  0
LINE
  8
0
 62
4
 10
9.18047063E+01
 20
3.02516774E+01
 11
9.25047063E+01
 21
2.95016774E+01
  0
LINE
  8
0
 62
4
 10
9.07047063E+01
 20
2.83016774E+01
 11
9.33047063E+01
 21
2.83016774E+01
  0
LINE
  8
0
 62
4
 10
9.03047063E+01
 20
2.82016774E+01
 11
9.37957214E+01
 21
2.81193256E+01
  0
LINE
  8
0
 62
4
 10
9.03011688E+01
 20
2.80517191E+01
 11
9.39886218E+01
 21
2.79647334E+01
  0
LINE
  8
0
 62
4
 10
9.07047063E+01
 20
2.83016774E+01
 11
9.07047063E+01
 21
2.95016774E+01
  0
LINE
  8
0
 62
4
 10
9.54491399E+01
 20
3.55516774E+01
 11
9.54832527E+01
 21
3.58613396E+01
  0
LINE
  8
0
 62
4
 10
9.14361307E+01
 20
3.56532437E+01
 11
9.42773950E+01
 21
3.53402463E+01
  0
LINE
  8
0
 62
7
 10
9.07047063E+01
 20
3.50516774E+01
 11
9.07047063E+01
 21
3.48016774E+01
  0
LINE
  8
0
 62
4
 10
9.10047063E+01
 20
3.50516774E+01
 11
9.10047063E+01
 21
3.58516774E+01
  0
LINE
  8
0
 62
4
 10
9.03047063E+01
 20
2.83016774E+01
 11
9.03047063E+01
 21
2.95016774E+01
  0
LINE
  8
0
 62
4
 10
9.03047063E+01
 20
2.72516774E+01
 11
9.03047063E+01
 21
2.80516774E+01
  0
LINE
  8
0
 62
4
 10
8.88069285E+01
 20
3.58516774E+01
 11
8.86578523E+01
 21
3.61096939E+01
  0
LINE
  8
0
 62
4
 10
8.54047063E+01
 20
3.30516774E+01
 11
8.65047063E+01
 21
3.30516774E+01
  0
LINE
  8
0
 62
6
 10
8.54047063E+01
 20
3.27816774E+01
 11
8.67747063E+01
 21
3.27816774E+01
  0
LINE
  8
0
 62
4
 10
8.54047063E+01
 20
3.00516774E+01
 11
8.65047063E+01
 21
3.00516774E+01
  0
LINE
  8
0
 62
6
 10
8.54047063E+01
 20
3.03216774E+01
 11
8.67747063E+01
 21
3.03216774E+01
  0
LINE
  8
0
 62
4
 10
8.82047063E+01
 20
3.25516774E+01
 11
8.85047063E+01
 21
3.25516774E+01
  0
LINE
  8
0
 62
4
 10
8.92047063E+01
 20
3.28516774E+01
 11
8.85047063E+01
 21
3.36016774E+01
  0
LINE
  8
0
 62
4
 10
8.82047063E+01
 20
3.05516774E+01
 11
8.85047063E+01
 21
3.05516774E+01
  0
LINE
  8
0
 62
4
 10
8.85047063E+01
 20
2.95016774E+01
 11
8.92047063E+01
 21
3.02516774E+01
  0
LINE
  8
0
 62
4
 10
8.92047063E+01
 20
3.02516774E+01
 11
8.92047063E+01
 21
3.28516774E+01
  0
LINE
  8
0
 62
4
 10
8.82047063E+01
 20
3.05516774E+01
 11
8.82047063E+01
 21
3.25516774E+01
  0
LINE
  8
0
 62
4
 10
8.85047063E+01
 20
2.95016774E+01
 11
8.85047063E+01
 21
3.36016774E+01
  0
ARC
  8
0
 62
4
 10
8.23049583E+01
 20
3.00519294E+01
 40
1.00025204E+00
 50
1.80014435E+02
 51
2.70000000E+02
  0
ARC
  8
0
 62
4
 10
8.23032932E+01
 20
3.30530905E+01
 40
9.98587915E-01
 50
8.99189215E+01
 51
1.80081078E+02
  0
ARC
  8
0
 62
4
 10
8.71873502E+01
 20
3.60528249E+01
 40
4.98858030E-01
 50
5.81493199E+01
 51
8.97293934E+01
  0
ARC
  8
0
 62
4
 10
8.76515735E+01
 20
3.68514764E+01
 40
5.00204483E-01
 50
3.00130628E+01
 51
9.02138830E+01
  0
ARC
  8
0
 62
4
 10
8.51030429E+01
 20
3.45533407E+01
 40
4.98339415E-01
 50
8.98087572E+01
 51
1.80191243E+02
  0
ARC
  8
0
 62
4
 10
8.51047098E+01
 20
2.85516809E+01
 40
5.00003530E-01
 50
1.80000404E+02
 51
2.70000000E+02
  0
ARC
  8
0
 62
4
 10
8.46030429E+01
 20
3.50533407E+01
 40
7.98338372E-01
 50
8.98806227E+01
 51
1.80119377E+02
  0
ARC
  8
0
 62
4
 10
8.46047088E+01
 20
2.80516799E+01
 40
8.00002492E-01
 50
1.80000179E+02
 51
2.70000000E+02
  0
LINE
  8
0
 62
4
 10
8.23047063E+01
 20
2.90516774E+01
 11
8.28047063E+01
 21
2.90516774E+01
  0
LINE
  8
0
 62
4
 10
8.13047063E+01
 20
3.00516774E+01
 11
8.13047063E+01
 21
3.30516774E+01
  0
LINE
  8
0
 62
4
 10
8.23047063E+01
 20
3.40516774E+01
 11
8.28047063E+01
 21
3.40516774E+01
  0
LINE
  8
0
 62
4
 10
8.28047063E+01
 20
2.90516774E+01
 11
8.28047063E+01
 21
3.40516774E+01
  0
LINE
  8
0
 62
4
 10
8.65047063E+01
 20
3.30516774E+01
 11
8.68047063E+01
 21
3.27516774E+01
  0
LINE
  8
0
 62
4
 10
8.28047063E+01
 20
3.30516774E+01
 11
8.38047063E+01
 21
3.30516774E+01
  0
LINE
  8
0
 62
6
 10
8.33047063E+01
 20
3.28016774E+01
 11
8.38047063E+01
 21
3.28016774E+01
  0
LINE
  8
0
 62
4
 10
8.65047063E+01
 20
3.00516774E+01
 11
8.68047063E+01
 21
3.03516774E+01
  0
LINE
  8
0
 62
4
 10
8.33047063E+01
 20
3.00516774E+01
 11
8.33047063E+01
 21
3.30516774E+01
  0
LINE
  8
0
 62
6
 10
8.33047063E+01
 20
3.03216774E+01
 11
8.38047063E+01
 21
3.03216774E+01
  0
LINE
  8
0
 62
4
 10
8.28047063E+01
 20
3.00516774E+01
 11
8.38047063E+01
 21
3.00516774E+01
  0
LINE
  8
0
 62
4
 10
8.74797063E+01
 20
3.59766774E+01
 11
8.86650189E+01
 21
3.61105030E+01
  0
LINE
  8
0
 62
4
 10
8.49797063E+01
 20
3.59766774E+01
 11
8.49797063E+01
 21
3.64766774E+01
  0
LINE
  8
0
 62
4
 10
8.49797063E+01
 20
3.64766774E+01
 11
8.74504251E+01
 21
3.64766774E+01
  0
LINE
  8
0
 62
4
 10
8.49797063E+01
 20
3.59766774E+01
 11
8.74797063E+01
 21
3.59766774E+01
  0
LINE
  8
0
 62
4
 10
8.75047063E+01
 20
2.83016774E+01
 11
8.75047063E+01
 21
3.48016774E+01
  0
LINE
  8
0
 62
4
 10
8.68047063E+01
 20
2.83016774E+01
 11
8.68047063E+01
 21
3.48016774E+01
  0
LINE
  8
0
 62
4
 10
8.51047063E+01
 20
2.80516774E+01
 11
8.51047063E+01
 21
2.82016774E+01
  0
LINE
  8
0
 62
4
 10
8.78807063E+01
 20
3.58516774E+01
 11
8.77880169E+01
 21
3.60114866E+01
  0
LINE
  8
0
 62
4
 10
8.55047063E+01
 20
3.73516774E+01
 11
8.76497063E+01
 21
3.73516774E+01
  0
LINE
  8
0
 62
4
 10
8.46047063E+01
 20
3.45516774E+01
 11
8.46047063E+01
 21
2.85516774E+01
  0
LINE
  8
0
 62
4
 10
8.54047063E+01
 20
3.36966774E+01
 11
8.54047063E+01
 21
2.94066774E+01
  0
LINE
  8
0
 62
4
 10
8.46047063E+01
 20
2.92666774E+01
 11
8.54047063E+01
 21
2.94066774E+01
  0
LINE
  8
0
 62
4
 10
8.46047063E+01
 20
3.38366774E+01
 11
8.54047063E+01
 21
3.36966774E+01
  0
LINE
  8
0
 62
4
 10
8.55047063E+01
 20
3.65516774E+01
 11
8.55047063E+01
 21
3.73516774E+01
  0
LINE
  8
0
 62
4
 10
8.55047063E+01
 20
3.65516774E+01
 11
8.71897063E+01
 21
3.65516774E+01
  0
LINE
  8
0
 62
4
 10
8.38047063E+01
 20
2.80516774E+01
 11
8.38047063E+01
 21
3.50516774E+01
  0
LINE
  8
0
 62
4
 10
8.83849314E+01
 20
3.65820569E+01
 11
8.80847063E+01
 21
3.71016774E+01
  0
LINE
  8
0
 62
4
 10
8.74515699E+01
 20
3.64766774E+01
 11
8.86594844E+01
 21
3.66130548E+01
  0
LINE
  8
0
 62
6
 10
8.33047063E+01
 20
3.28016774E+01
 11
8.38047063E+01
 21
3.28016774E+01
  0
LINE
  8
0
 62
6
 10
8.33047063E+01
 20
3.27816774E+01
 11
8.38047063E+01
 21
3.27816774E+01
  0
LINE
  8
0
 62
4
 10
8.86594844E+01
 20
3.66130548E+01
 11
9.54832527E+01
 21
3.58613396E+01
  0
LINE
  8
0
 62
4
 10
8.86601657E+01
 20
3.61099551E+01
 11
9.44892685E+01
 21
3.54678134E+01
  0
CIRCLE
  8
0
 62
4
 10
9.05047063E+01
 20
3.15516774E+01
 40
1.30000000E+00
  0
LINE
  8
0
 62
4
 10
8.51047063E+01
 20
3.50516774E+01
 11
9.10047063E+01
 21
3.50516774E+01
  0
LINE
  8
0
 62
4
 10
8.51047063E+01
 20
2.80516774E+01
 11
9.03047063E+01
 21
2.80516774E+01
  0
LINE
  8
0
 62
4
 10
8.46047063E+01
 20
2.72516774E+01
 11
9.03047063E+01
 21
2.72516774E+01
  0
LINE
  8
0
 62
4
 10
9.10047063E+01
 20
3.58516774E+01
 11
8.46047063E+01
 21
3.58516774E+01
  0
LINE
  8
0
 62
4
 10
8.51047063E+01
 20
2.82016774E+01
 11
9.03047063E+01
 21
2.82016774E+01
  0
LINE
  8
0
 62
4
 10
8.68047063E+01
 20
3.48016774E+01
 11
9.33047063E+01
 21
3.48016774E+01
  0
LINE
  8
0
 62
4
 10
8.68047063E+01
 20
2.83016774E+01
 11
9.03047063E+01
 21
2.83016774E+01
  0
LINE
  8
0
 62
4
 10
8.92047063E+01
 20
3.02516774E+01
 11
9.18047063E+01
 21
3.02516774E+01
  0
LINE
  8
0
 62
4
 10
8.85047063E+01
 20
2.95016774E+01
 11
9.25047063E+01
 21
2.95016774E+01
  0
LINE
  8
0
 62
4
 10
8.92047063E+01
 20
3.28516774E+01
 11
9.18047063E+01
 21
3.28516774E+01
  0
LINE
  8
0
 62
4
 10
8.85047063E+01
 20
3.36016774E+01
 11
9.25047063E+01
 21
3.36016774E+01
  0
LINE
  8
0
 62
4
 10
9.35991438E+01
 20
3.48072399E+01
 11
9.34547063E+01
 21
3.49516774E+01
  0
LINE
  8
0
 62
4
 10
9.98105271E+01
 20
3.48074981E+01
 11
9.99547063E+01
 21
3.49516774E+01
  0
ARC
  8
0
 62
7
 10
9.67098878E+01
 20
3.15417969E+01
 40
7.00295530E+00
 50
5.23599465E+01
 51
5.46222786E+01
  0
ARC
  8
0
 62
7
 10
9.66958452E+01
 20
3.15558195E+01
 40
6.00000000E+00
 50
4.79192761E+01
 51
5.71021111E+01
  0
LINE
  8
0
 62
7
 10
1.00204706E+02
 20
3.75516774E+01
 11
9.99547063E+01
 21
3.75516774E+01
  0
LINE
  8
0
 62
6
 10
9.79347063E+01
 20
4.49516774E+01
 11
9.79347063E+01
 21
4.44516774E+01
  0
LINE
  8
0
 62
6
 10
9.79547063E+01
 20
4.49516774E+01
 11
9.79547063E+01
 21
4.44516774E+01
  0
LINE
  8
0
 62
4
 10
1.01629706E+02
 20
4.08048138E+01
 11
1.01766084E+02
 21
3.95968993E+01
  0
LINE
  8
0
 62
4
 10
1.01735086E+02
 20
3.98714522E+01
 11
1.02254706E+02
 21
4.01716774E+01
  0
LINE
  8
0
 62
4
 10
1.01766084E+02
 20
3.95968993E+01
 11
1.01014368E+02
 21
3.27731310E+01
  0
LINE
  8
0
 62
4
 10
1.00806273E+02
 20
3.68202529E+01
 11
1.00955371E+02
 21
3.68038281E+01
  0
LINE
  8
0
 62
4
 10
1.00704706E+02
 20
3.28072438E+01
 11
1.01014368E+02
 21
3.27731310E+01
  0
LINE
  8
0
 62
4
 10
1.00806273E+02
 20
3.68202529E+01
 11
1.00493275E+02
 21
3.39789886E+01
  0
LINE
  8
0
 62
4
 10
1.01262984E+02
 20
3.95962180E+01
 11
1.00620842E+02
 21
3.37671151E+01
  0
LINE
  8
0
 62
4
 10
9.32047480E+01
 20
3.79552148E+01
 11
9.31613880E+01
 21
3.61171192E+01
  0
LINE
  8
0
 62
4
 10
9.33547063E+01
 20
3.79516774E+01
 11
9.33110408E+01
 21
3.61006333E+01
  0
CIRCLE
  8
0
 62
4
 10
9.67047063E+01
 20
3.77516774E+01
 40
1.30000000E+00
  0
LINE
  8
0
 62
4
 10
9.32047063E+01
 20
4.44516774E+01
 11
1.00204706E+02
 21
4.44516774E+01
  0
LINE
  8
0
 62
4
 10
1.00204706E+02
 20
4.31516774E+01
 11
1.00204706E+02
 21
3.72516774E+01
  0
LINE
  8
0
 62
4
 10
9.32047063E+01
 20
4.31516774E+01
 11
9.32047063E+01
 21
3.79516774E+01
  0
LINE
  8
0
 62
4
 10
1.01704706E+02
 20
4.27516774E+01
 11
1.01704706E+02
 21
4.10666774E+01
  0
LINE
  8
0
 62
4
 10
1.01704706E+02
 20
4.27516774E+01
 11
1.02504706E+02
 21
4.27516774E+01
  0
LINE
  8
0
 62
4
 10
9.89897063E+01
 20
4.36516774E+01
 11
9.88497063E+01
 21
4.28516774E+01
  0
LINE
  8
0
 62
4
 10
9.44197063E+01
 20
4.36516774E+01
 11
9.45597063E+01
 21
4.28516774E+01
  0
LINE
  8
0
 62
4
 10
9.88497063E+01
 20
4.28516774E+01
 11
9.45597063E+01
 21
4.28516774E+01
  0
LINE
  8
0
 62
4
 10
9.24047063E+01
 20
4.36516774E+01
 11
9.24047063E+01
 21
3.79516774E+01
  0
LINE
  8
0
 62
4
 10
1.01004706E+02
 20
3.72516774E+01
 11
1.01004706E+02
 21
4.36516774E+01
  0
LINE
  8
0
 62
4
 10
9.97047063E+01
 20
4.36516774E+01
 11
9.37047063E+01
 21
4.36516774E+01
  0
LINE
  8
0
 62
4
 10
1.02504706E+02
 20
4.27516774E+01
 11
1.02504706E+02
 21
4.06066774E+01
  0
LINE
  8
0
 62
4
 10
1.01004706E+02
 20
4.03756774E+01
 11
1.01164516E+02
 21
4.04683668E+01
  0
LINE
  8
0
 62
4
 10
9.33547063E+01
 20
4.31516774E+01
 11
9.33547063E+01
 21
3.79516774E+01
  0
LINE
  8
0
 62
4
 10
9.32047063E+01
 20
4.31516774E+01
 11
9.33547063E+01
 21
4.31516774E+01
  0
LINE
  8
0
 62
4
 10
9.34547063E+01
 20
4.14516774E+01
 11
9.99547063E+01
 21
4.14516774E+01
  0
LINE
  8
0
 62
4
 10
9.99547063E+01
 20
4.14516774E+01
 11
9.99547063E+01
 21
3.49516774E+01
  0
LINE
  8
0
 62
4
 10
9.34547063E+01
 20
4.14516774E+01
 11
9.34547063E+01
 21
3.79516774E+01
  0
LINE
  8
0
 62
4
 10
9.34547063E+01
 20
4.07516774E+01
 11
9.99547063E+01
 21
4.07516774E+01
  0
LINE
  8
0
 62
4
 10
1.01129706E+02
 20
4.32766774E+01
 11
1.01129706E+02
 21
4.07766774E+01
  0
LINE
  8
0
 62
4
 10
1.01629706E+02
 20
4.32766774E+01
 11
1.01629706E+02
 21
4.08059585E+01
  0
LINE
  8
0
 62
4
 10
1.01129706E+02
 20
4.32766774E+01
 11
1.01629706E+02
 21
4.32766774E+01
  0
LINE
  8
0
 62
4
 10
1.01129706E+02
 20
4.07766774E+01
 11
1.01263532E+02
 21
3.95913648E+01
  0
LINE
  8
0
 62
4
 10
9.24047063E+01
 20
3.79516774E+01
 11
9.32047063E+01
 21
3.79516774E+01
  0
LINE
  8
0
 62
4
 10
1.00204706E+02
 20
3.72516774E+01
 11
1.01004706E+02
 21
3.72516774E+01
  0
LINE
  8
0
 62
4
 10
9.52047063E+01
 20
4.54516774E+01
 11
9.52047063E+01
 21
4.44516774E+01
  0
LINE
  8
0
 62
6
 10
9.54747063E+01
 20
4.49516774E+01
 11
9.54747063E+01
 21
4.44516774E+01
  0
LINE
  8
0
 62
4
 10
9.52047063E+01
 20
4.49516774E+01
 11
9.82047063E+01
 21
4.49516774E+01
  0
LINE
  8
0
 62
4
 10
9.52047063E+01
 20
4.17516774E+01
 11
9.55047063E+01
 21
4.14516774E+01
  0
LINE
  8
0
 62
6
 10
9.79547063E+01
 20
4.49516774E+01
 11
9.79547063E+01
 21
4.44516774E+01
  0
LINE
  8
0
 62
4
 10
9.82047063E+01
 20
4.54516774E+01
 11
9.82047063E+01
 21
4.44516774E+01
  0
LINE
  8
0
 62
4
 10
9.82047063E+01
 20
4.17516774E+01
 11
9.79047063E+01
 21
4.14516774E+01
  0
LINE
  8
0
 62
4
 10
9.42047063E+01
 20
4.54516774E+01
 11
9.92047063E+01
 21
4.54516774E+01
  0
LINE
  8
0
 62
4
 10
9.92047063E+01
 20
4.59516774E+01
 11
9.92047063E+01
 21
4.54516774E+01
  0
LINE
  8
0
 62
4
 10
9.52047063E+01
 20
4.69516774E+01
 11
9.82047063E+01
 21
4.69516774E+01
  0
LINE
  8
0
 62
4
 10
9.42047063E+01
 20
4.59516774E+01
 11
9.42047063E+01
 21
4.54516774E+01
  0
ARC
  8
0
 62
4
 10
9.32047088E+01
 20
4.36516749E+01
 40
8.00002492E-01
 50
9.00000002E+01
 51
1.79999822E+02
  0
ARC
  8
0
 62
4
 10
1.00206370E+02
 20
4.36533407E+01
 40
7.98338372E-01
 50
3.59880623E+02
 51
9.01193777E+01
  0
ARC
  8
0
 62
4
 10
9.37047098E+01
 20
4.31516739E+01
 40
5.00003530E-01
 50
9.00000002E+01
 51
1.79999595E+02
  0
ARC
  8
0
 62
4
 10
9.97063697E+01
 20
4.31533407E+01
 40
4.98339415E-01
 50
3.59808757E+02
 51
9.01912426E+01
  0
ARC
  8
0
 62
4
 10
1.02004505E+02
 20
4.06048101E+01
 40
5.00204483E-01
 50
3.00013063E+02
 51
2.13883296E-01
  0
ARC
  8
0
 62
4
 10
1.01205854E+02
 20
4.10690335E+01
 40
4.98858030E-01
 50
3.28149320E+02
 51
3.59729393E+02
  0
ARC
  8
0
 62
4
 10
9.82061194E+01
 20
4.59530905E+01
 40
9.98587915E-01
 50
3.59918921E+02
 51
9.00810783E+01
  0
ARC
  8
0
 62
4
 10
9.52049583E+01
 20
4.59514254E+01
 40
1.00025204E+00
 50
9.00000002E+01
 51
1.79985565E+02
  0
LINE
  8
0
 62
4
 10
9.54711721E+01
 20
3.57516774E+01
 11
9.87547063E+01
 21
3.57516774E+01
  0
LINE
  8
0
 62
4
 10
9.46547063E+01
 20
3.97516774E+01
 11
9.87547063E+01
 21
3.97516774E+01
  0
LINE
  8
0
 62
4
 10
9.57047063E+01
 20
4.00516774E+01
 11
9.77047063E+01
 21
4.00516774E+01
  0
LINE
  8
0
 62
4
 10
9.34547063E+01
 20
3.75516774E+01
 11
9.46547063E+01
 21
3.75516774E+01
  0
LINE
  8
0
 62
4
 10
9.34547063E+01
 20
3.79516774E+01
 11
9.46547063E+01
 21
3.79516774E+01
  0
LINE
  8
0
 62
4
 10
9.54047063E+01
 20
3.64516774E+01
 11
9.80047063E+01
 21
3.64516774E+01
  0
LINE
  8
0
 62
4
 10
9.54047063E+01
 20
3.90516774E+01
 11
9.80047063E+01
 21
3.90516774E+01
  0
LINE
  8
0
 62
4
 10
9.54047063E+01
 20
3.64516774E+01
 11
9.48472669E+01
 21
3.59314006E+01
  0
LINE
  8
0
 62
4
 10
9.46547063E+01
 20
3.97516774E+01
 11
9.54047063E+01
 21
3.90516774E+01
  0
LINE
  8
0
 62
4
 10
9.54047063E+01
 20
3.90516774E+01
 11
9.54047063E+01
 21
3.64516774E+01
  0
LINE
  8
0
 62
4
 10
9.46547063E+01
 20
3.97516774E+01
 11
9.46547063E+01
 21
3.59526133E+01
  0
LINE
  8
0
 62
4
 10
9.57047063E+01
 20
3.57516774E+01
 11
9.57047063E+01
 21
3.55516774E+01
  0
LINE
  8
0
 62
4
 10
9.57047063E+01
 20
4.00516774E+01
 11
9.57047063E+01
 21
3.97516774E+01
  0
LINE
  8
0
 62
4
 10
9.80047063E+01
 20
3.64516774E+01
 11
9.87547063E+01
 21
3.57516774E+01
  0
LINE
  8
0
 62
4
 10
9.80047063E+01
 20
3.90516774E+01
 11
9.87547063E+01
 21
3.97516774E+01
  0
LINE
  8
0
 62
4
 10
9.80047063E+01
 20
3.90516774E+01
 11
9.80047063E+01
 21
3.64516774E+01
  0
LINE
  8
0
 62
4
 10
9.77047063E+01
 20
3.57516774E+01
 11
9.77047063E+01
 21
3.55516774E+01
  0
LINE
  8
0
 62
4
 10
9.77047063E+01
 20
4.00516774E+01
 11
9.77047063E+01
 21
3.97516774E+01
  0
LINE
  8
0
 62
4
 10
9.87547063E+01
 20
3.97516774E+01
 11
9.87547063E+01
 21
3.57516774E+01
  0
LINE
  8
0
 62
4
 10
9.34547063E+01
 20
3.75516774E+01
 11
9.34547063E+01
 21
3.60848069E+01
  0
LINE
  8
0
 62
6
 10
9.54747063E+01
 20
4.28516774E+01
 11
9.54747063E+01
 21
4.14816774E+01
  0
LINE
  8
0
 62
4
 10
9.52047063E+01
 20
4.28516774E+01
 11
9.52047063E+01
 21
4.17516774E+01
  0
LINE
  8
0
 62
6
 10
9.79347063E+01
 20
4.28516774E+01
 11
9.79347063E+01
 21
4.14816774E+01
  0
LINE
  8
0
 62
4
 10
9.82047063E+01
 20
4.28516774E+01
 11
9.82047063E+01
 21
4.17516774E+01
  0
LINE
  8
0
 62
4
 10
1.01004706E+02
 20
3.94494552E+01
 11
1.01262723E+02
 21
3.95985314E+01
  0
CIRCLE
  8
0
 62
7
 10
9.67047063E+01
 20
3.15516774E+01
 40
3.00000000E-01
  0
ARC
  8
0
 62
7
 10
9.66958452E+01
 20
3.15558195E+01
 40
6.00000000E+00
 50
1.26010072E+02
 51
1.29992980E+02
  0
LINE
  8
0
 62
7
 10
1.02704706E+02
 20
3.51616774E+01
 11
1.02704706E+02
 21
2.79416774E+01
  0
ARC
  8
0
 62
7
 10
9.67057554E+01
 20
3.15657076E+01
 40
7.00863801E+00
 50
3.00897391E+02
 51
3.28863378E+02
  0
LINE
  8
0
 62
7
 10
9.30947063E+01
 20
2.55516774E+01
 11
1.00304706E+02
 21
2.55516774E+01
  0
ARC
  8
0
 62
7
 10
9.67023510E+01
 20
3.15493221E+01
 40
6.99906007E+00
 50
2.11027339E+02
 51
2.38972661E+02
  0
LINE
  8
0
 62
7
 10
9.07047063E+01
 20
2.79416774E+01
 11
9.07047063E+01
 21
2.80421998E+01
  0
ARC
  8
0
 62
7
 10
9.66982052E+01
 20
3.15581785E+01
 40
6.99337071E+00
 50
1.21015741E+02
 51
1.37372060E+02
  0
LINE
  8
0
 62
7
 10
9.30947063E+01
 20
3.75516774E+01
 11
9.31952287E+01
 21
3.75516774E+01
  0
ARC
  8
0
 62
7
 10
9.67098878E+01
 20
3.15417969E+01
 40
7.00295530E+00
 50
3.11250437E+01
 51
4.74346229E+01
  0
LINE
  8
0
  6
CENTER
 62
2
 10
7.97303299E+01
 20
3.15516774E+01
 11
1.04692573E+02
 21
3.15516774E+01
  0
LINE
  8
0
 62
4
 10
1.00704706E+02
 20
3.36116774E+01
 11
1.00704706E+02
 21
2.94916774E+01
  0
LINE
  8
0
 62
4
 10
9.27047063E+01
 20
3.36116774E+01
 11
9.27047063E+01
 21
2.94916774E+01
  0
LINE
  8
0
 62
4
 10
9.46447063E+01
 20
3.55516774E+01
 11
9.87647063E+01
 21
3.55516774E+01
  0
LINE
  8
0
 62
4
 10
9.46447063E+01
 20
2.75516774E+01
 11
9.87647063E+01
 21
2.75516774E+01
  0
CIRCLE
  8
0
 62
4
 10
9.67101500E+01
 20
3.15558195E+01
 40
4.00000000E+00
  0
ARC
  8
0
 62
4
 10
9.67094993E+01
 20
3.15564704E+01
 40
4.50574490E+00
 50
2.07274747E+02
 51
2.42725253E+02
  0
ARC
  8
0
 62
4
 10
9.67053605E+01
 20
3.15510232E+01
 40
4.50017000E+00
 50
1.17252059E+02
 51
1.52747941E+02
  0
ARC
  8
0
 62
4
 10
9.67094992E+01
 20
3.15564703E+01
 40
4.49283388E+00
 50
2.72221128E+01
 51
6.27778873E+01
  0
ARC
  8
0
 62
4
 10
9.67053536E+01
 20
3.15510300E+01
 40
4.49841694E+00
 50
2.97244912E+02
 51
3.32755088E+02
  0
LINE
  8
0
  6
CENTER
 62
6
 10
-1.13170191E+01
 20
-5.44718522E+01
 11
-1.13170191E+01
 21
-4.86156275E+01
  0
LINE
  8
0
  6
CENTER
 62
6
 10
-3.35170191E+01
 20
-5.44718522E+01
 11
-3.35170191E+01
 21
-4.89141967E+01
  0
CIRCLE
  8
0
 62
4
 10
-2.24170191E+01
 20
-4.34676511E+01
 40
3.00000000E+00
  0
LINE
  8
0
 62
4
 10
-6.41701908E+00
 20
-5.08676511E+01
 11
-1.71970191E+01
 21
-3.88076511E+01
  0
LINE
  8
0
  6
CENTER
 62
6
 10
-2.24170191E+01
 20
-3.77178530E+01
 11
-2.24170191E+01
 21
-4.95113350E+01
  0
LINE
  8
0
 62
4
 10
-3.84170191E+01
 20
-5.08676511E+01
 11
-2.76370191E+01
 21
-3.88076511E+01
  0
LINE
  8
0
  6
CENTER
 62
6
 10
-2.80309638E+01
 20
-4.34676511E+01
 11
-1.68346201E+01
 21
-4.34676511E+01
  0
LINE
  8
0
 62
4
 10
-3.84170191E+01
 20
-5.08676511E+01
 11
-6.41701908E+00
 21
-5.08676511E+01
  0
LINE
  8
0
 62
4
 10
-3.84170191E+01
 20
-5.24576511E+01
 11
-6.41701908E+00
 21
-5.24576511E+01
  0
LINE
  8
0
 62
4
 10
-6.41701908E+00
 20
-5.08676511E+01
 11
-6.41701908E+00
 21
-5.24576511E+01
  0
LINE
  8
0
 62
4
 10
-3.84170191E+01
 20
-5.08676511E+01
 11
-3.84170191E+01
 21
-5.24576511E+01
  0
ARC
  8
0
 62
4
 10
-2.24170191E+01
 20
-4.34626542E+01
 40
6.99410138E+00
 50
4.17254003E+01
 51
1.38274600E+02
  0
LINE
  8
0
 62
4
 10
6.48298088E+00
 20
-5.08576511E+01
 11
6.48298088E+00
 21
-5.24576511E+01
  0
LINE
  8
0
 62
4
 10
1.06829809E+01
 20
-5.08576511E+01
 11
1.06829809E+01
 21
-5.24576511E+01
  0
LINE
  8
0
 62
4
 10
3.58298088E+00
 20
-5.08576511E+01
 11
3.58298088E+00
 21
-5.24576511E+01
  0
ARC
  8
0
 62
4
 10
1.29798086E+01
 20
-4.98544789E+01
 40
2.60317420E+00
 50
2.70069822E+02
 51
3.59930178E+02
  0
LINE
  8
0
  6
CENTER
 62
6
 10
8.58298088E+00
 20
-4.86156276E+01
 11
8.58298088E+00
 21
-5.44718522E+01
  0
LINE
  8
0
  6
CENTER
 62
6
 10
1.15569341E+01
 20
-4.34676511E+01
 11
1.75029009E+01
 21
-4.34676511E+01
  0
LINE
  8
0
 62
4
 10
1.55829809E+01
 20
-3.64576511E+01
 11
1.55829809E+01
 21
-4.98576511E+01
  0
LINE
  8
0
 62
4
 10
3.58298088E+00
 20
-5.08576511E+01
 11
1.29829809E+01
 21
-5.08576511E+01
  0
ARC
  8
0
 62
4
 10
1.29798096E+01
 20
-4.98544798E+01
 40
1.00317633E+00
 50
2.70181129E+02
 51
3.59818872E+02
  0
LINE
  8
0
 62
4
 10
1.39829809E+01
 20
-3.64576511E+01
 11
1.39829809E+01
 21
-4.98576511E+01
  0
LINE
  8
0
 62
4
 10
1.39829809E+01
 20
-3.64576511E+01
 11
1.55829809E+01
 21
-3.64576511E+01
  0
LINE
  8
0
 62
4
 10
3.58298088E+00
 20
-5.24576511E+01
 11
1.29829809E+01
 21
-5.24576511E+01
  0
LINE
  8
0
  6
CENTER
 62
6
 10
-1.13170191E+01
 20
-1.36258018E+01
 11
-1.13170191E+01
 21
-7.35584933E+00
  0
LINE
  8
0
  6
CENTER
 62
6
 10
-3.35170191E+01
 20
-1.39243710E+01
 11
-3.35170191E+01
 21
-7.45765105E+00
  0
LINE
  8
0
 62
4
 10
-3.84170191E+01
 20
-5.05765105E+00
 11
-6.41701908E+00
 21
-5.05765105E+00
  0
LINE
  8
0
 62
4
 10
-3.84170191E+01
 20
-3.45765105E+00
 11
-3.84170191E+01
 21
-8.35765105E+00
  0
LINE
  8
0
 62
4
 10
-6.41701908E+00
 20
-3.45765105E+00
 11
-6.41701908E+00
 21
-8.35765105E+00
  0
LINE
  8
0
 62
4
 10
-3.84170191E+01
 20
-3.45765105E+00
 11
-6.41701908E+00
 21
-3.45765105E+00
  0
LINE
  8
0
 62
4
 10
-3.84170191E+01
 20
-1.54576511E+01
 11
-6.41701908E+00
 21
-1.54576511E+01
  0
LINE
  8
0
  6
CENTER
 62
6
 10
-2.24170191E+01
 20
-2.06765105E+00
 11
-2.24170191E+01
 21
-1.66976511E+01
  0
LINE
  8
0
  6
CENTER
 62
6
 10
-3.63909004E+01
 20
-1.04576511E+01
 11
-8.62396803E+00
 21
-1.04576511E+01
  0
LINE
  8
0
 62
4
 10
-3.84170191E+01
 20
-8.35765105E+00
 11
-3.35170191E+01
 21
-8.35765105E+00
  0
LINE
  8
0
 62
4
 10
-3.84170191E+01
 20
-1.25576511E+01
 11
-3.35170191E+01
 21
-1.25576511E+01
  0
LINE
  8
0
 62
4
 10
-1.13170191E+01
 20
-8.35765105E+00
 11
-6.41701908E+00
 21
-8.35765105E+00
  0
LINE
  8
0
 62
4
 10
-1.13170191E+01
 20
-1.25576511E+01
 11
-6.41701908E+00
 21
-1.25576511E+01
  0
LINE
  8
0
 62
4
 10
-6.41701908E+00
 20
-1.25576511E+01
 11
-6.41701908E+00
 21
-1.54576511E+01
  0
LINE
  8
0
 62
4
 10
-3.84170191E+01
 20
-1.25576511E+01
 11
-3.84170191E+01
 21
-1.54576511E+01
  0
ARC
  8
0
 62
4
 10
-1.13240693E+01
 20
-1.04576511E+01
 40
2.10001183E+00
 50
8.98076456E+01
 51
2.70192355E+02
  0
ARC
  8
0
 62
4
 10
-3.35240662E+01
 20
-1.04576511E+01
 40
2.10001182E+00
 50
2.70192271E+02
 51
8.98077287E+01
  0
LINE
  8
0
  6
CENTER
 62
6
 10
8.27969905E+01
 20
-4.07245018E+01
 11
8.27969905E+01
 21
-4.64843365E+01
  0
LINE
  8
0
  6
CENTER
 62
6
 10
6.05969905E+01
 20
-4.07245018E+01
 11
6.05969905E+01
 21
-4.64843365E+01
  0
LINE
  8
0
 62
4
 10
5.56969905E+01
 20
-3.64676511E+01
 11
5.56969905E+01
 21
-4.13676511E+01
  0
CIRCLE
  8
0
 62
4
 10
7.16969905E+01
 20
-4.34676511E+01
 40
3.00000000E+00
  0
LINE
  8
0
  6
CENTER
 62
6
 10
7.16969905E+01
 20
-3.82823283E+01
 11
7.16969905E+01
 21
-4.91096698E+01
  0
LINE
  8
0
 62
4
 10
8.76969905E+01
 20
-3.64676511E+01
 11
8.76969905E+01
 21
-4.13676511E+01
  0
LINE
  8
0
  6
CENTER
 62
6
 10
5.85788307E+01
 20
-4.34676511E+01
 11
8.48680227E+01
 21
-4.34676511E+01
  0
LINE
  8
0
 62
4
 10
5.56969905E+01
 20
-4.55676511E+01
 11
6.05969905E+01
 21
-4.55676511E+01
  0
LINE
  8
0
 62
4
 10
5.56969905E+01
 20
-4.13676511E+01
 11
6.05969905E+01
 21
-4.13676511E+01
  0
LINE
  8
0
 62
4
 10
8.27969905E+01
 20
-4.55676511E+01
 11
8.76969905E+01
 21
-4.55676511E+01
  0
LINE
  8
0
 62
4
 10
8.27969905E+01
 20
-4.13676511E+01
 11
8.76969905E+01
 21
-4.13676511E+01
  0
LINE
  8
0
 62
4
 10
5.56969905E+01
 20
-5.04676511E+01
 11
8.76969905E+01
 21
-5.04676511E+01
  0
LINE
  8
0
 62
4
 10
5.56969905E+01
 20
-3.64676511E+01
 11
8.76969905E+01
 21
-3.64676511E+01
  0
LINE
  8
0
 62
4
 10
8.76969905E+01
 20
-4.55676511E+01
 11
8.76969905E+01
 21
-5.04676511E+01
  0
LINE
  8
0
 62
4
 10
5.56969905E+01
 20
-4.55676511E+01
 11
5.56969905E+01
 21
-5.04676511E+01
  0
ARC
  8
0
 62
4
 10
8.27969905E+01
 20
-4.34676511E+01
 40
2.10000000E+00
 50
9.00000002E+01
 51
2.70000000E+02
  0
ARC
  8
0
 62
4
 10
6.05969905E+01
 20
-4.34676511E+01
 40
2.10000000E+00
 50
2.70000000E+02
 51
9.00000002E+01
  0
LINE
  8
0
 62
4
 10
1.02696990E+02
 20
-4.13676511E+01
 11
1.04296990E+02
 21
-4.13676511E+01
  0
LINE
  8
0
 62
4
 10
1.02696990E+02
 20
-5.04676511E+01
 11
1.04296990E+02
 21
-5.04676511E+01
  0
LINE
  8
0
 62
4
 10
1.02696990E+02
 20
-4.55676511E+01
 11
1.04296990E+02
 21
-4.55676511E+01
  0
LINE
  8
0
 62
4
 10
1.02696990E+02
 20
-3.64676511E+01
 11
1.02696990E+02
 21
-5.04676511E+01
  0
LINE
  8
0
 62
4
 10
1.04296990E+02
 20
-3.64676511E+01
 11
1.04296990E+02
 21
-5.04676511E+01
  0
LINE
  8
0
 62
4
 10
1.02696990E+02
 20
-3.64676511E+01
 11
1.04296990E+02
 21
-3.64676511E+01
  0
LINE
  8
0
  6
CENTER
 62
6
 10
1.00477956E+02
 20
-4.34676511E+01
 11
1.06495529E+02
 21
-4.34676511E+01
  0
LINE
  8
0
  6
CENTER
 62
6
 10
7.16969905E+01
 20
-1.61833740E+01
 11
7.16969905E+01
 21
-1.12281537E+01
  0
LINE
  8
0
  6
CENTER
 62
6
 10
6.05969905E+01
 20
-1.61833740E+01
 11
6.05969905E+01
 21
-1.12281537E+01
  0
LINE
  8
0
  6
CENTER
 62
6
 10
8.27969905E+01
 20
-1.62910961E+01
 11
8.27969905E+01
 21
-1.13358759E+01
  0
LINE
  8
0
 62
4
 10
8.76969905E+01
 20
-1.28676511E+01
 11
8.76969905E+01
 21
-1.44676511E+01
  0
LINE
  8
0
 62
4
 10
5.56969905E+01
 20
-1.28676511E+01
 11
8.76969905E+01
 21
-1.28676511E+01
  0
LINE
  8
0
 62
4
 10
5.56969905E+01
 20
-1.44676511E+01
 11
8.76969905E+01
 21
-1.44676511E+01
  0
LINE
  8
0
 62
4
 10
5.56969905E+01
 20
-1.28676511E+01
 11
5.56969905E+01
 21
-1.44676511E+01
  0
TEXT
  8
0
 62
7
 10
-1.03642994E+02
 20
-5.83963843E+01
 40
3.20000005E+00
  1
STRETCH LIST
 41
1.05263158E+00
  7
MONOTXT
  0
TEXT
  8
0
 62
7
 10
-5.71374690E+01
 20
-8.84000011E+01
 40
3.20000005E+00
  1
-5
 41
1.00000000E+00
  7
MONOTXT
  0
TEXT
  8
0
 62
7
 10
-5.71374690E+01
 20
-8.24000031E+01
 40
3.20000005E+00
  1
-5
 41
1.00000000E+00
  7
MONOTXT
  0
TEXT
  8
0
 62
7
 10
-5.71374690E+01
 20
-7.03963805E+01
 40
3.20000005E+00
  1
25
 41
1.00000000E+00
  7
MONOTXT
  0
TEXT
  8
0
 62
7
 10
-7.07374691E+01
 20
-8.84000011E+01
 40
3.20000005E+00
  1
-10
 41
1.00000000E+00
  7
MONOTXT
  0
TEXT
  8
0
 62
7
 10
-7.07374691E+01
 20
-8.24000031E+01
 40
3.20000005E+00
  1
-10
 41
1.00000000E+00
  7
MONOTXT
  0
TEXT
  8
0
 62
7
 10
-6.91374690E+01
 20
-7.03963805E+01
 40
3.20000005E+00
  1
20
 41
1.00000000E+00
  7
MONOTXT
  0
LINE
  8
0
 62
7
 10
-4.83999939E+01
 20
-5.98000031E+01
 11
-4.83999939E+01
 21
-8.98000031E+01
  0
LINE
  8
0
 62
7
 10
-6.03999939E+01
 20
-5.98000031E+01
 11
-6.03999939E+01
 21
-8.98000031E+01
  0
LINE
  8
0
 62
7
 10
-1.33399994E+02
 20
-8.98000031E+01
 11
-3.63999939E+01
 21
-8.98000031E+01
  0
LINE
  8
0
 62
7
 10
-1.33399994E+02
 20
-8.38000031E+01
 11
-3.63999939E+01
 21
-8.38000031E+01
  0
LINE
  8
0
 62
7
 10
-1.08399994E+02
 20
-5.98000031E+01
 11
-1.08399994E+02
 21
-8.98000031E+01
  0
LINE
  8
0
 62
7
 10
-9.63999939E+01
 20
-5.98000031E+01
 11
-9.63999939E+01
 21
-8.98000031E+01
  0
LINE
  8
0
 62
7
 10
-8.43999939E+01
 20
-5.98000031E+01
 11
-8.43999939E+01
 21
-8.98000031E+01
  0
LINE
  8
0
 62
7
 10
-7.23999939E+01
 20
-5.98000031E+01
 11
-7.23999939E+01
 21
-8.98000031E+01
  0
LINE
  8
0
 62
7
 10
-3.63999939E+01
 20
-5.98000031E+01
 11
-3.63999939E+01
 21
-8.98000031E+01
  0
LINE
  8
0
 62
7
 10
-1.33399994E+02
 20
-5.98000031E+01
 11
-3.63999939E+01
 21
-5.98000031E+01
  0
LINE
  8
0
 62
7
 10
-1.33399994E+02
 20
-7.78000031E+01
 11
-3.63999939E+01
 21
-7.78000031E+01
  0
LINE
  8
0
 62
7
 10
-1.08399994E+02
 20
-7.78000031E+01
 11
-1.10509994E+02
 21
-6.58000031E+01
  0
LINE
  8
0
 62
7
 10
-1.33399994E+02
 20
-6.58000031E+01
 11
-1.10509994E+02
 21
-6.58000031E+01
  0
LINE
  8
0
 62
7
 10
-1.33399994E+02
 20
-5.98000031E+01
 11
-1.33399994E+02
 21
-8.98000031E+01
  0
TEXT
  8
0
 62
7
 10
-1.29037469E+02
 20
-6.43963843E+01
 40
3.20000005E+00
  1
STROKE
 41
1.00000000E+00
  7
MONOTXT
  0
TEXT
  8
0
 62
7
 10
-4.51374690E+01
 20
-7.03963805E+01
 40
3.20000005E+00
  1
30
 41
1.00000000E+00
  7
MONOTXT
  0
TEXT
  8
0
 62
7
 10
-8.11374690E+01
 20
-7.03963805E+01
 40
3.20000005E+00
  1
15
 41
1.00000000E+00
  7
MONOTXT
  0
TEXT
  8
0
 62
7
 10
-9.31374690E+01
 20
-7.03963805E+01
 40
3.20000005E+00
  1
10
 41
1.00000000E+00
  7
MONOTXT
  0
TEXT
  8
0
 62
7
 10
-1.03537469E+02
 20
-7.03963805E+01
 40
3.20000005E+00
  1
5
 41
1.00000000E+00
  7
MONOTXT
  0
TEXT
  8
0
 62
7
 10
-4.35374690E+01
 20
-8.24000031E+01
 40
3.20000005E+00
  1
0
 41
1.00000000E+00
  7
MONOTXT
  0
TEXT
  8
0
 62
7
 10
-8.27374691E+01
 20
-8.24000031E+01
 40
3.20000005E+00
  1
-15
 41
1.00000000E+00
  7
MONOTXT
  0
TEXT
  8
0
 62
7
 10
-9.47374691E+01
 20
-8.24000031E+01
 40
3.20000005E+00
  1
-20
 41
1.00000000E+00
  7
MONOTXT
  0
TEXT
  8
0
 62
7
 10
-1.06737469E+02
 20
-8.24000031E+01
 40
3.20000005E+00
  1
-25
 41
1.00000000E+00
  7
MONOTXT
  0
TEXT
  8
0
 62
7
 10
-1.32241000E+02
 20
-7.19763780E+01
 40
3.20000005E+00
  1
STRETCH
 41
1.00000000E+00
  7
MONOTXT
  0
TEXT
  8
0
 62
7
 10
-1.32241000E+02
 20
-7.67763782E+01
 40
3.20000005E+00
  1
  PLACE
 41
1.20689655E+00
  7
MONOTXT
  0
TEXT
  8
0
 62
7
 10
-1.22037469E+02
 20
-8.24000031E+01
 40
3.20000005E+00
  1
A
 41
1.00000000E+00
  7
MONOTXT
  0
TEXT
  8
0
 62
7
 10
-1.22037469E+02
 20
-8.84000031E+01
 40
3.20000005E+00
  1
B
 41
1.00000000E+00
  7
MONOTXT
  0
TEXT
  8
0
 62
7
 10
-4.35374690E+01
 20
-8.84000011E+01
 40
3.20000005E+00
  1
0
 41
1.00000000E+00
  7
MONOTXT
  0
TEXT
  8
0
 62
7
 10
-8.27374691E+01
 20
-8.84000011E+01
 40
3.20000005E+00
  1
-20
 41
1.00000000E+00
  7
MONOTXT
  0
TEXT
  8
0
 62
7
 10
-9.47374691E+01
 20
-8.84000011E+01
 40
3.20000005E+00
  1
-25
 41
1.00000000E+00
  7
MONOTXT
  0
TEXT
  8
0
 62
7
 10
-1.06737469E+02
 20
-8.84000011E+01
 40
3.20000005E+00
  1
-30
 41
1.00000000E+00
  7
MONOTXT
  0
TEXT
  8
0
 62
7
 10
-4.83429940E+01
 20
-5.83963843E+01
 40
3.20000005E+00
  1
(mm)
 41
1.00000000E+00
  7
MONOTXT
  0
TEXT
  8
0
 10
-6.95038250E+01
 20
5.86658851E+01
 40
3.20000005E+00
  1
STRETCH LINE A
 41
1.09375000E+00
  7
MONOTXT
  0
TEXT
  8
0
 10
1.54961750E+01
 20
5.86658851E+01
 40
3.20000005E+00
  1
STRETCH LINE B
 41
1.09375000E+00
  7
MONOTXT
  0
LINE
  8
0
 62
7
 10
-1.38399994E+02
 20
9.45000000E+01
 11
1.38350006E+02
 21
9.45000000E+01
  0
LINE
  8
0
 62
7
 10
1.38350006E+02
 20
9.45000000E+01
 11
1.38350006E+02
 21
-9.48000031E+01
  0
LINE
  8
0
 62
7
 10
-1.38399994E+02
 20
-9.48000031E+01
 11
1.38350006E+02
 21
-9.48000031E+01
  0
LINE
  8
0
 62
7
 10
-1.38399994E+02
 20
9.45000000E+01
 11
-1.38399994E+02
 21
-9.48000031E+01
  0
LINE
  8
0
 62
7
 10
7.33500061E+01
 20
-8.48000031E+01
 11
1.38350006E+02
 21
-8.48000031E+01
  0
LINE
  8
0
 62
7
 10
-1.38399994E+02
 20
8.45000000E+01
 11
-7.33999939E+01
 21
8.45000000E+01
  0
LINE
  8
0
 62
7
 10
7.33500061E+01
 20
8.45000000E+01
 11
1.38350006E+02
 21
8.45000000E+01
  0
LINE
  8
0
 62
7
 10
7.33500061E+01
 20
-8.48000031E+01
 11
7.33500061E+01
 21
-9.48000031E+01
  0
LINE
  8
0
 62
7
 10
7.33500061E+01
 20
9.45000000E+01
 11
7.33500061E+01
 21
8.45000000E+01
  0
LINE
  8
0
 62
7
 10
-7.33999939E+01
 20
9.45000000E+01
 11
-7.33999939E+01
 21
8.45000000E+01
  0
TEXT
  8
0
 62
7
 10
7.72426624E+01
 20
-9.20500031E+01
 40
4.50000000E+00
  1
KOGANEI CORP.
 41
1.04838710E+00
  7
MONOTXT
  0
TEXT
  8
0
 62
7
 10
9.35071483E+01
 20
8.79000000E+01
 40
3.20000005E+00
  1
Ver. 1.1
 41
1.08108108E+00
  7
MONOTXT
  0
TEXT
  8
0
 62
7
 10
-1.31042852E+02
 20
8.79000000E+01
 40
3.20000005E+00
  1
NEW PEN CYLINDER
 41
1.08108108E+00
  7
MONOTXT
  0
TEXT
  8
0
 62
7
 10
-1.29085994E+02
 20
7.29000000E+01
 40
3.20000005E+00
  1
MODEL:PBTAS6*ST(30)-ZC230
 41
1.00000000E+00
  7
MONOTXT
  0
ENDSEC
  0
EOF
