  0
SECTION
  2
HEADER
  9
$ACADVER
  1
AC1003
  9
$EXTMIN
 10
-1.38399994E+02
 20
-9.48000031E+01
  9
$EXTMAX
 10
1.38350006E+02
 20
9.45000000E+01
  9
$LIMMIN
 10
-1.38400994E+02
 20
-9.48010031E+01
  9
$LIMMAX
 10
1.38351006E+02
 20
9.45010000E+01
  9
$SNAPUNIT
 10
1
 20
1
  9
$SNAPBASE
 10
0
 20
0
  9
$GRIDMODE
 70
0
  9
$GRIDUNIT
 10
0
 20
0
  9
$LTSCALE
 40
4.61250000E+00
  9
$TEXTSIZE
 40
3.2
  9
$DIMTAD
 70
0
  9
$LUNITS
 70
2
  9
$LUPREC
 70
4
  9
$FILLETRAD
 40
0
  9
$AUNITS
 70
0
  9
$AUPREC
 70
0
  0
ENDSEC
  0
SECTION
  2
TABLES
  0
TABLE
  2
LTYPE
 70
2
  0
LTYPE
  2
CONTINUOUS
 70
64
  3
Solid-Line
 72
65
 73
0
 40
0
  0
LTYPE
  2
DASHED
 70
64
  3
DASHED
 72
65
 73
2
 40
.75
 49
.5
 49
-.25
  0
LTYPE
  2
HIDDEN
 70
64
  3
HIDDEN
 72
65
 73
2
 40
.375
 49
.25
 49
-.125
  0
LTYPE
  2
CENTER
 70
64
  3
CENTER
 72
65
 73
4
 40
2
 49
1.25
 49
-.25
 49
.25
 49
-.25
  0
LTYPE
  2
PHANTOM
 70
64
  3
PHANTOM
 72
65
 73
6
 40
2.5
 49
1.25
 49
-.25
 49
.25
 49
-.25
 49
.25
 49
-.25
  0
ENDTAB
  0
TABLE
  2
LAYER
 70
1
  0
LAYER
  2
1
 70
0
 62
7
  6
CONTINUOUS
 0
ENDTAB
  0
TABLE
  2
STYLE
 70
2
  0
STYLE
  2
MONOTXT
 70
0
 40
0
 41
1
 50
0
 71
0
 42
.2
  3
monotxt
  0
STYLE
  2
BIGFONT
 70
0
 40
0
 41
1
 50
0
 71
0
 42
.2
  3
txt
  4
bigfont
  0
ENDTAB
  0
ENDSEC
  0
SECTION
  2
ENTITIES
  0
LINE
  8
0
  6
CENTER
 62
6
 10
1.14945373E+01
 20
6.04950315E+01
 11
1.14945373E+01
 21
2.74503724E+01
  0
LINE
  8
0
 62
4
 10
6.99453730E+00
 20
4.83850315E+01
 11
6.99453730E+00
 21
5.51850315E+01
  0
LINE
  8
0
 62
4
 10
1.59945373E+01
 20
4.83850315E+01
 11
1.59945373E+01
 21
5.51850315E+01
  0
LINE
  8
0
  6
PHANTOM
 10
3.33463760E+01
 20
3.28193858E+01
 11
3.33463760E+01
 21
1.97442314E+01
  0
LINE
  8
0
  6
PHANTOM
 10
-5.16536240E+01
 20
1.97442314E+01
 11
-5.16536240E+01
 21
6.22343393E+01
  0
LINE
  8
0
  6
PHANTOM
 10
3.33463760E+01
 20
4.24151279E+01
 11
3.33463760E+01
 21
6.22343393E+01
  0
LINE
  8
0
  6
PHANTOM
 10
2.57894105E+01
 20
3.28193858E+01
 11
3.33463759E+01
 21
3.28193858E+01
  0
TEXT
  8
0
 62
7
 10
1.69085998E+01
 20
2.97850468E+01
 40
1.50000000E+00
  1
PBTAS16
 41
1.00000000E+00
  7
MONOTXT
  0
ARC
  8
0
 62
7
 10
-9.99343669E+00
 20
3.71900315E+01
 40
6.01538783E+00
 50
1.82120255E+02
 51
2.24885328E+02
  0
LINE
  8
0
  6
PHANTOM
 10
2.57894105E+01
 20
3.28193858E+01
 11
2.57894105E+01
 21
4.24151279E+01
  0
LINE
  8
0
  6
PHANTOM
 10
2.57894105E+01
 20
4.24151279E+01
 11
3.33463759E+01
 21
4.24151279E+01
  0
LINE
  8
0
 62
7
 10
1.59945373E+01
 20
2.86850315E+01
 11
3.64945373E+01
 21
2.86850315E+01
  0
LINE
  8
0
 62
7
 10
4.54945373E+01
 20
2.86850315E+01
 11
6.14945373E+01
 21
2.86850315E+01
  0
LINE
  8
0
 62
7
 10
4.54945373E+01
 20
4.56850315E+01
 11
6.14945373E+01
 21
4.56850315E+01
  0
LINE
  8
0
 62
7
 10
1.84945373E+01
 20
4.56850315E+01
 11
3.64945373E+01
 21
4.56850315E+01
  0
LINE
  8
0
 62
4
 10
1.84945373E+01
 20
5.04850315E+01
 11
2.39945373E+01
 21
5.04850315E+01
  0
LINE
  8
0
 62
4
 10
1.84945373E+01
 20
4.64850315E+01
 11
2.39945373E+01
 21
4.64850315E+01
  0
LINE
  8
0
 62
4
 10
4.49453730E+00
 20
4.82850315E+01
 11
4.49453730E+00
 21
4.52169136E+01
  0
LINE
  8
0
 62
4
 10
1.84945373E+01
 20
4.82850315E+01
 11
1.84945373E+01
 21
4.52169136E+01
  0
LINE
  8
0
 62
4
 10
6.99453730E+00
 20
4.86850315E+01
 11
1.59945373E+01
 21
4.86850315E+01
  0
LINE
  8
0
 62
4
 10
4.49453732E+00
 20
4.52169136E+01
 11
6.99453732E+00
 21
4.52169136E+01
  0
LINE
  8
0
 62
4
 10
1.84945373E+01
 20
4.52169136E+01
 11
1.59945373E+01
 21
4.52169136E+01
  0
LINE
  8
0
 62
4
 10
1.59945373E+01
 20
4.82850315E+01
 11
1.84945373E+01
 21
4.82850315E+01
  0
LINE
  8
0
 62
4
 10
1.59945373E+01
 20
4.86850315E+01
 11
1.84945373E+01
 21
4.86850315E+01
  0
LINE
  8
0
 62
4
 10
1.59945373E+01
 20
5.14850315E+01
 11
1.84945373E+01
 21
5.14850315E+01
  0
LINE
  8
0
 62
4
 10
4.49453729E+00
 20
4.82850315E+01
 11
6.99453730E+00
 21
4.82850315E+01
  0
LINE
  8
0
 62
4
 10
4.49453729E+00
 20
4.86850315E+01
 11
6.99453730E+00
 21
4.86850315E+01
  0
LINE
  8
0
 62
4
 10
4.49453729E+00
 20
5.14850315E+01
 11
6.99453730E+00
 21
5.14850315E+01
  0
LINE
  8
0
 62
4
 10
6.99453729E+00
 20
2.85350468E+01
 11
1.59945373E+01
 21
2.85350468E+01
  0
LINE
  8
0
 62
4
 10
1.84945373E+01
 20
5.14850315E+01
 11
1.84945373E+01
 21
4.86850315E+01
  0
LINE
  8
0
 62
4
 10
4.49453730E+00
 20
5.14850315E+01
 11
4.49453730E+00
 21
4.86850315E+01
  0
LINE
  8
0
 62
4
 10
-1.00546270E+00
 20
4.94850315E+01
 11
-5.46269875E-03
 21
5.04850315E+01
  0
LINE
  8
0
 62
4
 10
-1.00546270E+00
 20
4.94850315E+01
 11
-1.00546270E+00
 21
4.74850315E+01
  0
LINE
  8
0
 62
4
 10
-5.46269875E-03
 20
4.64850315E+01
 11
4.49453730E+00
 21
4.64850315E+01
  0
LINE
  8
0
 62
4
 10
-5.46269875E-03
 20
5.04850315E+01
 11
4.49453730E+00
 21
5.04850315E+01
  0
LINE
  8
0
 62
4
 10
-1.00546270E+00
 20
4.74850315E+01
 11
-5.46269875E-03
 21
4.64850315E+01
  0
LINE
  8
0
 62
4
 10
-5.46269875E-03
 20
5.04850315E+01
 11
-5.46269875E-03
 21
4.64850315E+01
  0
LINE
  8
0
 62
4
 10
1.59945373E+01
 20
4.83850315E+01
 11
1.59945373E+01
 21
2.85350468E+01
  0
LINE
  8
0
 62
4
 10
6.99453730E+00
 20
4.83850315E+01
 11
6.99453730E+00
 21
2.85350468E+01
  0
LINE
  8
0
 62
4
 10
2.39945373E+01
 20
5.04850315E+01
 11
2.69945373E+01
 21
4.97850315E+01
  0
LINE
  8
0
 62
4
 10
2.39945373E+01
 20
4.64850315E+01
 11
2.69945373E+01
 21
4.71850315E+01
  0
LINE
  8
0
 62
4
 10
2.39945373E+01
 20
5.04850315E+01
 11
2.39945373E+01
 21
4.64850315E+01
  0
LINE
  8
0
 62
6
 10
3.19315364E+01
 20
4.97850315E+01
 11
2.93315364E+01
 21
4.71850315E+01
  0
LINE
  8
0
 62
4
 10
2.69945373E+01
 20
4.71850315E+01
 11
2.93315364E+01
 21
4.71850315E+01
  0
LINE
  8
0
 62
4
 10
2.69945373E+01
 20
4.97850315E+01
 11
2.69945373E+01
 21
4.71850315E+01
  0
LINE
  8
0
 62
4
 10
2.69945373E+01
 20
4.97850315E+01
 11
3.19315364E+01
 21
4.97850315E+01
  0
LINE
  8
0
 62
4
 10
4.54945373E+01
 20
2.85350315E+01
 11
4.54945373E+01
 21
4.58350315E+01
  0
LINE
  8
0
  6
CENTER
 62
6
 10
4.09945373E+01
 20
4.71850301E+01
 11
4.09945373E+01
 21
2.71850315E+01
  0
LINE
  8
0
 62
4
 10
3.64945373E+01
 20
4.14850315E+01
 11
4.54945373E+01
 21
4.14850315E+01
  0
LINE
  8
0
 62
4
 10
3.64945373E+01
 20
4.21100315E+01
 11
4.54945373E+01
 21
4.21100315E+01
  0
LINE
  8
0
 62
4
 10
3.64945373E+01
 20
4.16100315E+01
 11
4.54945373E+01
 21
4.16100315E+01
  0
LINE
  8
0
 62
4
 10
3.64945373E+01
 20
4.45600315E+01
 11
4.54945373E+01
 21
4.45600315E+01
  0
LINE
  8
0
 62
4
 10
3.89945373E+01
 20
4.29850315E+01
 11
4.29945373E+01
 21
4.29850315E+01
  0
LINE
  8
0
 62
4
 10
3.89945373E+01
 20
4.21850315E+01
 11
4.29945373E+01
 21
4.21850315E+01
  0
LINE
  8
0
 62
4
 10
3.64945373E+01
 20
4.58350315E+01
 11
4.54945373E+01
 21
4.58350315E+01
  0
LINE
  8
0
 62
4
 10
4.29945373E+01
 20
4.29850315E+01
 11
4.29945373E+01
 21
4.21100315E+01
  0
LINE
  8
0
 62
4
 10
3.64945373E+01
 20
3.28850315E+01
 11
4.54945373E+01
 21
3.28850315E+01
  0
LINE
  8
0
 62
4
 10
3.64945373E+01
 20
2.85350315E+01
 11
4.54945373E+01
 21
2.85350315E+01
  0
LINE
  8
0
 62
6
 10
6.14315364E+01
 20
3.84850315E+01
 11
5.88315364E+01
 21
3.58850315E+01
  0
LINE
  8
0
 62
4
 10
5.64945373E+01
 20
3.58850315E+01
 11
5.88315364E+01
 21
3.58850315E+01
  0
LINE
  8
0
 62
4
 10
5.34945373E+01
 20
3.51850315E+01
 11
5.64945373E+01
 21
3.58850315E+01
  0
LINE
  8
0
 62
4
 10
5.64945373E+01
 20
3.84850315E+01
 11
5.64945373E+01
 21
3.58850315E+01
  0
LINE
  8
0
 62
4
 10
5.64945373E+01
 20
3.84850315E+01
 11
6.14315364E+01
 21
3.84850315E+01
  0
LINE
  8
0
 62
4
 10
5.34945373E+01
 20
3.91850315E+01
 11
5.64945373E+01
 21
3.84850315E+01
  0
LINE
  8
0
 62
4
 10
5.34945373E+01
 20
3.91850315E+01
 11
5.34945373E+01
 21
3.51850315E+01
  0
LINE
  8
0
 62
4
 10
4.54945373E+01
 20
4.04350315E+01
 11
4.79945373E+01
 21
4.04350315E+01
  0
LINE
  8
0
 62
4
 10
4.79945373E+01
 20
3.39350315E+01
 11
4.79945373E+01
 21
4.04350315E+01
  0
LINE
  8
0
 62
4
 10
4.79945373E+01
 20
3.91850315E+01
 11
5.34945373E+01
 21
3.91850315E+01
  0
LINE
  8
0
 62
4
 10
4.79945373E+01
 20
3.51850315E+01
 11
5.34945373E+01
 21
3.51850315E+01
  0
LINE
  8
0
 62
4
 10
4.54945373E+01
 20
3.39350315E+01
 11
4.79945373E+01
 21
3.39350315E+01
  0
LINE
  8
0
 62
4
 10
3.64945373E+01
 20
2.85350315E+01
 11
3.64945373E+01
 21
4.58350315E+01
  0
LINE
  8
0
 62
4
 10
3.89945373E+01
 20
4.21100315E+01
 11
3.89945373E+01
 21
4.29850315E+01
  0
LINE
  8
0
 62
4
 10
4.20045373E+01
 20
3.61850315E+01
 11
3.99345373E+01
 21
3.82450315E+01
  0
LINE
  8
0
 62
4
 10
3.99345373E+01
 20
3.61250315E+01
 11
4.20545373E+01
 21
3.82450315E+01
  0
CIRCLE
  8
0
 62
4
 10
4.09936621E+01
 20
3.71825730E+01
 40
2.50000000E+00
  0
LINE
  8
0
 62
4
 10
3.39945373E+01
 20
3.39350315E+01
 11
3.64945373E+01
 21
3.39350315E+01
  0
LINE
  8
0
 62
4
 10
2.94945373E+01
 20
3.51850315E+01
 11
3.39945373E+01
 21
3.51850315E+01
  0
LINE
  8
0
 62
4
 10
2.84945373E+01
 20
3.61850315E+01
 11
2.94945373E+01
 21
3.51850315E+01
  0
LINE
  8
0
 62
4
 10
2.84945373E+01
 20
3.81850315E+01
 11
2.84945373E+01
 21
3.61850315E+01
  0
LINE
  8
0
 62
4
 10
3.39945373E+01
 20
4.04350315E+01
 11
3.64945373E+01
 21
4.04350315E+01
  0
LINE
  8
0
 62
4
 10
2.94945373E+01
 20
3.91850315E+01
 11
3.39945373E+01
 21
3.91850315E+01
  0
LINE
  8
0
 62
4
 10
2.94945373E+01
 20
3.91850315E+01
 11
2.94945373E+01
 21
3.51850315E+01
  0
LINE
  8
0
 62
4
 10
3.39945373E+01
 20
3.39350315E+01
 11
3.39945373E+01
 21
4.04350315E+01
  0
LINE
  8
0
 62
4
 10
2.84945373E+01
 20
3.81850315E+01
 11
2.94945373E+01
 21
3.91850315E+01
  0
CIRCLE
  8
0
 62
7
 10
-9.00546270E+00
 20
3.71850315E+01
 40
2.06700000E+00
  0
LINE
  8
0
 62
2
 10
-1.79754627E+01
 20
3.29970315E+01
 11
-1.75054627E+01
 21
3.29970315E+01
  0
LINE
  8
0
 62
2
 10
-1.79754627E+01
 20
4.13730315E+01
 11
-1.75054627E+01
 21
4.13730315E+01
  0
LINE
  8
0
 62
2
 10
-2.38174627E+01
 20
3.29970315E+01
 11
-2.19754627E+01
 21
3.29970315E+01
  0
LINE
  8
0
 62
2
 10
-2.38174627E+01
 20
4.13730315E+01
 11
-2.19754627E+01
 21
4.13730315E+01
  0
LINE
  8
0
 62
2
 10
-6.60354627E+01
 20
3.51180315E+01
 11
-5.90054627E+01
 21
3.51180315E+01
  0
LINE
  8
0
 62
2
 10
-6.60354627E+01
 20
3.92520315E+01
 11
-5.90054627E+01
 21
3.92520315E+01
  0
LINE
  8
0
 62
2
 10
-7.39384627E+01
 20
3.92520315E+01
 11
-7.00354627E+01
 21
3.92520315E+01
  0
LINE
  8
0
 62
2
 10
-7.39384627E+01
 20
3.51180315E+01
 11
-7.00354627E+01
 21
3.51180315E+01
  0
LINE
  8
0
 62
7
 10
-2.40054627E+01
 20
4.11850315E+01
 11
-2.40054627E+01
 21
3.31850315E+01
  0
LINE
  8
0
 62
7
 10
-1.60054627E+01
 20
4.56850315E+01
 11
-1.60054627E+01
 21
3.21850315E+01
  0
LINE
  8
0
 62
7
 10
-2.30054627E+01
 20
3.21850315E+01
 11
-2.19754627E+01
 21
3.21850315E+01
  0
LINE
  8
0
 62
7
 10
-2.30054627E+01
 20
4.21850315E+01
 11
-2.19754627E+01
 21
4.21850315E+01
  0
LINE
  8
0
 62
7
 10
-4.00546270E+00
 20
4.56850315E+01
 11
-4.00546270E+00
 21
2.86850315E+01
  0
LINE
  8
0
 62
7
 10
-1.60054627E+01
 20
4.56850315E+01
 11
-4.00546270E+00
 21
4.56850315E+01
  0
LINE
  8
0
 62
7
 10
-2.40054627E+01
 20
4.11850315E+01
 11
-2.30054627E+01
 21
4.21850315E+01
  0
LINE
  8
0
 62
7
 10
-2.40054627E+01
 20
3.31850315E+01
 11
-2.30054627E+01
 21
3.21850315E+01
  0
LINE
  8
0
 62
7
 10
-1.60054627E+01
 20
3.21850315E+01
 11
-1.60054627E+01
 21
2.86850315E+01
  0
LINE
  8
0
  6
CENTER
 62
2
 10
-9.00546270E+00
 20
4.08450315E+01
 11
-9.00546270E+00
 21
3.35050315E+01
  0
LINE
  8
0
  6
CENTER
 62
2
 10
-7.54705156E+01
 20
3.71850315E+01
 11
6.93077168E+01
 21
3.71850315E+01
  0
LINE
  8
0
 62
7
 10
-1.60054627E+01
 20
2.86850315E+01
 11
-4.00546270E+00
 21
2.86850315E+01
  0
LINE
  8
0
 62
7
 10
-1.75054627E+01
 20
4.21850315E+01
 11
-1.75054627E+01
 21
3.21850315E+01
  0
LINE
  8
0
 62
7
 10
-4.00546270E+00
 20
4.56850315E+01
 11
4.49453730E+00
 21
4.56850315E+01
  0
LINE
  8
0
 62
4
 10
6.14945373E+01
 20
4.56850315E+01
 11
6.14945373E+01
 21
2.86850315E+01
  0
LINE
  8
0
 62
4
 10
6.74845373E+01
 20
4.51850315E+01
 11
6.74845373E+01
 21
2.91850315E+01
  0
LINE
  8
0
 62
7
 10
-4.00546270E+00
 20
2.86850315E+01
 11
6.99453730E+00
 21
2.86850315E+01
  0
LINE
  8
0
 62
4
 10
6.14945373E+01
 20
4.56850315E+01
 11
6.69845373E+01
 21
4.56850315E+01
  0
LINE
  8
0
 62
4
 10
6.14945373E+01
 20
2.86850315E+01
 11
6.69845373E+01
 21
2.86850315E+01
  0
LINE
  8
0
 62
7
 10
-2.30054627E+01
 20
4.21850315E+01
 11
-2.30054627E+01
 21
3.21850315E+01
  0
LINE
  8
0
 62
7
 10
-1.42554627E+01
 20
4.14350315E+01
 11
-5.75546270E+00
 21
4.14350315E+01
  0
LINE
  8
0
 62
7
 10
-1.42554627E+01
 20
3.29450315E+01
 11
-5.75546270E+00
 21
3.29450315E+01
  0
LINE
  8
0
 62
7
 10
-7.35054627E+01
 20
3.96850315E+01
 11
-7.00354627E+01
 21
3.96850315E+01
  0
LINE
  8
0
 62
7
 10
-7.35054627E+01
 20
3.46850315E+01
 11
-7.00354627E+01
 21
3.46850315E+01
  0
LINE
  8
0
 62
7
 10
-7.40054627E+01
 20
3.91850315E+01
 11
-7.40054627E+01
 21
3.51850315E+01
  0
LINE
  8
0
 62
7
 10
-5.90054627E+01
 20
3.96850315E+01
 11
-5.90054627E+01
 21
3.46850315E+01
  0
LINE
  8
0
 62
7
 10
-7.40054627E+01
 20
3.91850315E+01
 11
-7.35054627E+01
 21
3.96850315E+01
  0
LINE
  8
0
 62
7
 10
-7.40054627E+01
 20
3.51850315E+01
 11
-7.35054627E+01
 21
3.46850315E+01
  0
LINE
  8
0
 62
7
 10
-7.35054627E+01
 20
3.96850315E+01
 11
-7.35054627E+01
 21
3.46850315E+01
  0
LINE
  8
0
 62
4
 10
-7.00354627E+01
 20
4.05750315E+01
 11
-7.00354627E+01
 21
3.38050315E+01
  0
LINE
  8
0
 62
4
 10
-6.60354627E+01
 20
4.05750315E+01
 11
-6.60354627E+01
 21
3.38050315E+01
  0
LINE
  8
0
 62
4
 10
-6.95354627E+01
 20
3.26850315E+01
 11
-6.65354627E+01
 21
3.26850315E+01
  0
LINE
  8
0
 62
4
 10
-6.95354627E+01
 20
4.16850315E+01
 11
-6.65354627E+01
 21
4.16850315E+01
  0
LINE
  8
0
 62
7
 10
-6.60354627E+01
 20
3.46850315E+01
 11
-2.40054627E+01
 21
3.46850315E+01
  0
LINE
  8
0
 62
7
 10
-6.60354627E+01
 20
3.96850315E+01
 11
-2.40054627E+01
 21
3.96850315E+01
  0
LINE
  8
0
 62
7
 10
-1.79754627E+01
 20
4.21850315E+01
 11
-1.60054627E+01
 21
4.21850315E+01
  0
LINE
  8
0
 62
7
 10
-1.79754627E+01
 20
3.21850315E+01
 11
-1.60054627E+01
 21
3.21850315E+01
  0
LINE
  8
0
 62
4
 10
-6.95354627E+01
 20
3.94650315E+01
 11
-6.65354627E+01
 21
3.94650315E+01
  0
LINE
  8
0
 62
4
 10
-6.95354627E+01
 20
3.49150315E+01
 11
-6.65354627E+01
 21
3.49150315E+01
  0
LINE
  8
0
 62
4
 10
-2.15754627E+01
 20
4.51850315E+01
 11
-1.83754627E+01
 21
4.51850315E+01
  0
LINE
  8
0
 62
4
 10
-2.15754627E+01
 20
4.11650315E+01
 11
-1.83754627E+01
 21
4.11650315E+01
  0
LINE
  8
0
 62
4
 10
-2.19754627E+01
 20
4.31750315E+01
 11
-2.19754627E+01
 21
3.12050315E+01
  0
LINE
  8
0
 62
4
 10
-2.15754627E+01
 20
3.32150315E+01
 11
-1.83754627E+01
 21
3.32150315E+01
  0
LINE
  8
0
 62
4
 10
-2.15754627E+01
 20
2.91850315E+01
 11
-1.83754627E+01
 21
2.91850315E+01
  0
LINE
  8
0
 62
4
 10
-1.79754627E+01
 20
4.31750315E+01
 11
-1.79754627E+01
 21
3.12050315E+01
  0
LINE
  8
0
 62
4
 10
6.69845373E+01
 20
4.56850315E+01
 11
6.74845373E+01
 21
4.51850315E+01
  0
LINE
  8
0
 62
4
 10
6.74845373E+01
 20
2.91850315E+01
 11
6.69845373E+01
 21
2.86850315E+01
  0
LINE
  8
0
 62
4
 10
6.69845373E+01
 20
4.56850315E+01
 11
6.69845373E+01
 21
2.86850315E+01
  0
LINE
  8
0
 62
7
 10
-1.42554627E+01
 20
4.56850315E+01
 11
-1.42554627E+01
 21
4.14350315E+01
  0
LINE
  8
0
 62
7
 10
-5.75546270E+00
 20
4.56850315E+01
 11
-5.75546270E+00
 21
4.14350315E+01
  0
LINE
  8
0
 62
7
 10
-1.42554627E+01
 20
3.29450315E+01
 11
-1.42554627E+01
 21
2.86850315E+01
  0
LINE
  8
0
 62
7
 10
-5.75546270E+00
 20
3.29450315E+01
 11
-5.75546270E+00
 21
2.86850315E+01
  0
CIRCLE
  8
0
 62
2
 10
-9.01129095E+00
 20
3.71850330E+01
 40
2.50000000E+00
  0
ARC
  8
0
 62
4
 10
-6.46321744E+01
 20
3.71949244E+01
 40
5.40329733E+00
 50
1.55156974E+02
 51
1.80104903E+02
  0
ARC
  8
0
 62
4
 10
-6.46342699E+01
 20
3.71846554E+01
 40
5.40119281E+00
 50
1.79996011E+02
 51
2.04847715E+02
  0
ARC
  8
0
 62
4
 10
-6.85507688E+01
 20
3.38038630E+01
 40
1.48469438E+00
 50
1.31546682E+02
 51
1.79954909E+02
  0
ARC
  8
0
 62
4
 10
-6.85513832E+01
 20
3.37959598E+01
 40
1.48410722E+00
 50
1.79649775E+02
 51
2.28464923E+02
  0
ARC
  8
0
 62
4
 10
-6.85545163E+01
 20
4.05745118E+01
 40
1.48094647E+00
 50
1.79979895E+02
 51
2.28518513E+02
  0
ARC
  8
0
 62
4
 10
-6.85513581E+01
 20
4.05741285E+01
 40
1.48410487E+00
 50
1.31536451E+02
 51
1.79965140E+02
  0
ARC
  8
0
 62
4
 10
-7.14557028E+01
 20
3.71912069E+01
 40
5.42024357E+00
 50
3.59934721E+02
 51
2.48034017E+01
  0
ARC
  8
0
 62
4
 10
-6.75312025E+01
 20
4.05811755E+01
 40
1.49575246E+00
 50
3.11736944E+02
 51
3.59764647E+02
  0
ARC
  8
0
 62
4
 10
-7.14536070E+01
 20
3.71883892E+01
 40
5.41814532E+00
 50
3.35191782E+02
 51
3.59964492E+02
  0
ARC
  8
0
 62
4
 10
-6.75349130E+01
 20
3.37972160E+01
 40
1.49947071E+00
 50
2.98635695E-01
 51
4.81997731E+01
  0
ARC
  8
0
 62
4
 10
-6.75343489E+01
 20
3.38025699E+01
 40
1.49888818E+00
 50
3.11791208E+02
 51
9.40935745E-02
  0
ARC
  8
0
 62
4
 10
-6.75343295E+01
 20
4.05674788E+01
 40
1.49888586E+00
 50
2.88704672E-01
 51
4.82097042E+01
  0
ARC
  8
0
 62
4
 10
-2.32426913E+01
 20
3.12016278E+01
 40
5.26722966E+00
 50
3.70246508E-02
 51
2.24731834E+01
  0
ARC
  8
0
 62
4
 10
-2.02618443E+00
 20
3.71901794E+01
 40
1.99492789E+01
 50
1.68507018E+02
 51
1.80014785E+02
  0
ARC
  8
0
 62
4
 10
-1.67184274E+01
 20
4.31764066E+01
 40
5.25703545E+00
 50
1.80014988E+02
 51
2.02495220E+02
  0
ARC
  8
0
 62
4
 10
-1.67175164E+01
 20
4.31734750E+01
 40
5.25794651E+00
 50
1.57506753E+02
 51
1.79983039E+02
  0
ARC
  8
0
 62
4
 10
-2.32416883E+01
 20
4.31718274E+01
 40
5.26622655E+00
 50
3.48600779E-02
 51
2.24753479E+01
  0
ARC
  8
0
 62
4
 10
-2.32407787E+01
 20
4.31780545E+01
 40
5.26531686E+00
 50
3.37522688E+02
 51
3.59967104E+02
  0
ARC
  8
0
 62
4
 10
-1.67175206E+01
 20
3.11966042E+01
 40
5.25794885E+00
 50
1.79908168E+02
 51
2.02493428E+02
  0
ARC
  8
0
 62
4
 10
-2.32416872E+01
 20
3.11982442E+01
 40
5.26622888E+00
 50
3.37524561E+02
 51
7.38440165E-02
  0
ARC
  8
0
 62
4
 10
-1.67165118E+01
 20
3.12032751E+01
 40
5.25895115E+00
 50
1.57508928E+02
 51
1.79980864E+02
  0
ARC
  8
0
 62
4
 10
-2.02718033E+00
 20
3.71897828E+01
 40
1.99482829E+01
 50
1.80013647E+02
 51
1.91493268E+02
  0
ARC
  8
0
 62
4
 10
-3.79322660E+01
 20
3.71906414E+01
 40
1.99568041E+01
 50
3.48509191E+02
 51
3.59983894E+02
  0
ARC
  8
0
 62
4
 10
-3.79332619E+01
 20
3.71893230E+01
 40
1.99577996E+01
 50
3.59987680E+02
 51
1.14905173E+01
  0
ARC
  8
0
 62
7
 10
-9.99343669E+00
 20
3.71900315E+01
 40
6.01538783E+00
 50
1.35114672E+02
 51
1.78084364E+02
  0
ARC
  8
0
 62
7
 10
-1.00291452E+01
 20
3.71900315E+01
 40
6.02365231E+00
 50
3.15192915E+02
 51
4.48070852E+01
  0
ARC
  8
0
 62
4
 10
1.29928716E+01
 20
5.66833658E+01
 40
1.00166704E+00
 50
9.52762946E-02
 51
8.99047236E+01
  0
ARC
  8
0
 62
4
 10
9.99532879E+00
 20
5.66842400E+01
 40
1.00079180E+00
 50
9.00000002E+01
 51
1.79954687E+02
  0
LINE
  8
0
 62
6
 10
1.02645373E+01
 20
5.61850315E+01
 11
1.02645373E+01
 21
5.51850315E+01
  0
LINE
  8
0
 62
6
 10
1.27245373E+01
 20
5.61850315E+01
 11
1.27245373E+01
 21
5.51850315E+01
  0
LINE
  8
0
 62
4
 10
9.99453730E+00
 20
5.61850315E+01
 11
9.99453730E+00
 21
5.51850315E+01
  0
LINE
  8
0
 62
4
 10
1.29945373E+01
 20
5.61850315E+01
 11
1.29945373E+01
 21
5.51850315E+01
  0
LINE
  8
0
 62
4
 10
9.99453730E+00
 20
5.76850315E+01
 11
1.29945373E+01
 21
5.76850315E+01
  0
LINE
  8
0
 62
4
 10
8.99453730E+00
 20
5.61850315E+01
 11
1.39945373E+01
 21
5.61850315E+01
  0
LINE
  8
0
 62
4
 10
6.99453730E+00
 20
5.51850315E+01
 11
1.59945373E+01
 21
5.51850315E+01
  0
LINE
  8
0
 62
4
 10
1.39945373E+01
 20
5.66850315E+01
 11
1.39945373E+01
 21
5.61850315E+01
  0
LINE
  8
0
 62
4
 10
8.99453730E+00
 20
5.66850315E+01
 11
8.99453730E+00
 21
5.61850315E+01
  0
LINE
  8
0
  6
CENTER
 62
2
 10
-1.04865463E+02
 20
5.91738763E+01
 11
-1.04865463E+02
 21
2.74350315E+01
  0
LINE
  8
0
 62
4
 10
-1.03815463E+02
 20
4.74850315E+01
 11
-1.02815463E+02
 21
4.64850315E+01
  0
LINE
  8
0
 62
4
 10
-1.06915463E+02
 20
4.64850315E+01
 11
-1.05915463E+02
 21
4.74850315E+01
  0
LINE
  8
0
 62
4
 10
-1.05915463E+02
 20
4.94850315E+01
 11
-1.06915463E+02
 21
5.04850315E+01
  0
LINE
  8
0
 62
4
 10
-1.03815463E+02
 20
4.94850315E+01
 11
-1.02815463E+02
 21
5.04850315E+01
  0
LINE
  8
0
 62
4
 10
-9.25654627E+01
 20
3.61350315E+01
 11
-9.15654627E+01
 21
3.51350315E+01
  0
LINE
  8
0
 62
4
 10
-9.45654627E+01
 20
3.61350315E+01
 11
-9.55654627E+01
 21
3.51350315E+01
  0
LINE
  8
0
 62
4
 10
-9.15654627E+01
 20
3.92350315E+01
 11
-9.25654627E+01
 21
3.82350315E+01
  0
LINE
  8
0
 62
4
 10
-9.55654627E+01
 20
3.92350315E+01
 11
-9.45654627E+01
 21
3.82350315E+01
  0
LINE
  8
0
 62
4
 10
-9.25654627E+01
 20
3.61350315E+01
 11
-9.25654627E+01
 21
3.82350315E+01
  0
LINE
  8
0
 62
4
 10
-9.45654627E+01
 20
3.61350315E+01
 11
-9.45654627E+01
 21
3.82350315E+01
  0
LINE
  8
0
 62
4
 10
-9.25654627E+01
 20
3.61350315E+01
 11
-9.45654627E+01
 21
3.61350315E+01
  0
LINE
  8
0
 62
4
 10
-9.25654627E+01
 20
3.82350315E+01
 11
-9.45654627E+01
 21
3.82350315E+01
  0
LINE
  8
0
 62
4
 10
-1.03815463E+02
 20
4.94850315E+01
 11
-1.03815463E+02
 21
4.74850315E+01
  0
LINE
  8
0
 62
4
 10
-1.03815463E+02
 20
4.74850315E+01
 11
-1.05915463E+02
 21
4.74850315E+01
  0
LINE
  8
0
 62
4
 10
-1.05915463E+02
 20
4.94850315E+01
 11
-1.05915463E+02
 21
4.74850315E+01
  0
LINE
  8
0
 62
4
 10
-1.03815463E+02
 20
4.94850315E+01
 11
-1.05915463E+02
 21
4.94850315E+01
  0
LINE
  8
0
 62
4
 10
-8.43654627E+01
 20
3.56850315E+01
 11
-8.43654627E+01
 21
3.86850315E+01
  0
LINE
  8
0
 62
4
 10
-9.58654627E+01
 20
3.61850315E+01
 11
-9.58654627E+01
 21
3.81850315E+01
  0
LINE
  8
0
 62
4
 10
-9.55654627E+01
 20
3.51350315E+01
 11
-9.55654627E+01
 21
3.92350315E+01
  0
LINE
  8
0
 62
4
 10
-9.55654627E+01
 20
3.61850315E+01
 11
-9.58654627E+01
 21
3.61850315E+01
  0
LINE
  8
0
 62
4
 10
-9.55654627E+01
 20
3.81850315E+01
 11
-9.58654627E+01
 21
3.81850315E+01
  0
LINE
  8
0
 62
4
 10
-9.81459013E+01
 20
4.40914230E+01
 11
-9.79908143E+01
 21
4.45667629E+01
  0
LINE
  8
0
 62
4
 10
-9.13407292E+01
 20
4.23970702E+01
 11
-9.11454627E+01
 21
4.27350315E+01
  0
LINE
  8
0
 62
6
 10
-8.84654627E+01
 20
3.84150315E+01
 11
-8.98354627E+01
 21
3.84150315E+01
  0
LINE
  8
0
 62
6
 10
-8.84654627E+01
 20
3.59550315E+01
 11
-8.98354627E+01
 21
3.59550315E+01
  0
LINE
  8
0
 62
4
 10
-8.84654627E+01
 20
3.86850315E+01
 11
-8.95654627E+01
 21
3.86850315E+01
  0
LINE
  8
0
 62
4
 10
-8.84654627E+01
 20
3.56850315E+01
 11
-8.95654627E+01
 21
3.56850315E+01
  0
LINE
  8
0
 62
4
 10
-9.12654627E+01
 20
3.81850315E+01
 11
-9.15654627E+01
 21
3.81850315E+01
  0
LINE
  8
0
 62
4
 10
-9.12654627E+01
 20
3.61850315E+01
 11
-9.15654627E+01
 21
3.61850315E+01
  0
LINE
  8
0
 62
4
 10
-9.12654627E+01
 20
3.61850315E+01
 11
-9.12654627E+01
 21
3.81850315E+01
  0
LINE
  8
0
 62
4
 10
-9.15654627E+01
 20
3.51350315E+01
 11
-9.15654627E+01
 21
3.92350315E+01
  0
LINE
  8
0
 62
4
 10
-8.98654627E+01
 20
3.39350315E+01
 11
-9.33654627E+01
 21
3.39350315E+01
  0
LINE
  8
0
 62
4
 10
-9.33654627E+01
 20
3.39350315E+01
 11
-9.33654627E+01
 21
3.51350315E+01
  0
LINE
  8
0
 62
4
 10
-9.37654627E+01
 20
3.39350315E+01
 11
-9.37654627E+01
 21
3.51350315E+01
  0
ARC
  8
0
 62
4
 10
-9.02481070E+01
 20
4.16861797E+01
 40
4.98857363E-01
 50
9.02705623E+01
 51
1.19445368E+02
  0
ARC
  8
0
 62
4
 10
-9.07123284E+01
 20
4.24848278E+01
 40
5.00207143E-01
 50
8.97862932E+01
 51
1.49986761E+02
  0
ARC
  8
0
 62
4
 10
-8.81638001E+01
 20
4.01866941E+01
 40
4.98340176E-01
 50
3.59808845E+02
 51
9.01911544E+01
  0
ARC
  8
0
 62
4
 10
-8.81654670E+01
 20
3.41850357E+01
 40
5.00004290E-01
 50
2.70000000E+02
 51
3.59999509E+02
  0
ARC
  8
0
 62
4
 10
-8.76638001E+01
 20
4.06866941E+01
 40
7.98339134E-01
 50
3.59880678E+02
 51
9.01193227E+01
  0
ARC
  8
0
 62
4
 10
-8.76654660E+01
 20
3.36850347E+01
 40
8.00003254E-01
 50
2.70000000E+02
 51
3.59999767E+02
  0
LINE
  8
0
 62
4
 10
-8.63654627E+01
 20
3.56850315E+01
 11
-8.63654627E+01
 21
3.86850315E+01
  0
LINE
  8
0
 62
4
 10
-8.53654627E+01
 20
3.96850315E+01
 11
-8.58654627E+01
 21
3.96850315E+01
  0
LINE
  8
0
 62
4
 10
-8.53654627E+01
 20
3.46850315E+01
 11
-8.58654627E+01
 21
3.46850315E+01
  0
LINE
  8
0
 62
4
 10
-8.58654627E+01
 20
3.46850315E+01
 11
-8.58654627E+01
 21
3.96850315E+01
  0
LINE
  8
0
 62
4
 10
-9.40654627E+01
 20
4.06850315E+01
 11
-9.40654627E+01
 21
4.14850315E+01
  0
LINE
  8
0
 62
4
 10
-9.33654627E+01
 20
3.28850315E+01
 11
-9.33654627E+01
 21
3.36850315E+01
  0
LINE
  8
0
 62
4
 10
-8.58654627E+01
 20
3.56850315E+01
 11
-8.68654627E+01
 21
3.56850315E+01
  0
LINE
  8
0
 62
4
 10
-8.58654627E+01
 20
3.86850315E+01
 11
-8.68654627E+01
 21
3.86850315E+01
  0
LINE
  8
0
 62
4
 10
-8.80404627E+01
 20
4.16100315E+01
 11
-8.80404627E+01
 21
4.21100315E+01
  0
LINE
  8
0
 62
4
 10
-8.80404627E+01
 20
4.21100315E+01
 11
-9.04609586E+01
 21
4.21100315E+01
  0
LINE
  8
0
 62
4
 10
-8.80404627E+01
 20
4.16100315E+01
 11
-9.05404627E+01
 21
4.16100315E+01
  0
LINE
  8
0
 62
4
 10
-9.05654627E+01
 20
3.39350315E+01
 11
-9.05654627E+01
 21
4.04350315E+01
  0
LINE
  8
0
 62
4
 10
-8.98654627E+01
 20
3.39350315E+01
 11
-8.98654627E+01
 21
4.04350315E+01
  0
LINE
  8
0
 62
4
 10
-8.81654627E+01
 20
3.36850315E+01
 11
-8.81654627E+01
 21
3.38350315E+01
  0
LINE
  8
0
 62
4
 10
-8.81654627E+01
 20
3.38350315E+01
 11
-9.33654627E+01
 21
3.38350315E+01
  0
LINE
  8
0
 62
4
 10
-9.09414627E+01
 20
4.14850315E+01
 11
-9.08172819E+01
 21
4.16991362E+01
  0
LINE
  8
0
 62
4
 10
-8.85654627E+01
 20
4.29850315E+01
 11
-9.07104627E+01
 21
4.29850315E+01
  0
LINE
  8
0
 62
4
 10
-8.76654627E+01
 20
3.41850315E+01
 11
-8.76654627E+01
 21
4.01850315E+01
  0
LINE
  8
0
 62
4
 10
-9.40654627E+01
 20
4.14850315E+01
 11
-8.76654627E+01
 21
4.14850315E+01
  0
LINE
  8
0
 62
4
 10
-8.76654627E+01
 20
3.28850315E+01
 11
-9.33654627E+01
 21
3.28850315E+01
  0
LINE
  8
0
 62
6
 10
-8.63654627E+01
 20
3.59550315E+01
 11
-8.68654627E+01
 21
3.59550315E+01
  0
LINE
  8
0
 62
6
 10
-8.63654627E+01
 20
3.84150315E+01
 11
-8.68654627E+01
 21
3.84150315E+01
  0
LINE
  8
0
 62
4
 10
-8.84654627E+01
 20
3.50400315E+01
 11
-8.84654627E+01
 21
3.93300315E+01
  0
LINE
  8
0
 62
4
 10
-8.76654627E+01
 20
3.49000315E+01
 11
-8.84654627E+01
 21
3.50400315E+01
  0
LINE
  8
0
 62
4
 10
-8.76654627E+01
 20
3.94700315E+01
 11
-8.84654627E+01
 21
3.93300315E+01
  0
LINE
  8
0
 62
4
 10
-8.85654627E+01
 20
4.21850315E+01
 11
-8.85654627E+01
 21
4.29850315E+01
  0
LINE
  8
0
 62
4
 10
-8.85654627E+01
 20
4.21850315E+01
 11
-9.02504627E+01
 21
4.21850315E+01
  0
LINE
  8
0
 62
4
 10
-9.18676849E+01
 20
4.14850315E+01
 11
-9.15964077E+01
 21
4.19545498E+01
  0
LINE
  8
0
 62
4
 10
-8.81654627E+01
 20
3.36850315E+01
 11
-9.33654627E+01
 21
3.36850315E+01
  0
LINE
  8
0
 62
4
 10
-8.81654627E+01
 20
4.06850315E+01
 11
-9.40654627E+01
 21
4.06850315E+01
  0
LINE
  8
0
 62
4
 10
-8.68654627E+01
 20
3.36850315E+01
 11
-8.68654627E+01
 21
4.06850315E+01
  0
LINE
  8
0
 62
4
 10
-9.43431820E+01
 20
4.28507272E+01
 11
-9.43897081E+01
 21
4.27081253E+01
  0
LINE
  8
0
 62
4
 10
-8.95654627E+01
 20
3.86850315E+01
 11
-8.98654627E+01
 21
3.83850315E+01
  0
LINE
  8
0
 62
4
 10
-8.95654627E+01
 20
3.56850315E+01
 11
-8.98654627E+01
 21
3.59850315E+01
  0
LINE
  8
0
 62
4
 10
-9.04609586E+01
 20
4.21100315E+01
 11
-9.79908143E+01
 21
4.45667629E+01
  0
LINE
  8
0
 62
4
 10
-9.43897529E+01
 20
4.27081399E+01
 11
-9.81932366E+01
 21
4.39490851E+01
  0
LINE
  8
0
 62
4
 10
-9.05404627E+01
 20
4.16100315E+01
 11
-9.84452546E+01
 21
4.41890917E+01
  0
LINE
  8
0
 62
4
 10
-9.33654627E+01
 20
3.36850315E+01
 11
-9.72204434E+01
 21
3.15400177E+01
  0
LINE
  8
0
 62
4
 10
-9.33654627E+01
 20
3.38350315E+01
 11
-9.70308160E+01
 21
3.18062944E+01
  0
ARC
  8
0
 62
4
 10
-8.53640504E+01
 20
3.86864438E+01
 40
9.98588677E-01
 50
3.59918966E+02
 51
9.00810348E+01
  0
ARC
  8
0
 62
4
 10
-8.53657155E+01
 20
3.56852842E+01
 40
1.00025280E+00
 50
2.70000000E+02
 51
3.59985521E+02
  0
LINE
  8
0
 62
4
 10
-8.98654627E+01
 20
4.04350315E+01
 11
-9.63654627E+01
 21
4.04350315E+01
  0
LINE
  8
0
 62
4
 10
-9.37654627E+01
 20
3.39350315E+01
 11
-9.63654627E+01
 21
3.39350315E+01
  0
LINE
  8
0
 62
4
 10
-9.15654627E+01
 20
3.51350315E+01
 11
-9.55654627E+01
 21
3.51350315E+01
  0
LINE
  8
0
 62
4
 10
-9.15654627E+01
 20
3.92350315E+01
 11
-9.55654627E+01
 21
3.92350315E+01
  0
ARC
  8
0
 62
4
 10
-1.04865463E+02
 20
3.71850315E+01
 40
8.65000000E+00
 50
1.69314255E+02
 51
1.90685745E+02
  0
ARC
  8
0
 62
4
 10
-1.04865463E+02
 20
3.71850315E+01
 40
8.65000000E+00
 50
2.59314255E+02
 51
2.80685745E+02
  0
LINE
  8
0
 62
4
 10
-1.03365463E+02
 20
5.24850315E+01
 11
-1.03665463E+02
 21
5.21850315E+01
  0
LINE
  8
0
 62
4
 10
-1.06365463E+02
 20
5.24850315E+01
 11
-1.06065463E+02
 21
5.21850315E+01
  0
LINE
  8
0
 62
4
 10
-1.03865463E+02
 20
4.61850315E+01
 11
-1.05865463E+02
 21
4.61850315E+01
  0
LINE
  8
0
 62
4
 10
-1.11771854E+02
 20
4.39045929E+01
 11
-1.12247194E+02
 21
4.40596799E+01
  0
LINE
  8
0
 62
4
 10
-1.10531158E+02
 20
4.77073122E+01
 11
-1.10388557E+02
 21
4.76607861E+01
  0
LINE
  8
0
 62
4
 10
-1.09790463E+02
 20
5.15895355E+01
 11
-1.12247194E+02
 21
4.40596799E+01
  0
LINE
  8
0
 62
4
 10
-1.10388571E+02
 20
4.76607413E+01
 11
-1.11629516E+02
 21
4.38572576E+01
  0
LINE
  8
0
 62
4
 10
-1.09290463E+02
 20
5.15100315E+01
 11
-1.11869523E+02
 21
4.36052395E+01
  0
LINE
  8
0
 62
4
 10
-1.01365463E+02
 20
4.86850315E+01
 11
-9.92204490E+01
 21
4.48300508E+01
  0
LINE
  8
0
 62
4
 10
-1.01515463E+02
 20
4.86850315E+01
 11
-9.94867257E+01
 21
4.50196781E+01
  0
ARC
  8
0
 62
4
 10
-1.04865463E+02
 20
3.71850315E+01
 40
8.65000000E+00
 50
3.49314255E+02
 51
1.06857449E+01
  0
LINE
  8
0
 62
4
 10
-1.01365463E+02
 20
5.51850315E+01
 11
-1.08365463E+02
 21
5.51850315E+01
  0
LINE
  8
0
 62
4
 10
-1.08365463E+02
 20
5.38850315E+01
 11
-1.08365463E+02
 21
4.79850315E+01
  0
LINE
  8
0
 62
4
 10
-1.01365463E+02
 20
5.38850315E+01
 11
-1.01365463E+02
 21
4.86850315E+01
  0
LINE
  8
0
 62
4
 10
-1.09165463E+02
 20
5.01828092E+01
 11
-1.09634981E+02
 21
5.04540865E+01
  0
LINE
  8
0
 62
4
 10
-1.09865463E+02
 20
5.34850315E+01
 11
-1.09865463E+02
 21
5.18000315E+01
  0
LINE
  8
0
 62
4
 10
-1.09865463E+02
 20
5.34850315E+01
 11
-1.10665463E+02
 21
5.34850315E+01
  0
LINE
  8
0
 62
4
 10
-1.07150463E+02
 20
5.43850315E+01
 11
-1.07010463E+02
 21
5.35850315E+01
  0
LINE
  8
0
 62
4
 10
-1.02580463E+02
 20
5.43850315E+01
 11
-1.02720463E+02
 21
5.35850315E+01
  0
LINE
  8
0
 62
4
 10
-1.02720463E+02
 20
5.35850315E+01
 11
-1.07010463E+02
 21
5.35850315E+01
  0
LINE
  8
0
 62
6
 10
-1.06095463E+02
 20
5.56850315E+01
 11
-1.06095463E+02
 21
5.51850315E+01
  0
LINE
  8
0
 62
6
 10
-1.03635463E+02
 20
5.56850315E+01
 11
-1.03635463E+02
 21
5.51850315E+01
  0
LINE
  8
0
 62
4
 10
-1.00565463E+02
 20
5.43850315E+01
 11
-1.00565463E+02
 21
4.86850315E+01
  0
LINE
  8
0
 62
4
 10
-1.09165463E+02
 20
4.79850315E+01
 11
-1.09165463E+02
 21
5.43850315E+01
  0
LINE
  8
0
 62
4
 10
-1.01865463E+02
 20
5.43850315E+01
 11
-1.07865463E+02
 21
5.43850315E+01
  0
LINE
  8
0
 62
4
 10
-1.10665463E+02
 20
5.34850315E+01
 11
-1.10665463E+02
 21
5.13400315E+01
  0
LINE
  8
0
 62
4
 10
-1.09165463E+02
 20
5.11090315E+01
 11
-1.09379567E+02
 21
5.12332122E+01
  0
LINE
  8
0
 62
4
 10
-1.01515463E+02
 20
5.38850315E+01
 11
-1.01515463E+02
 21
4.86850315E+01
  0
LINE
  8
0
 62
4
 10
-1.01365463E+02
 20
5.38850315E+01
 11
-1.01515463E+02
 21
5.38850315E+01
  0
LINE
  8
0
 62
4
 10
-1.01615463E+02
 20
5.21850315E+01
 11
-1.08115463E+02
 21
5.21850315E+01
  0
LINE
  8
0
 62
4
 10
-1.01615463E+02
 20
5.14850315E+01
 11
-1.08115463E+02
 21
5.14850315E+01
  0
LINE
  8
0
 62
4
 10
-1.09290463E+02
 20
5.40100315E+01
 11
-1.09290463E+02
 21
5.15100315E+01
  0
LINE
  8
0
 62
4
 10
-1.09790463E+02
 20
5.40100315E+01
 11
-1.09790463E+02
 21
5.15895355E+01
  0
LINE
  8
0
 62
4
 10
-1.09290463E+02
 20
5.40100315E+01
 11
-1.09790463E+02
 21
5.40100315E+01
  0
LINE
  8
0
 62
4
 10
-1.06365463E+02
 20
5.61850315E+01
 11
-1.06365463E+02
 21
5.51850315E+01
  0
LINE
  8
0
 62
4
 10
-1.03365463E+02
 20
5.61850315E+01
 11
-1.03365463E+02
 21
5.51850315E+01
  0
LINE
  8
0
 62
4
 10
-1.00565463E+02
 20
4.86850315E+01
 11
-1.01365463E+02
 21
4.86850315E+01
  0
LINE
  8
0
 62
4
 10
-1.08365463E+02
 20
4.79850315E+01
 11
-1.09165463E+02
 21
4.79850315E+01
  0
LINE
  8
0
 62
4
 10
-1.02365463E+02
 20
5.61850315E+01
 11
-1.07365463E+02
 21
5.61850315E+01
  0
LINE
  8
0
 62
4
 10
-1.03365463E+02
 20
5.76850315E+01
 11
-1.06365463E+02
 21
5.76850315E+01
  0
LINE
  8
0
 62
4
 10
-1.02365463E+02
 20
5.66850315E+01
 11
-1.02365463E+02
 21
5.61850315E+01
  0
LINE
  8
0
 62
4
 10
-1.07365463E+02
 20
5.66850315E+01
 11
-1.07365463E+02
 21
5.61850315E+01
  0
LINE
  8
0
 62
4
 10
-1.03365463E+02
 20
5.56850315E+01
 11
-1.06365463E+02
 21
5.56850315E+01
  0
ARC
  8
0
 62
4
 10
-1.01365466E+02
 20
5.43850282E+01
 40
8.00003254E-01
 50
2.33015759E-04
 51
9.00000002E+01
  0
ARC
  8
0
 62
4
 10
-1.08367125E+02
 20
5.43866941E+01
 40
7.98339134E-01
 50
8.98806771E+01
 51
1.80119323E+02
  0
ARC
  8
0
 62
4
 10
-1.01865467E+02
 20
5.38850272E+01
 40
5.00004290E-01
 50
4.91607912E-04
 51
9.00000002E+01
  0
ARC
  8
0
 62
4
 10
-1.07867125E+02
 20
5.38866941E+01
 40
4.98340176E-01
 50
8.98088454E+01
 51
1.80191155E+02
  0
ARC
  8
0
 62
4
 10
-1.10165259E+02
 20
5.13381657E+01
 40
5.00207143E-01
 50
1.79786293E+02
 51
2.39986760E+02
  0
ARC
  8
0
 62
4
 10
-1.09366611E+02
 20
5.18023872E+01
 40
4.98857363E-01
 50
1.80270562E+02
 51
2.09445368E+02
  0
ARC
  8
0
 62
4
 10
-1.06366875E+02
 20
5.66864438E+01
 40
9.98588677E-01
 50
8.99189656E+01
 51
1.80081034E+02
  0
ARC
  8
0
 62
4
 10
-1.03365715E+02
 20
5.66847787E+01
 40
1.00025280E+00
 50
1.44788446E-02
 51
9.00000002E+01
  0
LINE
  8
0
 62
4
 10
-1.08115463E+02
 20
5.21850315E+01
 11
-1.08115463E+02
 21
4.56850315E+01
  0
LINE
  8
0
 62
4
 10
-1.01615463E+02
 20
4.82850315E+01
 11
-1.01615463E+02
 21
4.56850315E+01
  0
LINE
  8
0
 62
4
 10
-1.01615463E+02
 20
4.82850315E+01
 11
-1.02815463E+02
 21
4.82850315E+01
  0
LINE
  8
0
 62
4
 10
-1.01615463E+02
 20
4.86850315E+01
 11
-1.02815463E+02
 21
4.86850315E+01
  0
LINE
  8
0
 62
4
 10
-1.01615463E+02
 20
5.21850315E+01
 11
-1.01615463E+02
 21
4.86850315E+01
  0
LINE
  8
0
 62
4
 10
-1.02815463E+02
 20
4.64850315E+01
 11
-1.06915463E+02
 21
4.64850315E+01
  0
LINE
  8
0
 62
4
 10
-1.02815463E+02
 20
5.04850315E+01
 11
-1.06915463E+02
 21
5.04850315E+01
  0
LINE
  8
0
 62
4
 10
-1.03865463E+02
 20
5.07850315E+01
 11
-1.05865463E+02
 21
5.07850315E+01
  0
LINE
  8
0
 62
4
 10
-1.03865463E+02
 20
5.07850315E+01
 11
-1.03865463E+02
 21
5.04850315E+01
  0
LINE
  8
0
 62
4
 10
-1.03865463E+02
 20
4.64850315E+01
 11
-1.03865463E+02
 21
4.61850315E+01
  0
LINE
  8
0
 62
4
 10
-1.02815463E+02
 20
5.04850315E+01
 11
-1.02815463E+02
 21
4.64850315E+01
  0
LINE
  8
0
 62
4
 10
-1.06915463E+02
 20
5.04850315E+01
 11
-1.06915463E+02
 21
4.64850315E+01
  0
LINE
  8
0
 62
4
 10
-1.05865463E+02
 20
5.07850315E+01
 11
-1.05865463E+02
 21
5.04850315E+01
  0
LINE
  8
0
 62
4
 10
-1.05865463E+02
 20
4.64850315E+01
 11
-1.05865463E+02
 21
4.61850315E+01
  0
LINE
  8
0
 62
4
 10
-1.03365463E+02
 20
5.35850315E+01
 11
-1.03365463E+02
 21
5.24850315E+01
  0
LINE
  8
0
 62
4
 10
-1.06365463E+02
 20
5.35850315E+01
 11
-1.06365463E+02
 21
5.24850315E+01
  0
LINE
  8
0
 62
6
 10
-1.03635463E+02
 20
5.35850315E+01
 11
-1.03635463E+02
 21
5.22150315E+01
  0
LINE
  8
0
 62
6
 10
-1.06095463E+02
 20
5.35850315E+01
 11
-1.06095463E+02
 21
5.22150315E+01
  0
LINE
  8
0
 62
4
 10
-1.10077501E+02
 20
5.07097649E+01
 11
-1.10415463E+02
 21
5.09050315E+01
  0
ARC
  8
0
 62
2
 10
-1.04865463E+02
 20
3.71850315E+01
 40
4.18800000E+00
 50
4.27674369E+01
 51
7.72325633E+01
  0
ARC
  8
0
 62
2
 10
-1.04865463E+02
 20
3.71850315E+01
 40
4.18800000E+00
 50
3.42767437E+02
 51
1.72325634E+01
  0
ARC
  8
0
 62
2
 10
-1.04865463E+02
 20
3.71850315E+01
 40
4.18800000E+00
 50
2.82767437E+02
 51
3.17232564E+02
  0
ARC
  8
0
 62
2
 10
-1.04865463E+02
 20
3.71850315E+01
 40
4.18800000E+00
 50
2.22767437E+02
 51
2.57232563E+02
  0
ARC
  8
0
 62
2
 10
-1.04865463E+02
 20
3.71850315E+01
 40
4.18800000E+00
 50
1.62767437E+02
 51
1.97232563E+02
  0
ARC
  8
0
 62
2
 10
-1.04865463E+02
 20
3.71850315E+01
 40
4.18800000E+00
 50
1.02767437E+02
 51
1.37232563E+02
  0
CIRCLE
  8
0
 62
7
 10
-1.04865463E+02
 20
3.71850315E+01
 40
5.00000000E+00
  0
LINE
  8
0
 62
4
 10
-1.04865463E+02
 20
4.52679368E+01
 11
-9.78654614E+01
 21
4.12264841E+01
  0
LINE
  8
0
 62
4
 10
-9.78654614E+01
 20
4.12264841E+01
 11
-9.78654614E+01
 21
3.31435788E+01
  0
LINE
  8
0
 62
4
 10
-9.78654614E+01
 20
3.31435788E+01
 11
-1.04865463E+02
 21
2.91021262E+01
  0
LINE
  8
0
 62
4
 10
-1.04865463E+02
 20
2.91021262E+01
 11
-1.11865464E+02
 21
3.31435788E+01
  0
LINE
  8
0
 62
4
 10
-1.11865464E+02
 20
3.31435788E+01
 11
-1.11865464E+02
 21
4.12264841E+01
  0
LINE
  8
0
 62
4
 10
-1.11865464E+02
 20
4.12264841E+01
 11
-1.04865463E+02
 21
4.52679368E+01
  0
LINE
  8
0
 62
4
 10
-1.08865464E+02
 20
3.48756296E+01
 11
-1.08865464E+02
 21
3.94944333E+01
  0
LINE
  8
0
 62
4
 10
-1.04865463E+02
 20
3.25662278E+01
 11
-1.08865464E+02
 21
3.48756296E+01
  0
LINE
  8
0
 62
4
 10
-1.00865461E+02
 20
3.48756296E+01
 11
-1.04865463E+02
 21
3.25662278E+01
  0
LINE
  8
0
 62
4
 10
-1.00865461E+02
 20
3.94944333E+01
 11
-1.00865461E+02
 21
3.48756296E+01
  0
LINE
  8
0
 62
4
 10
-1.04865463E+02
 20
4.18038351E+01
 11
-1.00865461E+02
 21
3.94944333E+01
  0
LINE
  8
0
 62
4
 10
-1.08865464E+02
 20
3.94944333E+01
 11
-1.04865463E+02
 21
4.18038351E+01
  0
CIRCLE
  8
0
 62
2
 10
-1.04865463E+02
 20
3.71850315E+01
 40
2.06700000E+00
  0
LINE
  8
0
 62
7
 10
-9.63654627E+01
 20
4.14350315E+01
 11
-9.63654627E+01
 21
3.29450315E+01
  0
LINE
  8
0
 62
7
 10
-1.13365463E+02
 20
4.14350315E+01
 11
-1.13365463E+02
 21
3.29450315E+01
  0
LINE
  8
0
 62
7
 10
-1.09105463E+02
 20
2.86850315E+01
 11
-1.00615463E+02
 21
2.86850315E+01
  0
LINE
  8
0
 62
7
 10
-1.09105463E+02
 20
4.56850315E+01
 11
-1.00615463E+02
 21
4.56850315E+01
  0
LINE
  8
0
  6
CENTER
 62
2
 10
-1.14981905E+02
 20
3.71850315E+01
 11
-8.30980499E+01
 21
3.71850315E+01
  0
CIRCLE
  8
0
 62
7
 10
-1.04865463E+02
 20
3.71850330E+01
 40
2.50000000E+00
  0
CIRCLE
  8
0
 62
7
 10
-1.04865463E+02
 20
3.71850330E+01
 40
8.50000000E+00
  0
ARC
  8
0
 62
7
 10
-1.04865462E+02
 20
3.71850322E+01
 40
9.50328788E+00
 50
2.65650491E+01
 51
6.34349507E+01
  0
ARC
  8
0
 62
7
 10
-1.04870456E+02
 20
3.71800481E+01
 40
9.50105392E+00
 50
1.16470741E+02
 51
1.53394604E+02
  0
ARC
  8
0
 62
7
 10
-1.04865462E+02
 20
3.71850322E+01
 40
9.49882200E+00
 50
2.06511102E+02
 51
2.43488897E+02
  0
ARC
  8
0
 62
7
 10
-1.04870448E+02
 20
3.71800399E+01
 40
9.50105596E+00
 50
2.96605401E+02
 51
3.33529254E+02
  0
CIRCLE
  8
0
 62
4
 10
-1.04865463E+02
 20
3.71850330E+01
 40
7.00000000E+00
  0
CIRCLE
  8
0
 62
4
 10
-1.04865463E+02
 20
3.71850330E+01
 40
4.00000000E+00
  0
LINE
  8
0
  6
CENTER
 62
2
 10
9.97945373E+01
 20
6.03026470E+01
 11
9.97945373E+01
 21
2.58720163E+01
  0
ARC
  8
0
 62
4
 10
9.97945373E+01
 20
3.71850315E+01
 40
8.65000000E+00
 50
2.40907274E+02
 51
1.08069713E+02
  0
ARC
  8
0
 62
4
 10
9.97945373E+01
 20
3.71850315E+01
 40
8.65000000E+00
 50
2.25894536E+02
 51
2.31400637E+02
  0
ARC
  8
0
 62
7
 10
9.97945381E+01
 20
3.71850322E+01
 40
9.49882200E+00
 50
2.16501128E+02
 51
2.43488897E+02
  0
ARC
  8
0
 62
7
 10
9.97895442E+01
 20
3.71800481E+01
 40
9.50105392E+00
 50
1.34564723E+02
 51
1.53394604E+02
  0
LINE
  8
0
 62
4
 10
9.37784476E+01
 20
4.41631597E+01
 11
9.22358736E+01
 21
4.13908729E+01
  0
LINE
  8
0
 62
4
 10
9.39777093E+01
 20
4.42281719E+01
 11
9.23576890E+01
 21
4.13012539E+01
  0
LINE
  8
0
 62
4
 10
9.16449898E+01
 20
4.00845790E+01
 11
9.12945373E+01
 21
4.04350315E+01
  0
LINE
  8
0
 62
4
 10
9.16449898E+01
 20
3.42854840E+01
 11
9.12945373E+01
 21
3.39350315E+01
  0
LINE
  8
0
 62
4
 10
9.07945373E+01
 20
3.61850315E+01
 11
9.07945373E+01
 21
3.81850315E+01
  0
LINE
  8
0
 62
4
 10
8.62698038E+01
 20
4.23970702E+01
 11
8.60745373E+01
 21
4.27350315E+01
  0
LINE
  8
0
 62
6
 10
8.33945373E+01
 20
3.84150315E+01
 11
8.47645373E+01
 21
3.84150315E+01
  0
LINE
  8
0
 62
6
 10
8.33945373E+01
 20
3.59550315E+01
 11
8.47645373E+01
 21
3.59550315E+01
  0
LINE
  8
0
 62
4
 10
8.33945373E+01
 20
3.86850315E+01
 11
8.44945373E+01
 21
3.86850315E+01
  0
LINE
  8
0
 62
4
 10
8.33945373E+01
 20
3.56850315E+01
 11
8.44945373E+01
 21
3.56850315E+01
  0
LINE
  8
0
 62
4
 10
8.97945373E+01
 20
3.84850315E+01
 11
9.04945373E+01
 21
3.92350315E+01
  0
LINE
  8
0
 62
4
 10
8.71945373E+01
 20
3.84850315E+01
 11
8.64945373E+01
 21
3.92350315E+01
  0
LINE
  8
0
 62
4
 10
8.71945373E+01
 20
3.84850315E+01
 11
8.97945373E+01
 21
3.84850315E+01
  0
LINE
  8
0
 62
4
 10
8.61945373E+01
 20
3.81850315E+01
 11
8.64945373E+01
 21
3.81850315E+01
  0
LINE
  8
0
 62
4
 10
8.64945373E+01
 20
3.92350315E+01
 11
9.04945373E+01
 21
3.92350315E+01
  0
LINE
  8
0
 62
4
 10
8.64945373E+01
 20
3.51350315E+01
 11
8.71945373E+01
 21
3.58850315E+01
  0
LINE
  8
0
 62
4
 10
8.71945373E+01
 20
3.58850315E+01
 11
8.97945373E+01
 21
3.58850315E+01
  0
LINE
  8
0
 62
4
 10
8.64945373E+01
 20
3.51350315E+01
 11
9.04945373E+01
 21
3.51350315E+01
  0
LINE
  8
0
 62
4
 10
8.61945373E+01
 20
3.61850315E+01
 11
8.64945373E+01
 21
3.61850315E+01
  0
LINE
  8
0
 62
4
 10
8.71945373E+01
 20
3.58850315E+01
 11
8.71945373E+01
 21
3.84850315E+01
  0
LINE
  8
0
 62
4
 10
8.61945373E+01
 20
3.61850315E+01
 11
8.61945373E+01
 21
3.81850315E+01
  0
LINE
  8
0
 62
4
 10
8.64945373E+01
 20
3.51350315E+01
 11
8.64945373E+01
 21
3.92350315E+01
  0
LINE
  8
0
 62
4
 10
9.04945373E+01
 20
3.51350315E+01
 11
9.04945373E+01
 21
3.92350315E+01
  0
LINE
  8
0
 62
4
 10
8.47945373E+01
 20
3.39350315E+01
 11
8.82945373E+01
 21
3.39350315E+01
  0
LINE
  8
0
 62
4
 10
8.82945373E+01
 20
3.39350315E+01
 11
8.82945373E+01
 21
3.51350315E+01
  0
LINE
  8
0
 62
4
 10
8.86945373E+01
 20
3.39350315E+01
 11
8.86945373E+01
 21
3.51350315E+01
  0
ARC
  8
0
 62
4
 10
8.02947901E+01
 20
3.56852842E+01
 40
1.00025280E+00
 50
1.80014479E+02
 51
2.70000000E+02
  0
ARC
  8
0
 62
4
 10
8.02931250E+01
 20
3.86864438E+01
 40
9.98588677E-01
 50
8.99189656E+01
 51
1.80081034E+02
  0
ARC
  8
0
 62
4
 10
8.51771816E+01
 20
4.16861797E+01
 40
4.98857363E-01
 50
6.05546317E+01
 51
8.97294375E+01
  0
ARC
  8
0
 62
4
 10
8.56414030E+01
 20
4.24848278E+01
 40
5.00207143E-01
 50
3.00132395E+01
 51
9.02137066E+01
  0
ARC
  8
0
 62
4
 10
8.30928747E+01
 20
4.01866941E+01
 40
4.98340176E-01
 50
8.98088454E+01
 51
1.80191155E+02
  0
ARC
  8
0
 62
4
 10
8.30945416E+01
 20
3.41850357E+01
 40
5.00004290E-01
 50
1.80000491E+02
 51
2.70000000E+02
  0
ARC
  8
0
 62
4
 10
8.25928747E+01
 20
4.06866941E+01
 40
7.98339134E-01
 50
8.98806771E+01
 51
1.80119323E+02
  0
ARC
  8
0
 62
4
 10
8.25945406E+01
 20
3.36850347E+01
 40
8.00003254E-01
 50
1.80000233E+02
 51
2.70000000E+02
  0
LINE
  8
0
 62
4
 10
8.12945373E+01
 20
3.56850315E+01
 11
8.12945373E+01
 21
3.86850315E+01
  0
LINE
  8
0
 62
4
 10
8.02945373E+01
 20
3.96850315E+01
 11
8.07945373E+01
 21
3.96850315E+01
  0
LINE
  8
0
 62
4
 10
8.02945373E+01
 20
3.46850315E+01
 11
8.07945373E+01
 21
3.46850315E+01
  0
LINE
  8
0
 62
4
 10
7.92945373E+01
 20
3.56850315E+01
 11
7.92945373E+01
 21
3.86850315E+01
  0
LINE
  8
0
 62
4
 10
8.07945373E+01
 20
3.46850315E+01
 11
8.07945373E+01
 21
3.96850315E+01
  0
LINE
  8
0
 62
4
 10
8.89945373E+01
 20
4.06850315E+01
 11
8.89945373E+01
 21
4.14850315E+01
  0
LINE
  8
0
 62
4
 10
8.82945373E+01
 20
3.28850315E+01
 11
8.82945373E+01
 21
3.36850315E+01
  0
LINE
  8
0
 62
4
 10
8.07945373E+01
 20
3.56850315E+01
 11
8.17945373E+01
 21
3.56850315E+01
  0
LINE
  8
0
 62
4
 10
8.07945373E+01
 20
3.86850315E+01
 11
8.17945373E+01
 21
3.86850315E+01
  0
LINE
  8
0
 62
4
 10
8.29695373E+01
 20
4.16100315E+01
 11
8.29695373E+01
 21
4.21100315E+01
  0
LINE
  8
0
 62
4
 10
8.29695373E+01
 20
4.21100315E+01
 11
8.53900332E+01
 21
4.21100315E+01
  0
LINE
  8
0
 62
4
 10
8.29695373E+01
 20
4.16100315E+01
 11
8.54695373E+01
 21
4.16100315E+01
  0
LINE
  8
0
 62
4
 10
8.54945373E+01
 20
3.39350315E+01
 11
8.54945373E+01
 21
4.04350315E+01
  0
LINE
  8
0
 62
4
 10
8.47945373E+01
 20
3.39350315E+01
 11
8.47945373E+01
 21
4.04350315E+01
  0
LINE
  8
0
 62
4
 10
8.30945373E+01
 20
3.36850315E+01
 11
8.30945373E+01
 21
3.38350315E+01
  0
LINE
  8
0
 62
4
 10
8.30945373E+01
 20
3.38350315E+01
 11
8.82945373E+01
 21
3.38350315E+01
  0
LINE
  8
0
 62
4
 10
8.58705373E+01
 20
4.14850315E+01
 11
8.57463565E+01
 21
4.16991362E+01
  0
LINE
  8
0
 62
4
 10
8.34945373E+01
 20
4.29850315E+01
 11
8.56395373E+01
 21
4.29850315E+01
  0
LINE
  8
0
 62
4
 10
8.25945373E+01
 20
3.41850315E+01
 11
8.25945373E+01
 21
4.01850315E+01
  0
LINE
  8
0
 62
4
 10
8.89945373E+01
 20
4.14850315E+01
 11
8.25945373E+01
 21
4.14850315E+01
  0
LINE
  8
0
 62
4
 10
8.25945373E+01
 20
3.28850315E+01
 11
8.82945373E+01
 21
3.28850315E+01
  0
LINE
  8
0
 62
6
 10
8.12945373E+01
 20
3.59550315E+01
 11
8.17945373E+01
 21
3.59550315E+01
  0
LINE
  8
0
 62
6
 10
8.12945373E+01
 20
3.84150315E+01
 11
8.17945373E+01
 21
3.84150315E+01
  0
LINE
  8
0
 62
4
 10
8.33945373E+01
 20
3.50400315E+01
 11
8.33945373E+01
 21
3.93300315E+01
  0
LINE
  8
0
 62
4
 10
8.25945373E+01
 20
3.49000315E+01
 11
8.33945373E+01
 21
3.50400315E+01
  0
LINE
  8
0
 62
4
 10
8.25945373E+01
 20
3.94700315E+01
 11
8.33945373E+01
 21
3.93300315E+01
  0
LINE
  8
0
 62
4
 10
8.34945373E+01
 20
4.21850315E+01
 11
8.34945373E+01
 21
4.29850315E+01
  0
LINE
  8
0
 62
4
 10
8.34945373E+01
 20
4.21850315E+01
 11
8.51795373E+01
 21
4.21850315E+01
  0
LINE
  8
0
 62
4
 10
8.67967595E+01
 20
4.14850315E+01
 11
8.65254823E+01
 21
4.19545498E+01
  0
LINE
  8
0
 62
4
 10
8.30945373E+01
 20
3.36850315E+01
 11
8.82945373E+01
 21
3.36850315E+01
  0
LINE
  8
0
 62
4
 10
8.30945373E+01
 20
4.06850315E+01
 11
8.89945373E+01
 21
4.06850315E+01
  0
LINE
  8
0
 62
4
 10
8.17945373E+01
 20
3.36850315E+01
 11
8.17945373E+01
 21
4.06850315E+01
  0
CIRCLE
  8
0
 62
4
 10
8.84945373E+01
 20
3.71850315E+01
 40
1.30000000E+00
  0
LINE
  8
0
 62
4
 10
8.92722566E+01
 20
4.28507272E+01
 11
8.93187827E+01
 21
4.27081253E+01
  0
LINE
  8
0
 62
4
 10
8.97945373E+01
 20
3.58850315E+01
 11
9.04945373E+01
 21
3.51350315E+01
  0
LINE
  8
0
 62
4
 10
8.97945373E+01
 20
3.58850315E+01
 11
8.97945373E+01
 21
3.84850315E+01
  0
LINE
  8
0
 62
4
 10
8.44945373E+01
 20
3.86850315E+01
 11
8.47945373E+01
 21
3.83850315E+01
  0
LINE
  8
0
 62
4
 10
8.44945373E+01
 20
3.56850315E+01
 11
8.47945373E+01
 21
3.59850315E+01
  0
LINE
  8
0
 62
4
 10
8.53900332E+01
 20
4.21100315E+01
 11
9.29198889E+01
 21
4.45667629E+01
  0
LINE
  8
0
 62
4
 10
8.93188275E+01
 20
4.27081399E+01
 11
9.71580588E+01
 21
4.52658099E+01
  0
LINE
  8
0
 62
4
 10
8.54695373E+01
 20
4.16100315E+01
 11
9.71115327E+01
 21
4.54084119E+01
  0
LINE
  8
0
 62
4
 10
8.82945373E+01
 20
3.36850315E+01
 11
9.55886958E+01
 21
2.96263677E+01
  0
LINE
  8
0
 62
4
 10
8.82945373E+01
 20
3.38350315E+01
 11
9.56783149E+01
 21
2.97481832E+01
  0
LINE
  8
0
 62
4
 10
8.47945373E+01
 20
4.04350315E+01
 11
9.12945373E+01
 21
4.04350315E+01
  0
LINE
  8
0
 62
4
 10
8.86945373E+01
 20
3.39350315E+01
 11
9.12945373E+01
 21
3.39350315E+01
  0
LINE
  8
0
 62
4
 10
9.04945373E+01
 20
3.61850315E+01
 11
9.07945373E+01
 21
3.61850315E+01
  0
LINE
  8
0
 62
4
 10
9.04945373E+01
 20
3.81850315E+01
 11
9.07945373E+01
 21
3.81850315E+01
  0
LINE
  8
0
 62
4
 10
9.30749759E+01
 20
4.40914230E+01
 11
9.29198889E+01
 21
4.45667629E+01
  0
LINE
  8
0
 62
7
 10
1.01398439E+02
 20
2.86850315E+01
 11
1.04044537E+02
 21
2.86850315E+01
  0
LINE
  8
0
 62
7
 10
1.08294537E+02
 20
3.55811300E+01
 11
1.08294537E+02
 21
3.29450315E+01
  0
LINE
  8
0
 62
7
 10
9.12945373E+01
 20
3.39350315E+01
 11
9.12945373E+01
 21
3.29450315E+01
  0
ARC
  8
0
 62
7
 10
9.97895442E+01
 20
3.71800481E+01
 40
9.50105392E+00
 50
1.26443200E+02
 51
1.32458992E+02
  0
ARC
  8
0
 62
7
 10
9.97945381E+01
 20
3.71850322E+01
 40
9.50328788E+00
 50
4.46347655E+01
 51
6.34349507E+01
  0
LINE
  8
0
 62
7
 10
1.03044537E+02
 20
4.56850315E+01
 11
1.04044537E+02
 21
4.56850315E+01
  0
LINE
  8
0
 62
4
 10
9.82945373E+01
 20
5.24850315E+01
 11
9.85945373E+01
 21
5.21850315E+01
  0
LINE
  8
0
 62
4
 10
1.01294537E+02
 20
5.24850315E+01
 11
1.00994537E+02
 21
5.21850315E+01
  0
LINE
  8
0
 62
4
 10
9.87945373E+01
 20
4.61850315E+01
 11
1.00794537E+02
 21
4.61850315E+01
  0
LINE
  8
0
 62
4
 10
9.84945373E+01
 20
4.71850315E+01
 11
1.01094537E+02
 21
4.71850315E+01
  0
LINE
  8
0
 62
4
 10
9.84945373E+01
 20
4.71850315E+01
 11
9.77445373E+01
 21
4.64850315E+01
  0
LINE
  8
0
 62
4
 10
1.06700929E+02
 20
4.39045929E+01
 11
1.07176269E+02
 21
4.40596799E+01
  0
LINE
  8
0
 62
4
 10
1.05460233E+02
 20
4.77073122E+01
 11
1.05317631E+02
 21
4.76607861E+01
  0
LINE
  8
0
 62
4
 10
1.04719537E+02
 20
5.15895355E+01
 11
1.07176269E+02
 21
4.40596799E+01
  0
LINE
  8
0
 62
4
 10
1.05317646E+02
 20
4.76607413E+01
 11
1.07377827E+02
 21
4.13463068E+01
  0
LINE
  8
0
 62
4
 10
1.04219537E+02
 20
5.15100315E+01
 11
1.08017918E+02
 21
3.98680361E+01
  0
LINE
  8
0
 62
4
 10
9.62945373E+01
 20
4.86850315E+01
 11
9.38857153E+01
 21
4.43559393E+01
  0
LINE
  8
0
 62
4
 10
9.64445373E+01
 20
4.86850315E+01
 11
9.40842862E+01
 21
4.44207261E+01
  0
ARC
  8
0
 62
4
 10
9.97945373E+01
 20
3.71850315E+01
 40
8.65000000E+00
 50
1.50907274E+02
 51
2.25894536E+02
  0
CIRCLE
  8
0
 62
4
 10
9.97945373E+01
 20
4.84850315E+01
 40
1.30000000E+00
  0
LINE
  8
0
 62
4
 10
9.62945373E+01
 20
5.51850315E+01
 11
1.03294537E+02
 21
5.51850315E+01
  0
LINE
  8
0
 62
4
 10
1.03294537E+02
 20
5.38850315E+01
 11
1.03294537E+02
 21
4.79850315E+01
  0
LINE
  8
0
 62
4
 10
9.62945373E+01
 20
5.38850315E+01
 11
9.62945373E+01
 21
4.86850315E+01
  0
LINE
  8
0
 62
4
 10
1.04094537E+02
 20
5.01828092E+01
 11
1.04564056E+02
 21
5.04540865E+01
  0
LINE
  8
0
 62
4
 10
1.04794537E+02
 20
5.34850315E+01
 11
1.04794537E+02
 21
5.18000315E+01
  0
LINE
  8
0
 62
4
 10
1.04794537E+02
 20
5.34850315E+01
 11
1.05594537E+02
 21
5.34850315E+01
  0
LINE
  8
0
 62
4
 10
1.02079537E+02
 20
5.43850315E+01
 11
1.01939537E+02
 21
5.35850315E+01
  0
LINE
  8
0
 62
4
 10
9.75095373E+01
 20
5.43850315E+01
 11
9.76495373E+01
 21
5.35850315E+01
  0
LINE
  8
0
 62
4
 10
9.76495373E+01
 20
5.35850315E+01
 11
1.01939537E+02
 21
5.35850315E+01
  0
LINE
  8
0
 62
6
 10
1.01024537E+02
 20
5.56850315E+01
 11
1.01024537E+02
 21
5.51850315E+01
  0
LINE
  8
0
 62
6
 10
9.85645373E+01
 20
5.56850315E+01
 11
9.85645373E+01
 21
5.51850315E+01
  0
LINE
  8
0
 62
4
 10
9.54945373E+01
 20
5.43850315E+01
 11
9.54945373E+01
 21
4.86850315E+01
  0
LINE
  8
0
 62
4
 10
1.04094537E+02
 20
4.79850315E+01
 11
1.04094537E+02
 21
5.43850315E+01
  0
LINE
  8
0
 62
4
 10
9.67945373E+01
 20
5.43850315E+01
 11
1.02794537E+02
 21
5.43850315E+01
  0
LINE
  8
0
 62
4
 10
1.05594537E+02
 20
5.34850315E+01
 11
1.05594537E+02
 21
5.13400315E+01
  0
LINE
  8
0
 62
4
 10
1.04094537E+02
 20
5.11090315E+01
 11
1.04308642E+02
 21
5.12332122E+01
  0
LINE
  8
0
 62
4
 10
9.64445373E+01
 20
5.38850315E+01
 11
9.64445373E+01
 21
4.86850315E+01
  0
LINE
  8
0
 62
4
 10
9.62945373E+01
 20
5.38850315E+01
 11
9.64445373E+01
 21
5.38850315E+01
  0
LINE
  8
0
 62
4
 10
9.65445373E+01
 20
5.21850315E+01
 11
1.03044537E+02
 21
5.21850315E+01
  0
LINE
  8
0
 62
4
 10
9.65445373E+01
 20
5.14850315E+01
 11
1.03044537E+02
 21
5.14850315E+01
  0
LINE
  8
0
 62
4
 10
1.04219537E+02
 20
5.40100315E+01
 11
1.04219537E+02
 21
5.15100315E+01
  0
LINE
  8
0
 62
4
 10
1.04719537E+02
 20
5.40100315E+01
 11
1.04719537E+02
 21
5.15895355E+01
  0
LINE
  8
0
 62
4
 10
1.04219537E+02
 20
5.40100315E+01
 11
1.04719537E+02
 21
5.40100315E+01
  0
LINE
  8
0
 62
4
 10
1.01294537E+02
 20
5.61850315E+01
 11
1.01294537E+02
 21
5.51850315E+01
  0
LINE
  8
0
 62
4
 10
9.82945373E+01
 20
5.61850315E+01
 11
9.82945373E+01
 21
5.51850315E+01
  0
LINE
  8
0
 62
4
 10
9.54945373E+01
 20
4.86850315E+01
 11
9.62945373E+01
 21
4.86850315E+01
  0
LINE
  8
0
 62
4
 10
1.03294537E+02
 20
4.79850315E+01
 11
1.04094537E+02
 21
4.79850315E+01
  0
LINE
  8
0
 62
4
 10
9.72945373E+01
 20
5.61850315E+01
 11
1.02294537E+02
 21
5.61850315E+01
  0
LINE
  8
0
 62
4
 10
9.82945373E+01
 20
5.76850315E+01
 11
1.01294537E+02
 21
5.76850315E+01
  0
LINE
  8
0
 62
4
 10
9.72945373E+01
 20
5.66850315E+01
 11
9.72945373E+01
 21
5.61850315E+01
  0
LINE
  8
0
 62
4
 10
1.02294537E+02
 20
5.66850315E+01
 11
1.02294537E+02
 21
5.61850315E+01
  0
LINE
  8
0
 62
4
 10
9.82945373E+01
 20
5.56850315E+01
 11
1.01294537E+02
 21
5.56850315E+01
  0
ARC
  8
0
 62
4
 10
9.62945406E+01
 20
5.43850282E+01
 40
8.00003254E-01
 50
9.00000002E+01
 51
1.79999767E+02
  0
ARC
  8
0
 62
4
 10
1.03296200E+02
 20
5.43866941E+01
 40
7.98339134E-01
 50
3.59880678E+02
 51
9.01193227E+01
  0
ARC
  8
0
 62
4
 10
9.67945416E+01
 20
5.38850272E+01
 40
5.00004290E-01
 50
9.00000002E+01
 51
1.79999508E+02
  0
ARC
  8
0
 62
4
 10
1.02796200E+02
 20
5.38866941E+01
 40
4.98340176E-01
 50
3.59808845E+02
 51
9.01911544E+01
  0
ARC
  8
0
 62
4
 10
1.05094334E+02
 20
5.13381657E+01
 40
5.00207143E-01
 50
3.00013240E+02
 51
2.13706628E-01
  0
ARC
  8
0
 62
4
 10
1.04295686E+02
 20
5.18023872E+01
 40
4.98857363E-01
 50
3.30554632E+02
 51
3.59729437E+02
  0
ARC
  8
0
 62
4
 10
1.01295950E+02
 20
5.66864438E+01
 40
9.98588677E-01
 50
3.59918966E+02
 51
9.00810348E+01
  0
ARC
  8
0
 62
4
 10
9.82947901E+01
 20
5.66847787E+01
 40
1.00025280E+00
 50
9.00000002E+01
 51
1.79985521E+02
  0
LINE
  8
0
 62
4
 10
1.03044537E+02
 20
5.21850315E+01
 11
1.03044537E+02
 21
4.56850315E+01
  0
LINE
  8
0
 62
4
 10
1.02694085E+02
 20
4.53345790E+01
 11
1.03044537E+02
 21
4.56850315E+01
  0
LINE
  8
0
 62
4
 10
9.68949898E+01
 20
4.53345790E+01
 11
9.65445373E+01
 21
4.56850315E+01
  0
LINE
  8
0
 62
4
 10
9.65445373E+01
 20
4.82850315E+01
 11
9.65445373E+01
 21
4.56850315E+01
  0
LINE
  8
0
 62
4
 10
9.65445373E+01
 20
4.82850315E+01
 11
9.77445373E+01
 21
4.82850315E+01
  0
LINE
  8
0
 62
4
 10
9.65445373E+01
 20
4.86850315E+01
 11
9.77445373E+01
 21
4.86850315E+01
  0
LINE
  8
0
 62
4
 10
9.65445373E+01
 20
5.21850315E+01
 11
9.65445373E+01
 21
4.86850315E+01
  0
LINE
  8
0
 62
4
 10
9.77445373E+01
 20
4.64850315E+01
 11
1.01844537E+02
 21
4.64850315E+01
  0
LINE
  8
0
 62
4
 10
9.77445373E+01
 20
5.04850315E+01
 11
1.01844537E+02
 21
5.04850315E+01
  0
LINE
  8
0
 62
4
 10
9.87945373E+01
 20
5.07850315E+01
 11
1.00794537E+02
 21
5.07850315E+01
  0
LINE
  8
0
 62
4
 10
9.84945373E+01
 20
4.97850315E+01
 11
1.01094537E+02
 21
4.97850315E+01
  0
LINE
  8
0
 62
4
 10
9.87945373E+01
 20
5.07850315E+01
 11
9.87945373E+01
 21
5.04850315E+01
  0
LINE
  8
0
 62
4
 10
9.87945373E+01
 20
4.64850315E+01
 11
9.87945373E+01
 21
4.61850315E+01
  0
LINE
  8
0
 62
4
 10
9.77445373E+01
 20
5.04850315E+01
 11
9.77445373E+01
 21
4.64850315E+01
  0
LINE
  8
0
 62
4
 10
9.84945373E+01
 20
4.97850315E+01
 11
9.84945373E+01
 21
4.71850315E+01
  0
LINE
  8
0
 62
4
 10
9.77445373E+01
 20
5.04850315E+01
 11
9.84945373E+01
 21
4.97850315E+01
  0
LINE
  8
0
 62
4
 10
1.01844537E+02
 20
5.04850315E+01
 11
1.01844537E+02
 21
4.64850315E+01
  0
LINE
  8
0
 62
4
 10
1.00794537E+02
 20
5.07850315E+01
 11
1.00794537E+02
 21
5.04850315E+01
  0
LINE
  8
0
 62
4
 10
1.00794537E+02
 20
4.64850315E+01
 11
1.00794537E+02
 21
4.61850315E+01
  0
LINE
  8
0
 62
4
 10
1.01094537E+02
 20
4.97850315E+01
 11
1.01094537E+02
 21
4.71850315E+01
  0
LINE
  8
0
 62
4
 10
1.01094537E+02
 20
4.97850315E+01
 11
1.01844537E+02
 21
5.04850315E+01
  0
LINE
  8
0
 62
4
 10
1.01094537E+02
 20
4.71850315E+01
 11
1.01844537E+02
 21
4.64850315E+01
  0
LINE
  8
0
 62
4
 10
9.82945373E+01
 20
5.35850315E+01
 11
9.82945373E+01
 21
5.24850315E+01
  0
LINE
  8
0
 62
4
 10
1.01294537E+02
 20
5.35850315E+01
 11
1.01294537E+02
 21
5.24850315E+01
  0
LINE
  8
0
 62
6
 10
9.85645373E+01
 20
5.35850315E+01
 11
9.85645373E+01
 21
5.22150315E+01
  0
LINE
  8
0
 62
6
 10
1.01024537E+02
 20
5.35850315E+01
 11
1.01024537E+02
 21
5.22150315E+01
  0
LINE
  8
0
 62
4
 10
1.05006576E+02
 20
5.07097649E+01
 11
1.05344537E+02
 21
5.09050315E+01
  0
CIRCLE
  8
0
 62
7
 10
9.97945373E+01
 20
3.71850315E+01
 40
7.50000000E-01
  0
LINE
  8
0
 62
7
 10
9.12945373E+01
 20
4.14350315E+01
 11
9.12945373E+01
 21
4.04350315E+01
  0
ARC
  8
0
 62
7
 10
9.97945381E+01
 20
3.71850322E+01
 40
9.49882200E+00
 50
2.06511102E+02
 51
2.14524804E+02
  0
LINE
  8
0
 62
7
 10
9.55545373E+01
 20
2.86850315E+01
 11
9.81906358E+01
 21
2.86850315E+01
  0
ARC
  8
0
 62
7
 10
9.97895524E+01
 20
3.71800399E+01
 40
9.50105596E+00
 50
2.96605401E+02
 51
3.33529254E+02
  0
LINE
  8
0
 62
7
 10
1.08294537E+02
 20
4.14350315E+01
 11
1.08294537E+02
 21
3.87889330E+01
  0
ARC
  8
0
 62
7
 10
9.97945381E+01
 20
3.71850322E+01
 40
9.50328788E+00
 50
2.65650491E+01
 51
4.25351600E+01
  0
LINE
  8
0
 62
7
 10
9.55545373E+01
 20
4.56850315E+01
 11
9.65445373E+01
 21
4.56850315E+01
  0
CIRCLE
  8
0
 62
4
 10
9.97945373E+01
 20
3.71850330E+01
 40
8.50000000E+00
  0
ARC
  8
0
 62
7
 10
9.97895442E+01
 20
3.71800481E+01
 40
9.50105392E+00
 50
1.16470741E+02
 51
1.24471441E+02
  0
LINE
  8
0
  6
CENTER
 62
2
 10
7.79578664E+01
 20
3.71850315E+01
 11
1.09924537E+02
 21
3.71850315E+01
  0
CIRCLE
  8
0
 62
4
 10
9.98011938E+01
 20
3.71850330E+01
 40
8.00000000E+00
  0
CIRCLE
  8
0
 62
4
 10
-1.05726312E+02
 20
-3.16294654E+01
 40
5.00000000E+00
  0
LINE
  8
0
  6
CENTER
 62
6
 10
-1.13226312E+02
 20
-3.16294654E+01
 11
-9.82263117E+01
 21
-3.16294654E+01
  0
LINE
  8
0
  6
CENTER
 62
6
 10
-1.05726312E+02
 20
-2.32307565E+01
 11
-1.05726312E+02
 21
-3.99052023E+01
  0
LINE
  8
0
 62
4
 10
-1.26726312E+02
 20
-4.33294654E+01
 11
-1.26726312E+02
 21
-4.56294654E+01
  0
LINE
  8
0
 62
4
 10
-8.47263117E+01
 20
-4.33294654E+01
 11
-8.47263117E+01
 21
-4.56294654E+01
  0
LINE
  8
0
 62
4
 10
-1.26726312E+02
 20
-4.56294654E+01
 11
-8.47263117E+01
 21
-4.56294654E+01
  0
LINE
  8
0
  6
CENTER
 62
6
 10
-9.11263117E+01
 20
-4.10748853E+01
 11
-9.11263117E+01
 21
-4.73890238E+01
  0
LINE
  8
0
  6
CENTER
 62
6
 10
-1.20326312E+02
 20
-4.10748853E+01
 11
-1.20326312E+02
 21
-4.73890238E+01
  0
LINE
  8
0
 62
4
 10
-1.26726312E+02
 20
-4.33294654E+01
 11
-8.47263117E+01
 21
-4.33294654E+01
  0
ARC
  8
0
 62
4
 10
-1.05726312E+02
 20
-3.16294654E+01
 40
1.00000000E+01
 50
3.62946002E+01
 51
1.43705400E+02
  0
LINE
  8
0
 62
4
 10
-8.47263117E+01
 20
-4.33294654E+01
 11
-9.76664710E+01
 21
-2.57100932E+01
  0
LINE
  8
0
 62
4
 10
-1.26726312E+02
 20
-4.33294654E+01
 11
-1.13786152E+02
 21
-2.57100932E+01
  0
LINE
  8
0
  6
CENTER
 62
6
 10
-6.86744785E+01
 20
-3.16294654E+01
 11
-6.13263117E+01
 21
-3.16294654E+01
  0
LINE
  8
0
  6
CENTER
 62
6
 10
-7.28263117E+01
 20
-4.10748853E+01
 11
-7.28263117E+01
 21
-4.73890238E+01
  0
LINE
  8
0
 62
4
 10
-7.88263117E+01
 20
-4.33294654E+01
 11
-7.88263117E+01
 21
-4.56294654E+01
  0
LINE
  8
0
 62
4
 10
-7.88263117E+01
 20
-4.56294654E+01
 11
-6.66026573E+01
 21
-4.56294654E+01
  0
LINE
  8
0
 62
4
 10
-6.61263117E+01
 20
-2.16294654E+01
 11
-6.38263117E+01
 21
-2.16294654E+01
  0
LINE
  8
0
 62
4
 10
-6.38263117E+01
 20
-2.16294654E+01
 11
-6.38263117E+01
 21
-4.28531198E+01
  0
LINE
  8
0
 62
4
 10
-7.02263117E+01
 20
-4.33294654E+01
 11
-7.02263117E+01
 21
-4.56294654E+01
  0
LINE
  8
0
 62
4
 10
-7.54263117E+01
 20
-4.33294654E+01
 11
-7.54263117E+01
 21
-4.56294654E+01
  0
LINE
  8
0
 62
4
 10
-6.61263117E+01
 20
-2.16294654E+01
 11
-6.61263117E+01
 21
-4.28531198E+01
  0
LINE
  8
0
 62
4
 10
-7.88263117E+01
 20
-4.33294654E+01
 11
-6.66026573E+01
 21
-4.33294654E+01
  0
ARC
  8
0
 62
4
 10
-6.66026573E+01
 20
-4.28531198E+01
 40
2.77634560E+00
 50
2.70000000E+02
 51
0.00000000E+00
  0
ARC
  8
0
 62
4
 10
-6.66026573E+01
 20
-4.28531198E+01
 40
4.76345597E-01
 50
2.70000000E+02
 51
0.00000000E+00
  0
LINE
  8
0
  6
CENTER
 62
6
 10
-1.05726312E+02
 20
9.66053456E+00
 11
-1.05726312E+02
 21
-7.96946544E+00
  0
LINE
  8
0
 62
4
 10
-1.26726312E+02
 20
8.27053456E+00
 11
-1.26726312E+02
 21
1.87053456E+00
  0
LINE
  8
0
 62
4
 10
-1.26726312E+02
 20
-3.32946544E+00
 11
-1.26726312E+02
 21
-6.72946544E+00
  0
LINE
  8
0
 62
4
 10
-1.20326312E+02
 20
1.87053456E+00
 11
-1.26726312E+02
 21
1.87053456E+00
  0
LINE
  8
0
 62
4
 10
-1.20326312E+02
 20
-3.32946544E+00
 11
-1.26726312E+02
 21
-3.32946544E+00
  0
LINE
  8
0
  6
CENTER
 62
6
 10
-1.20326312E+02
 20
-4.56286879E+00
 11
-1.20326312E+02
 21
2.92403471E+00
  0
ARC
  8
0
 62
4
 10
-1.20326312E+02
 20
-7.29465439E-01
 40
2.60000000E+00
 50
2.70000000E+02
 51
9.00000002E+01
  0
LINE
  8
0
 62
4
 10
-9.11263117E+01
 20
1.87053456E+00
 11
-8.47263117E+01
 21
1.87053456E+00
  0
LINE
  8
0
 62
4
 10
-9.11263117E+01
 20
-3.32946544E+00
 11
-8.47263117E+01
 21
-3.32946544E+00
  0
LINE
  8
0
  6
CENTER
 62
6
 10
-9.11263117E+01
 20
-4.40243514E+00
 11
-9.11263117E+01
 21
2.81707894E+00
  0
ARC
  8
0
 62
4
 10
-9.11263117E+01
 20
-7.29465439E-01
 40
2.60000000E+00
 50
9.00000002E+01
 51
2.70000000E+02
  0
LINE
  8
0
 62
4
 10
-8.47263117E+01
 20
-3.32946544E+00
 11
-8.47263117E+01
 21
-6.72946544E+00
  0
LINE
  8
0
  6
CENTER
 62
6
 10
-1.23629276E+02
 20
-7.29465439E-01
 11
-8.82916887E+01
 21
-7.29465439E-01
  0
LINE
  8
0
 62
4
 10
-1.26726312E+02
 20
-6.72946544E+00
 11
-8.47263117E+01
 21
-6.72946544E+00
  0
LINE
  8
0
 62
4
 10
-1.26726312E+02
 20
8.27053456E+00
 11
-8.47263117E+01
 21
8.27053456E+00
  0
LINE
  8
0
 62
4
 10
-8.47263117E+01
 20
8.27053456E+00
 11
-8.47263117E+01
 21
1.87053456E+00
  0
LINE
  8
0
 62
4
 10
-1.26726312E+02
 20
5.97053456E+00
 11
-8.47263117E+01
 21
5.97053456E+00
  0
LINE
  8
0
 62
4
 10
1.02736883E+01
 20
-3.87294654E+01
 11
1.02736883E+01
 21
-4.61294654E+01
  0
LINE
  8
0
 62
4
 10
-3.17263117E+01
 20
-3.87294654E+01
 11
-3.17263117E+01
 21
-4.61294654E+01
  0
LINE
  8
0
 62
4
 10
-3.17263117E+01
 20
-2.61294654E+01
 11
1.02736883E+01
 21
-2.61294654E+01
  0
LINE
  8
0
 62
4
 10
3.87368830E+00
 20
-3.35294654E+01
 11
1.02736883E+01
 21
-3.35294654E+01
  0
LINE
  8
0
 62
4
 10
-3.17263117E+01
 20
-3.35294654E+01
 11
-2.53263117E+01
 21
-3.35294654E+01
  0
LINE
  8
0
 62
4
 10
-3.17263117E+01
 20
-2.61294654E+01
 11
-3.17263117E+01
 21
-3.35294654E+01
  0
LINE
  8
0
 62
4
 10
1.02736883E+01
 20
-2.61294654E+01
 11
1.02736883E+01
 21
-3.35294654E+01
  0
LINE
  8
0
 62
4
 10
3.87368830E+00
 20
-3.87294654E+01
 11
1.02736883E+01
 21
-3.87294654E+01
  0
LINE
  8
0
 62
4
 10
-3.17263117E+01
 20
-3.87294654E+01
 11
-2.53263117E+01
 21
-3.87294654E+01
  0
LINE
  8
0
  6
CENTER
 62
6
 10
-2.83663117E+01
 20
-3.61294654E+01
 11
6.54378496E+00
 21
-3.61294654E+01
  0
LINE
  8
0
  6
CENTER
 62
6
 10
3.87368830E+00
 20
-3.23694202E+01
 11
3.87368830E+00
 21
-4.00723884E+01
  0
LINE
  8
0
  6
CENTER
 62
6
 10
-2.53263117E+01
 20
-3.23694202E+01
 11
-2.53263117E+01
 21
-4.00723884E+01
  0
CIRCLE
  8
0
 62
4
 10
-1.07263117E+01
 20
-3.61294654E+01
 40
5.00000000E+00
  0
ARC
  8
0
 62
4
 10
-2.53263117E+01
 20
-3.61294654E+01
 40
2.60000000E+00
 50
2.70000000E+02
 51
9.00000002E+01
  0
ARC
  8
0
 62
4
 10
3.87368830E+00
 20
-3.61294654E+01
 40
2.60000000E+00
 50
9.00000002E+01
 51
2.70000000E+02
  0
LINE
  8
0
  6
CENTER
 62
6
 10
-1.07263117E+01
 20
-2.89294654E+01
 11
-1.07263117E+01
 21
-4.34394654E+01
  0
LINE
  8
0
 62
4
 10
-3.17263117E+01
 20
-4.61294654E+01
 11
1.02736883E+01
 21
-4.61294654E+01
  0
LINE
  8
0
  6
CENTER
 62
6
 10
3.87368833E+00
 20
-6.93051278E-01
 11
3.87368833E+00
 21
-6.89452885E+00
  0
LINE
  8
0
  6
CENTER
 62
6
 10
-2.53263117E+01
 20
-6.93051278E-01
 11
-2.53263117E+01
 21
-6.89452885E+00
  0
LINE
  8
0
  6
CENTER
 62
6
 10
-1.07263117E+01
 20
-6.93051278E-01
 11
-1.07263117E+01
 21
-6.89452885E+00
  0
LINE
  8
0
 62
4
 10
1.02736883E+01
 20
-2.62946544E+00
 11
1.02736883E+01
 21
-4.92946544E+00
  0
LINE
  8
0
 62
4
 10
-3.17263117E+01
 20
-2.62946544E+00
 11
-3.17263117E+01
 21
-4.92946544E+00
  0
LINE
  8
0
 62
4
 10
-3.17263117E+01
 20
-2.62946544E+00
 11
1.02736883E+01
 21
-2.62946544E+00
  0
LINE
  8
0
 62
4
 10
-3.17263117E+01
 20
-4.92946544E+00
 11
1.02736883E+01
 21
-4.92946544E+00
  0
LINE
  8
0
 62
4
 10
8.27943298E+01
 20
-1.13784095E+00
 11
8.27943298E+01
 21
-1.81378410E+01
  0
LINE
  8
0
 62
4
 10
8.45443298E+01
 20
-1.13784095E+00
 11
8.45443298E+01
 21
-5.39784095E+00
  0
LINE
  8
0
 62
4
 10
8.45443298E+01
 20
-1.38878410E+01
 11
8.45443298E+01
 21
-1.81378410E+01
  0
LINE
  8
0
 62
4
 10
9.00443298E+01
 20
-1.38878410E+01
 11
9.00443298E+01
 21
-1.81378410E+01
  0
LINE
  8
0
 62
4
 10
9.00443298E+01
 20
-1.13784095E+00
 11
9.00443298E+01
 21
-5.39784095E+00
  0
LINE
  8
0
 62
4
 10
9.17943298E+01
 20
-1.13784095E+00
 11
9.17943298E+01
 21
-1.81378410E+01
  0
LINE
  8
0
  6
CENTER
 62
6
 10
5.67205006E+01
 20
-9.63784095E+00
 11
9.25943298E+01
 21
-9.63784095E+00
  0
CIRCLE
  8
0
 62
6
 10
8.72893268E+01
 20
-9.63785316E+00
 40
2.64999962E+00
  0
LINE
  8
0
 62
4
 10
8.45443298E+01
 20
-5.39784095E+00
 11
9.00443298E+01
 21
-5.39784095E+00
  0
LINE
  8
0
 62
4
 10
8.45443298E+01
 20
-1.38878410E+01
 11
9.00443298E+01
 21
-1.38878410E+01
  0
CIRCLE
  8
0
 62
4
 10
8.72943298E+01
 20
-9.63784095E+00
 40
2.06700000E+00
  0
LINE
  8
0
  6
CENTER
 62
6
 10
8.72943298E+01
 20
-6.08784095E+00
 11
8.72943298E+01
 21
-1.33178410E+01
  0
LINE
  8
0
 62
4
 10
8.27943298E+01
 20
-1.81378410E+01
 11
9.17943298E+01
 21
-1.81378410E+01
  0
LINE
  8
0
 62
4
 10
8.27943298E+01
 20
-1.13784095E+00
 11
9.17943298E+01
 21
-1.13784095E+00
  0
ARC
  8
0
 62
4
 10
8.88179013E+01
 20
-9.64284095E+00
 40
6.02357350E+00
 50
1.35192170E+02
 51
2.24807830E+02
  0
ARC
  8
0
 62
4
 10
8.57707584E+01
 20
-9.64284095E+00
 40
6.02357350E+00
 50
3.15192170E+02
 51
4.48078298E+01
  0
LINE
  8
0
  6
CENTER
 62
6
 10
1.01944537E+02
 20
-9.63784095E+00
 11
1.23994537E+02
 21
-9.63784095E+00
  0
LINE
  8
0
 62
4
 10
1.04294537E+02
 20
-5.39784095E+00
 11
1.04294537E+02
 21
-1.38878410E+01
  0
LINE
  8
0
 62
4
 10
1.21294537E+02
 20
-5.39784095E+00
 11
1.21294537E+02
 21
-1.38878410E+01
  0
LINE
  8
0
  6
CENTER
 62
6
 10
1.12794537E+02
 20
1.21215905E+00
 11
1.12794537E+02
 21
-1.94378410E+01
  0
LINE
  8
0
 62
4
 10
1.08554537E+02
 20
-1.13784095E+00
 11
1.17034537E+02
 21
-1.13784095E+00
  0
LINE
  8
0
 62
4
 10
1.08554537E+02
 20
-1.81378410E+01
 11
1.17034537E+02
 21
-1.81378410E+01
  0
ARC
  8
0
 62
4
 10
1.12792037E+02
 20
-9.64034139E+00
 40
9.50217468E+00
 50
2.65178620E+01
 51
6.34821378E+01
  0
ARC
  8
0
 62
4
 10
1.12792050E+02
 20
-9.63535360E+00
 40
9.49548496E+00
 50
1.16504369E+02
 51
1.53495631E+02
  0
ARC
  8
0
 62
4
 10
1.12787050E+02
 20
-9.63535814E+00
 40
9.49770359E+00
 50
2.06598649E+02
 51
2.43536006E+02
  0
ARC
  8
0
 62
4
 10
1.12797046E+02
 20
-9.63036683E+00
 40
9.50439122E+00
 50
2.96477458E+02
 51
3.33387887E+02
  0
CIRCLE
  8
0
 62
4
 10
1.12789550E+02
 20
-9.63785316E+00
 40
8.50000000E+00
  0
LINE
  8
0
  6
CENTER
 62
6
 10
1.78709590E+01
 20
-3.61294654E+01
 11
2.48100080E+01
 21
-3.61294654E+01
  0
LINE
  8
0
 62
4
 10
2.02736883E+01
 20
-2.61294654E+01
 11
2.25736883E+01
 21
-2.61294654E+01
  0
LINE
  8
0
 62
4
 10
2.02736883E+01
 20
-3.35294654E+01
 11
2.25736883E+01
 21
-3.35294654E+01
  0
LINE
  8
0
 62
4
 10
2.02736883E+01
 20
-4.61294654E+01
 11
2.25736883E+01
 21
-4.61294654E+01
  0
LINE
  8
0
 62
4
 10
2.02736883E+01
 20
-3.87294654E+01
 11
2.25736883E+01
 21
-3.87294654E+01
  0
LINE
  8
0
 62
4
 10
2.25736883E+01
 20
-2.61294654E+01
 11
2.25736883E+01
 21
-4.61294654E+01
  0
LINE
  8
0
 62
4
 10
2.02736883E+01
 20
-2.61294654E+01
 11
2.02736883E+01
 21
-4.61294654E+01
  0
TEXT
  8
0
 62
7
 10
-1.03642994E+02
 20
-5.83963843E+01
 40
3.20000005E+00
  1
STRETCH LIST
 41
1.05263158E+00
  7
MONOTXT
  0
TEXT
  8
0
 62
7
 10
-5.71374690E+01
 20
-8.84000011E+01
 40
3.20000005E+00
  1
-5
 41
1.00000000E+00
  7
MONOTXT
  0
TEXT
  8
0
 62
7
 10
-5.71374690E+01
 20
-8.24000031E+01
 40
3.20000005E+00
  1
-5
 41
1.00000000E+00
  7
MONOTXT
  0
TEXT
  8
0
 62
7
 10
-5.71374690E+01
 20
-7.03963805E+01
 40
3.20000005E+00
  1
25
 41
1.00000000E+00
  7
MONOTXT
  0
TEXT
  8
0
 62
7
 10
-7.07374691E+01
 20
-8.84000011E+01
 40
3.20000005E+00
  1
-10
 41
1.00000000E+00
  7
MONOTXT
  0
TEXT
  8
0
 62
7
 10
-7.07374691E+01
 20
-8.24000031E+01
 40
3.20000005E+00
  1
-10
 41
1.00000000E+00
  7
MONOTXT
  0
TEXT
  8
0
 62
7
 10
-6.91374690E+01
 20
-7.03963805E+01
 40
3.20000005E+00
  1
20
 41
1.00000000E+00
  7
MONOTXT
  0
LINE
  8
0
 62
7
 10
-6.03999939E+01
 20
-5.98000031E+01
 11
-6.03999939E+01
 21
-8.98000031E+01
  0
LINE
  8
0
 62
7
 10
-4.83999939E+01
 20
-5.98000031E+01
 11
-4.83999939E+01
 21
-8.98000031E+01
  0
LINE
  8
0
 62
7
 10
5.58464225E+01
 20
-1.81378410E+01
 11
8.27943298E+01
 21
-1.81378410E+01
  0
LINE
  8
0
 62
7
 10
6.56613771E+01
 20
-1.13784095E+00
 11
8.27943298E+01
 21
-1.13784095E+00
  0
LINE
  8
0
 62
2
 10
5.58464225E+01
 20
-1.81378410E+01
 11
6.56613771E+01
 21
-1.13784095E+00
  0
LINE
  8
0
 62
7
 10
-1.33399994E+02
 20
-8.98000031E+01
 11
-3.63999939E+01
 21
-8.98000031E+01
  0
LINE
  8
0
 62
7
 10
-1.33399994E+02
 20
-8.38000031E+01
 11
-3.63999939E+01
 21
-8.38000031E+01
  0
LINE
  8
0
 62
7
 10
-1.08399994E+02
 20
-5.98000031E+01
 11
-1.08399994E+02
 21
-8.98000031E+01
  0
LINE
  8
0
 62
7
 10
-9.63999939E+01
 20
-5.98000031E+01
 11
-9.63999939E+01
 21
-8.98000031E+01
  0
LINE
  8
0
 62
7
 10
-8.43999939E+01
 20
-5.98000031E+01
 11
-8.43999939E+01
 21
-8.98000031E+01
  0
LINE
  8
0
 62
7
 10
-7.23999939E+01
 20
-5.98000031E+01
 11
-7.23999939E+01
 21
-8.98000031E+01
  0
LINE
  8
0
 62
7
 10
-3.63999939E+01
 20
-5.98000031E+01
 11
-3.63999939E+01
 21
-8.98000031E+01
  0
LINE
  8
0
 62
7
 10
-1.33399994E+02
 20
-5.98000031E+01
 11
-3.63999939E+01
 21
-5.98000031E+01
  0
LINE
  8
0
 62
7
 10
-1.33399994E+02
 20
-7.78000031E+01
 11
-3.63999939E+01
 21
-7.78000031E+01
  0
LINE
  8
0
 62
7
 10
-1.08399994E+02
 20
-7.78000031E+01
 11
-1.10509994E+02
 21
-6.58000031E+01
  0
LINE
  8
0
 62
7
 10
-1.33399994E+02
 20
-6.58000031E+01
 11
-1.10509994E+02
 21
-6.58000031E+01
  0
LINE
  8
0
 62
7
 10
-1.33399994E+02
 20
-5.98000031E+01
 11
-1.33399994E+02
 21
-8.98000031E+01
  0
TEXT
  8
0
 62
7
 10
-1.29037469E+02
 20
-6.43963843E+01
 40
3.20000005E+00
  1
STROKE
 41
1.00000000E+00
  7
MONOTXT
  0
TEXT
  8
0
 62
7
 10
-4.51374690E+01
 20
-7.03963805E+01
 40
3.20000005E+00
  1
30
 41
1.00000000E+00
  7
MONOTXT
  0
TEXT
  8
0
 62
7
 10
-8.11374690E+01
 20
-7.03963805E+01
 40
3.20000005E+00
  1
15
 41
1.00000000E+00
  7
MONOTXT
  0
TEXT
  8
0
 62
7
 10
-9.31374690E+01
 20
-7.03963805E+01
 40
3.20000005E+00
  1
10
 41
1.00000000E+00
  7
MONOTXT
  0
TEXT
  8
0
 62
7
 10
-1.03537469E+02
 20
-7.03963805E+01
 40
3.20000005E+00
  1
5
 41
1.00000000E+00
  7
MONOTXT
  0
TEXT
  8
0
 62
7
 10
-4.35374690E+01
 20
-8.24000031E+01
 40
3.20000005E+00
  1
0
 41
1.00000000E+00
  7
MONOTXT
  0
TEXT
  8
0
 62
7
 10
-8.27374691E+01
 20
-8.24000031E+01
 40
3.20000005E+00
  1
-15
 41
1.00000000E+00
  7
MONOTXT
  0
TEXT
  8
0
 62
7
 10
-9.47374691E+01
 20
-8.24000031E+01
 40
3.20000005E+00
  1
-20
 41
1.00000000E+00
  7
MONOTXT
  0
TEXT
  8
0
 62
7
 10
-1.06737469E+02
 20
-8.24000031E+01
 40
3.20000005E+00
  1
-25
 41
1.00000000E+00
  7
MONOTXT
  0
TEXT
  8
0
 62
7
 10
-1.32241000E+02
 20
-7.19763780E+01
 40
3.20000005E+00
  1
STRETCH
 41
1.00000000E+00
  7
MONOTXT
  0
TEXT
  8
0
 62
7
 10
-1.32241000E+02
 20
-7.67763782E+01
 40
3.20000005E+00
  1
  PLACE
 41
1.20689655E+00
  7
MONOTXT
  0
TEXT
  8
0
 62
7
 10
-1.22037469E+02
 20
-8.24000031E+01
 40
3.20000005E+00
  1
A
 41
1.00000000E+00
  7
MONOTXT
  0
TEXT
  8
0
 62
7
 10
-1.22037469E+02
 20
-8.84000031E+01
 40
3.20000005E+00
  1
B
 41
1.00000000E+00
  7
MONOTXT
  0
TEXT
  8
0
 62
7
 10
-4.35374690E+01
 20
-8.84000011E+01
 40
3.20000005E+00
  1
0
 41
1.00000000E+00
  7
MONOTXT
  0
TEXT
  8
0
 62
7
 10
-8.27374691E+01
 20
-8.84000011E+01
 40
3.20000005E+00
  1
-20
 41
1.00000000E+00
  7
MONOTXT
  0
TEXT
  8
0
 62
7
 10
-9.47374691E+01
 20
-8.84000011E+01
 40
3.20000005E+00
  1
-25
 41
1.00000000E+00
  7
MONOTXT
  0
TEXT
  8
0
 62
7
 10
-1.06737469E+02
 20
-8.84000011E+01
 40
3.20000005E+00
  1
-30
 41
1.00000000E+00
  7
MONOTXT
  0
TEXT
  8
0
 62
7
 10
-4.83429940E+01
 20
-5.83963843E+01
 40
3.20000005E+00
  1
(mm)
 41
1.00000000E+00
  7
MONOTXT
  0
TEXT
  8
0
 10
-7.34640373E+01
 20
6.71772910E+01
 40
3.20000005E+00
  1
STRETCH LINE A
 41
1.09375000E+00
  7
MONOTXT
  0
TEXT
  8
0
 10
1.15359627E+01
 20
6.71772910E+01
 40
3.20000005E+00
  1
STRETCH LINE B
 41
1.09375000E+00
  7
MONOTXT
  0
LINE
  8
0
 62
7
 10
-1.38399994E+02
 20
9.45000000E+01
 11
1.38350006E+02
 21
9.45000000E+01
  0
LINE
  8
0
 62
7
 10
1.38350006E+02
 20
9.45000000E+01
 11
1.38350006E+02
 21
-9.48000031E+01
  0
LINE
  8
0
 62
7
 10
-1.38399994E+02
 20
-9.48000031E+01
 11
1.38350006E+02
 21
-9.48000031E+01
  0
LINE
  8
0
 62
7
 10
-1.38399994E+02
 20
9.45000000E+01
 11
-1.38399994E+02
 21
-9.48000031E+01
  0
LINE
  8
0
 62
7
 10
7.33500061E+01
 20
-8.48000031E+01
 11
1.38350006E+02
 21
-8.48000031E+01
  0
LINE
  8
0
 62
7
 10
-1.38399994E+02
 20
8.45000000E+01
 11
-7.33999939E+01
 21
8.45000000E+01
  0
LINE
  8
0
 62
7
 10
7.33500061E+01
 20
8.45000000E+01
 11
1.38350006E+02
 21
8.45000000E+01
  0
LINE
  8
0
 62
7
 10
7.33500061E+01
 20
-8.48000031E+01
 11
7.33500061E+01
 21
-9.48000031E+01
  0
LINE
  8
0
 62
7
 10
7.33500061E+01
 20
9.45000000E+01
 11
7.33500061E+01
 21
8.45000000E+01
  0
LINE
  8
0
 62
7
 10
-7.33999939E+01
 20
9.45000000E+01
 11
-7.33999939E+01
 21
8.45000000E+01
  0
TEXT
  8
0
 62
7
 10
7.72426624E+01
 20
-9.20500031E+01
 40
4.50000000E+00
  1
KOGANEI CORP.
 41
1.04838710E+00
  7
MONOTXT
  0
TEXT
  8
0
 62
7
 10
9.35071483E+01
 20
8.79000000E+01
 40
3.20000005E+00
  1
Ver. 1.1
 41
1.08108108E+00
  7
MONOTXT
  0
TEXT
  8
0
 62
7
 10
-1.31042852E+02
 20
8.79000000E+01
 40
3.20000005E+00
  1
NEW PEN CYLINDER
 41
1.08108108E+00
  7
MONOTXT
  0
TEXT
  8
0
 62
7
 10
-1.29085994E+02
 20
7.29000000E+01
 40
3.20000005E+00
  1
MODEL:PBTAS16*ST(30)-ZC230
 41
1.00000000E+00
  7
MONOTXT
  0
ENDSEC
  0
EOF
