  0
SECTION
  2
HEADER
  9
$ACADVER
  1
AC1003
  9
$EXTMIN
 10
-1.38399994E+02
 20
-9.48000031E+01
  9
$EXTMAX
 10
1.38350006E+02
 20
9.45000000E+01
  9
$LIMMIN
 10
-1.38400994E+02
 20
-9.48010031E+01
  9
$LIMMAX
 10
1.38351006E+02
 20
9.45010000E+01
  9
$SNAPUNIT
 10
1
 20
1
  9
$SNAPBASE
 10
0
 20
0
  9
$GRIDMODE
 70
0
  9
$GRIDUNIT
 10
0
 20
0
  9
$LTSCALE
 40
4.61250000E+00
  9
$TEXTSIZE
 40
3.2
  9
$DIMTAD
 70
0
  9
$LUNITS
 70
2
  9
$LUPREC
 70
4
  9
$FILLETRAD
 40
0
  9
$AUNITS
 70
0
  9
$AUPREC
 70
0
  0
ENDSEC
  0
SECTION
  2
TABLES
  0
TABLE
  2
LTYPE
 70
2
  0
LTYPE
  2
CONTINUOUS
 70
64
  3
Solid-Line
 72
65
 73
0
 40
0
  0
LTYPE
  2
DASHED
 70
64
  3
DASHED
 72
65
 73
2
 40
.75
 49
.5
 49
-.25
  0
LTYPE
  2
HIDDEN
 70
64
  3
HIDDEN
 72
65
 73
2
 40
.375
 49
.25
 49
-.125
  0
LTYPE
  2
CENTER
 70
64
  3
CENTER
 72
65
 73
4
 40
2
 49
1.25
 49
-.25
 49
.25
 49
-.25
  0
LTYPE
  2
PHANTOM
 70
64
  3
PHANTOM
 72
65
 73
6
 40
2.5
 49
1.25
 49
-.25
 49
.25
 49
-.25
 49
.25
 49
-.25
  0
ENDTAB
  0
TABLE
  2
LAYER
 70
1
  0
LAYER
  2
1
 70
0
 62
7
  6
CONTINUOUS
 0
ENDTAB
  0
TABLE
  2
STYLE
 70
2
  0
STYLE
  2
MONOTXT
 70
0
 40
0
 41
1
 50
0
 71
0
 42
.2
  3
monotxt
  0
STYLE
  2
BIGFONT
 70
0
 40
0
 41
1
 50
0
 71
0
 42
.2
  3
txt
  4
bigfont
  0
ENDTAB
  0
ENDSEC
  0
SECTION
  2
ENTITIES
  0
LINE
  8
0
  6
CENTER
 62
6
 10
3.35330124E+01
 20
2.06189387E+01
 11
3.35330124E+01
 21
5.13893866E+00
  0
LINE
  8
0
  6
CENTER
 62
6
 10
3.54301240E+00
 20
3.33289387E+01
 11
3.54301240E+00
 21
5.89893866E+00
  0
LINE
  8
0
 62
4
 10
8.04301240E+00
 20
2.18189387E+01
 11
8.04301240E+00
 21
2.83189387E+01
  0
LINE
  8
0
 62
4
 10
-9.56987601E-01
 20
2.18189387E+01
 11
-9.56987601E-01
 21
2.83189387E+01
  0
LINE
  8
0
  6
PHANTOM
 10
2.56327934E+01
 20
1.70489904E+01
 11
2.56327934E+01
 21
3.09712786E+01
  0
LINE
  8
0
  6
PHANTOM
 10
-5.43672066E+01
 20
-7.59172565E-01
 11
-5.43672066E+01
 21
3.15615410E+01
  0
LINE
  8
0
  6
PHANTOM
 10
2.56327934E+01
 20
1.07080470E+01
 11
2.56327934E+01
 21
-7.59172565E-01
  0
LINE
  8
0
  6
PHANTOM
 10
1.84626931E+01
 20
1.07080470E+01
 11
2.56327934E+01
 21
1.07080470E+01
  0
TEXT
  8
0
 62
7
 10
1.14570749E+01
 20
8.91893866E+00
 40
1.50000000E+00
  1
PBTAS10-7
 41
1.00000000E+00
  7
MONOTXT
  0
ARC
  8
0
 62
7
 10
7.04173668E+01
 20
1.33189387E+01
 40
4.62158529E+00
 50
2.90516077E+00
 51
5.13629840E+01
  0
ARC
  8
0
 62
7
 10
-1.93710972E+01
 20
1.33189387E+01
 40
4.59068340E+00
 50
1.82618440E+02
 51
2.31848055E+02
  0
LINE
  8
0
  6
PHANTOM
 10
1.84626931E+01
 20
1.07080470E+01
 11
1.84626931E+01
 21
1.70489904E+01
  0
LINE
  8
0
  6
PHANTOM
 10
1.84626931E+01
 20
1.70489904E+01
 11
2.56327934E+01
 21
1.70489904E+01
  0
ARC
  8
0
 62
7
 10
5.76618312E+01
 20
1.34153070E+01
 40
4.62982188E+00
 50
1.76610532E+02
 51
2.31235644E+02
  0
LINE
  8
0
 62
7
 10
5.30330124E+01
 20
1.36819396E+01
 11
5.30330124E+01
 21
7.31893866E+00
  0
LINE
  8
0
 62
7
 10
3.80330124E+01
 20
7.81893866E+00
 11
5.30330124E+01
 21
7.81893866E+00
  0
LINE
  8
0
 62
7
 10
3.80330124E+01
 20
1.88189387E+01
 11
5.30330124E+01
 21
1.88189387E+01
  0
LINE
  8
0
 62
7
 10
8.04301240E+00
 20
7.81893866E+00
 11
2.90330124E+01
 21
7.81893866E+00
  0
LINE
  8
0
 62
7
 10
1.05430124E+01
 20
1.88189387E+01
 11
2.90330124E+01
 21
1.88189387E+01
  0
LINE
  8
0
 62
4
 10
1.05430124E+01
 20
2.36189387E+01
 11
1.60430124E+01
 21
2.36189387E+01
  0
LINE
  8
0
 62
4
 10
1.05430124E+01
 20
1.96189387E+01
 11
1.60430124E+01
 21
1.96189387E+01
  0
LINE
  8
0
 62
4
 10
-3.45698760E+00
 20
2.14189387E+01
 11
-3.45698760E+00
 21
1.83189387E+01
  0
LINE
  8
0
 62
4
 10
1.05430124E+01
 20
2.14189387E+01
 11
1.05430124E+01
 21
1.83189387E+01
  0
LINE
  8
0
 62
4
 10
-9.56987601E-01
 20
2.18189387E+01
 11
8.04301240E+00
 21
2.18189387E+01
  0
LINE
  8
0
 62
4
 10
8.04301240E+00
 20
2.14189387E+01
 11
1.05430124E+01
 21
2.14189387E+01
  0
LINE
  8
0
 62
4
 10
8.04301240E+00
 20
2.46189387E+01
 11
1.05430124E+01
 21
2.46189387E+01
  0
LINE
  8
0
 62
4
 10
-3.45698761E+00
 20
2.46189387E+01
 11
-9.56987601E-01
 21
2.46189387E+01
  0
LINE
  8
0
 62
4
 10
-3.45698761E+00
 20
2.18189387E+01
 11
-9.56987601E-01
 21
2.18189387E+01
  0
LINE
  8
0
 62
4
 10
-3.45698761E+00
 20
2.14189387E+01
 11
-9.56987601E-01
 21
2.14189387E+01
  0
LINE
  8
0
 62
4
 10
-9.56987610E-01
 20
7.67288599E+00
 11
8.04301239E+00
 21
7.67288599E+00
  0
LINE
  8
0
 62
4
 10
-3.45698760E+00
 20
2.36189387E+01
 11
-7.95698760E+00
 21
2.36189387E+01
  0
LINE
  8
0
 62
4
 10
8.04301240E+00
 20
2.18189387E+01
 11
8.04301240E+00
 21
7.66893866E+00
  0
LINE
  8
0
 62
4
 10
-9.56987601E-01
 20
2.18189387E+01
 11
-9.56987601E-01
 21
7.66893866E+00
  0
LINE
  8
0
 62
4
 10
8.04301240E+00
 20
2.18189387E+01
 11
1.05430124E+01
 21
2.18189387E+01
  0
LINE
  8
0
 62
4
 10
-9.56987601E-01
 20
7.66893866E+00
 11
8.04301240E+00
 21
7.66893866E+00
  0
LINE
  8
0
 62
4
 10
-8.95698760E+00
 20
2.26189387E+01
 11
-8.95698760E+00
 21
2.06189387E+01
  0
LINE
  8
0
 62
4
 10
-7.95698760E+00
 20
1.96189387E+01
 11
-3.45698760E+00
 21
1.96189387E+01
  0
LINE
  8
0
 62
4
 10
-7.95698760E+00
 20
2.36189387E+01
 11
-7.95698760E+00
 21
1.96189387E+01
  0
LINE
  8
0
 62
4
 10
-8.95698760E+00
 20
2.26189387E+01
 11
-7.95698760E+00
 21
2.36189387E+01
  0
LINE
  8
0
 62
4
 10
-8.95698760E+00
 20
2.06189387E+01
 11
-7.95698760E+00
 21
1.96189387E+01
  0
LINE
  8
0
 62
4
 10
1.05430124E+01
 20
2.46189387E+01
 11
1.05430124E+01
 21
2.18189387E+01
  0
LINE
  8
0
 62
4
 10
-3.45698760E+00
 20
2.46189387E+01
 11
-3.45698760E+00
 21
2.18189387E+01
  0
LINE
  8
0
 62
4
 10
-3.45698760E+00
 20
1.83189387E+01
 11
-9.56987601E-01
 21
1.83189387E+01
  0
LINE
  8
0
 62
4
 10
8.04301240E+00
 20
1.83189387E+01
 11
1.05430124E+01
 21
1.83189387E+01
  0
LINE
  8
0
 62
4
 10
1.90430124E+01
 20
2.29189387E+01
 11
2.39800115E+01
 21
2.29189387E+01
  0
LINE
  8
0
 62
4
 10
1.90430124E+01
 20
2.03189387E+01
 11
2.13800115E+01
 21
2.03189387E+01
  0
LINE
  8
0
 62
4
 10
1.60430124E+01
 20
1.96189387E+01
 11
1.90430124E+01
 21
2.03189387E+01
  0
LINE
  8
0
 62
4
 10
1.60430124E+01
 20
2.36189387E+01
 11
1.90430124E+01
 21
2.29189387E+01
  0
LINE
  8
0
 62
4
 10
1.60430124E+01
 20
2.36189387E+01
 11
1.60430124E+01
 21
1.96189387E+01
  0
LINE
  8
0
 62
4
 10
1.90430124E+01
 20
2.29189387E+01
 11
1.90430124E+01
 21
2.03189387E+01
  0
LINE
  8
0
 62
6
 10
2.39800115E+01
 20
2.29189387E+01
 11
2.13800115E+01
 21
2.03189387E+01
  0
LINE
  8
0
 62
4
 10
3.55330124E+01
 20
1.91834176E+01
 11
3.55330124E+01
 21
1.81661336E+01
  0
LINE
  8
0
 62
4
 10
3.80330124E+01
 20
7.66893866E+00
 11
3.80330124E+01
 21
1.91834176E+01
  0
LINE
  8
0
 62
4
 10
2.90330124E+01
 20
7.66893866E+00
 11
2.90330124E+01
 21
1.91834176E+01
  0
LINE
  8
0
 62
4
 10
2.90330124E+01
 20
1.81661336E+01
 11
3.80330124E+01
 21
1.81661336E+01
  0
LINE
  8
0
 62
6
 10
5.39700115E+01
 20
1.46189387E+01
 11
5.13700115E+01
 21
1.20189387E+01
  0
LINE
  8
0
 62
4
 10
4.60330124E+01
 20
1.13189387E+01
 11
4.90330124E+01
 21
1.20189387E+01
  0
LINE
  8
0
 62
4
 10
4.90330124E+01
 20
1.46189387E+01
 11
4.90330124E+01
 21
1.20189387E+01
  0
LINE
  8
0
 62
4
 10
4.90330124E+01
 20
1.20189387E+01
 11
5.13700115E+01
 21
1.20189387E+01
  0
LINE
  8
0
 62
4
 10
4.90330124E+01
 20
1.46189387E+01
 11
5.39700115E+01
 21
1.46189387E+01
  0
LINE
  8
0
 62
4
 10
4.60330124E+01
 20
1.53189387E+01
 11
4.90330124E+01
 21
1.46189387E+01
  0
LINE
  8
0
 62
4
 10
2.90330124E+01
 20
1.76189754E+01
 11
3.80330124E+01
 21
1.76189754E+01
  0
LINE
  8
0
 62
4
 10
2.90330124E+01
 20
9.01893866E+00
 11
3.80330124E+01
 21
9.01893866E+00
  0
LINE
  8
0
 62
4
 10
2.65330124E+01
 20
1.00689387E+01
 11
2.65330124E+01
 21
1.65689387E+01
  0
LINE
  8
0
 62
4
 10
2.90330124E+01
 20
7.66893866E+00
 11
3.80330124E+01
 21
7.66893866E+00
  0
LINE
  8
0
 62
4
 10
3.46430124E+01
 20
1.22189387E+01
 11
3.45930124E+01
 21
1.22589387E+01
  0
LINE
  8
0
 62
4
 10
3.24730124E+01
 20
1.22589387E+01
 11
3.45930124E+01
 21
1.43789387E+01
  0
LINE
  8
0
 62
4
 10
3.45430124E+01
 20
1.23189387E+01
 11
3.24730124E+01
 21
1.43789387E+01
  0
LINE
  8
0
 62
4
 10
4.60330124E+01
 20
1.53189387E+01
 11
4.60330124E+01
 21
1.13189387E+01
  0
LINE
  8
0
 62
4
 10
2.10330124E+01
 20
1.43189387E+01
 11
2.10330124E+01
 21
1.23189387E+01
  0
LINE
  8
0
 62
4
 10
2.20330124E+01
 20
1.13189387E+01
 11
2.65330124E+01
 21
1.13189387E+01
  0
LINE
  8
0
 62
4
 10
2.20330124E+01
 20
1.53189387E+01
 11
2.65330124E+01
 21
1.53189387E+01
  0
LINE
  8
0
 62
4
 10
2.20330124E+01
 20
1.53189387E+01
 11
2.20330124E+01
 21
1.13189387E+01
  0
LINE
  8
0
 62
4
 10
2.10330124E+01
 20
1.43189387E+01
 11
2.20330124E+01
 21
1.53189387E+01
  0
LINE
  8
0
 62
4
 10
2.10330124E+01
 20
1.23189387E+01
 11
2.20330124E+01
 21
1.13189387E+01
  0
LINE
  8
0
 62
4
 10
2.65330124E+01
 20
1.00689387E+01
 11
2.90330124E+01
 21
1.00689387E+01
  0
LINE
  8
0
 62
4
 10
2.65330124E+01
 20
1.65689387E+01
 11
2.90330124E+01
 21
1.65689387E+01
  0
LINE
  8
0
 62
4
 10
4.05330124E+01
 20
1.00689387E+01
 11
4.05330124E+01
 21
1.65689387E+01
  0
LINE
  8
0
 62
4
 10
3.80330124E+01
 20
1.65689387E+01
 11
4.05330124E+01
 21
1.65689387E+01
  0
LINE
  8
0
 62
4
 10
3.80330124E+01
 20
1.00689387E+01
 11
4.05330124E+01
 21
1.00689387E+01
  0
LINE
  8
0
 62
4
 10
4.05330124E+01
 20
1.53189387E+01
 11
4.60330124E+01
 21
1.53189387E+01
  0
LINE
  8
0
 62
4
 10
4.05330124E+01
 20
1.13189387E+01
 11
4.60330124E+01
 21
1.13189387E+01
  0
CIRCLE
  8
0
 62
4
 10
3.35321372E+01
 20
1.33164802E+01
 40
2.50000000E+00
  0
LINE
  8
0
 62
4
 10
3.15330124E+01
 20
1.84189387E+01
 11
3.55330124E+01
 21
1.84189387E+01
  0
LINE
  8
0
 62
4
 10
2.90330124E+01
 20
1.91834176E+01
 11
3.80330124E+01
 21
1.91834176E+01
  0
LINE
  8
0
 62
4
 10
3.15330124E+01
 20
1.81661336E+01
 11
3.15330124E+01
 21
1.91834176E+01
  0
LINE
  8
0
 62
7
 10
-1.09569876E+01
 20
1.88189387E+01
 11
-3.45698760E+00
 21
1.88189387E+01
  0
LINE
  8
0
 62
7
 10
-1.09569876E+01
 20
7.81893866E+00
 11
-9.56987601E-01
 21
7.81893866E+00
  0
ARC
  8
0
 62
7
 10
7.04173668E+01
 20
1.33189387E+01
 40
4.62158529E+00
 50
3.08637016E+02
 51
3.57094839E+02
  0
CIRCLE
  8
0
 62
7
 10
7.00395914E+01
 20
1.33239389E+01
 40
1.59999943E+00
  0
LINE
  8
0
 62
7
 10
7.33030124E+01
 20
9.70893866E+00
 11
7.33030124E+01
 21
7.31893866E+00
  0
LINE
  8
0
 62
7
 10
7.33030124E+01
 20
1.93189387E+01
 11
7.33030124E+01
 21
1.69289387E+01
  0
LINE
  8
0
 62
7
 10
5.30330124E+01
 20
7.31893866E+00
 11
7.50330124E+01
 21
7.31893866E+00
  0
LINE
  8
0
 62
7
 10
5.47630124E+01
 20
9.70893866E+00
 11
7.33030124E+01
 21
9.70893866E+00
  0
LINE
  8
0
 62
7
 10
5.47630124E+01
 20
1.69289387E+01
 11
7.33030124E+01
 21
1.69289387E+01
  0
LINE
  8
0
 62
7
 10
5.30330124E+01
 20
1.93189387E+01
 11
7.50330124E+01
 21
1.93189387E+01
  0
LINE
  8
0
  6
CENTER
 62
2
 10
7.00330124E+01
 20
1.69289387E+01
 11
7.00330124E+01
 21
9.70893866E+00
  0
LINE
  8
0
 62
7
 10
7.50330124E+01
 20
1.93189387E+01
 11
7.50330124E+01
 21
7.31893866E+00
  0
LINE
  8
0
 62
7
 10
5.30330124E+01
 20
1.93189387E+01
 11
5.30330124E+01
 21
1.46189387E+01
  0
LINE
  8
0
 62
7
 10
5.47630124E+01
 20
1.93189387E+01
 11
5.47630124E+01
 21
1.70253070E+01
  0
ARC
  8
0
 62
7
 10
5.76618312E+01
 20
1.34153070E+01
 40
4.62982188E+00
 50
1.28764356E+02
 51
1.64931501E+02
  0
LINE
  8
0
 62
7
 10
5.47630124E+01
 20
9.80530698E+00
 11
5.47630124E+01
 21
7.41530698E+00
  0
LINE
  8
0
  6
CENTER
 62
2
 10
5.75330124E+01
 20
2.13189387E+01
 11
5.75330124E+01
 21
1.69289387E+01
  0
LINE
  8
0
 62
2
 10
-3.18334876E+01
 20
9.99543866E+00
 11
-2.54569876E+01
 21
9.99543866E+00
  0
LINE
  8
0
 62
7
 10
-3.19569876E+01
 20
1.01189387E+01
 11
-3.11569876E+01
 21
9.31893866E+00
  0
LINE
  8
0
 62
7
 10
-3.11569876E+01
 20
9.31893866E+00
 11
-2.39569876E+01
 21
9.31893866E+00
  0
LINE
  8
0
 62
2
 10
-3.18334876E+01
 20
1.66424387E+01
 11
-2.54569876E+01
 21
1.66424387E+01
  0
LINE
  8
0
 62
7
 10
-2.54569876E+01
 20
1.73189387E+01
 11
-2.54569876E+01
 21
9.31893866E+00
  0
LINE
  8
0
 62
7
 10
-3.19569876E+01
 20
1.65189387E+01
 11
-3.19569876E+01
 21
1.01189387E+01
  0
LINE
  8
0
 62
7
 10
-3.11569876E+01
 20
1.73189387E+01
 11
-3.19569876E+01
 21
1.65189387E+01
  0
LINE
  8
0
 62
7
 10
-3.11569876E+01
 20
1.73189387E+01
 11
-2.39569876E+01
 21
1.73189387E+01
  0
LINE
  8
0
 62
7
 10
-3.11569876E+01
 20
1.73189387E+01
 11
-3.11569876E+01
 21
9.31893866E+00
  0
LINE
  8
0
 62
4
 10
-7.70069876E+01
 20
9.27893866E+00
 11
-7.45469876E+01
 21
9.27893866E+00
  0
LINE
  8
0
 62
2
 10
-8.16359876E+01
 20
1.49399387E+01
 11
-7.73769876E+01
 21
1.49399387E+01
  0
LINE
  8
0
 62
2
 10
-8.16359876E+01
 20
1.16979387E+01
 11
-7.73769876E+01
 21
1.16979387E+01
  0
LINE
  8
0
 62
2
 10
-7.41769876E+01
 20
1.49399387E+01
 11
-6.69569876E+01
 21
1.49399387E+01
  0
LINE
  8
0
 62
2
 10
-7.41769876E+01
 20
1.16979387E+01
 11
-6.69569876E+01
 21
1.16979387E+01
  0
ARC
  8
0
 62
4
 10
-7.57471303E+01
 20
1.63489387E+01
 40
1.56857977E+00
 50
3.19917155E+02
 51
4.00828448E+01
  0
ARC
  8
0
 62
4
 10
-7.98818126E+01
 20
1.33189387E+01
 40
5.70445074E+00
 50
3.39261125E+02
 51
2.07388754E+01
  0
ARC
  8
0
 62
4
 10
-7.16856263E+01
 20
1.33189387E+01
 40
5.69186140E+00
 50
1.59213132E+02
 51
2.00786868E+02
  0
ARC
  8
0
 62
4
 10
-7.58203086E+01
 20
1.63489387E+01
 40
1.55830259E+00
 50
1.39598403E+02
 51
2.20401597E+02
  0
LINE
  8
0
 62
4
 10
-7.45469876E+01
 20
1.73589387E+01
 11
-7.41769876E+01
 21
1.67189387E+01
  0
LINE
  8
0
 62
4
 10
-7.73769876E+01
 20
1.67189387E+01
 11
-7.70069876E+01
 21
1.73589387E+01
  0
LINE
  8
0
 62
4
 10
-7.70069876E+01
 20
1.12989387E+01
 11
-7.45469876E+01
 21
1.12989387E+01
  0
LINE
  8
0
 62
4
 10
-7.70069876E+01
 20
1.53389387E+01
 11
-7.45469876E+01
 21
1.53389387E+01
  0
LINE
  8
0
 62
4
 10
-7.70069876E+01
 20
1.73589387E+01
 11
-7.45469876E+01
 21
1.73589387E+01
  0
LINE
  8
0
 62
4
 10
-7.41769876E+01
 20
1.67189387E+01
 11
-7.41769876E+01
 21
9.91893866E+00
  0
LINE
  8
0
 62
4
 10
-7.73769876E+01
 20
1.67189387E+01
 11
-7.73769876E+01
 21
9.91893866E+00
  0
LINE
  8
0
 62
7
 10
-8.12569876E+01
 20
1.53189387E+01
 11
-8.12569876E+01
 21
1.13189387E+01
  0
LINE
  8
0
 62
7
 10
-8.19569876E+01
 20
1.20189387E+01
 11
-8.12569876E+01
 21
1.13189387E+01
  0
LINE
  8
0
 62
7
 10
-8.12569876E+01
 20
1.53189387E+01
 11
-8.19569876E+01
 21
1.46189387E+01
  0
LINE
  8
0
 62
7
 10
-8.12569876E+01
 20
1.13189387E+01
 11
-7.73769876E+01
 21
1.13189387E+01
  0
LINE
  8
0
 62
7
 10
-8.12569876E+01
 20
1.53189387E+01
 11
-7.73769876E+01
 21
1.53189387E+01
  0
LINE
  8
0
 62
7
 10
-6.69569876E+01
 20
1.53189387E+01
 11
-6.69569876E+01
 21
1.13189387E+01
  0
LINE
  8
0
 62
7
 10
-8.19569876E+01
 20
1.46189387E+01
 11
-8.19569876E+01
 21
1.20189387E+01
  0
LINE
  8
0
 62
7
 10
-7.41769876E+01
 20
1.53189387E+01
 11
-3.19569876E+01
 21
1.53189387E+01
  0
LINE
  8
0
 62
7
 10
-7.41769876E+01
 20
1.13189387E+01
 11
-3.19569876E+01
 21
1.13189387E+01
  0
LINE
  8
0
 62
4
 10
-7.73769876E+01
 20
9.91893866E+00
 11
-7.70069876E+01
 21
9.27893866E+00
  0
LINE
  8
0
 62
4
 10
-7.45469876E+01
 20
9.27893866E+00
 11
-7.41769876E+01
 21
9.91893866E+00
  0
ARC
  8
0
 62
4
 10
-7.58203139E+01
 20
1.02889387E+01
 40
1.55829855E+00
 50
1.39598276E+02
 51
2.20401723E+02
  0
ARC
  8
0
 62
4
 10
-7.57471250E+01
 20
1.02889387E+01
 40
1.56857572E+00
 50
3.19917031E+02
 51
4.00829695E+01
  0
LINE
  8
0
  6
CENTER
 62
2
 10
-8.38787461E+01
 20
1.33189387E+01
 11
7.69560484E+01
 21
1.33189387E+01
  0
LINE
  8
0
 62
7
 10
-1.09569876E+01
 20
1.93189387E+01
 11
-1.09569876E+01
 21
7.31893866E+00
  0
LINE
  8
0
 62
7
 10
-2.39569876E+01
 20
1.93189387E+01
 11
-1.09569876E+01
 21
1.93189387E+01
  0
LINE
  8
0
 62
7
 10
-2.39569876E+01
 20
7.31893866E+00
 11
-1.09569876E+01
 21
7.31893866E+00
  0
LINE
  8
0
 62
7
 10
-2.39569876E+01
 20
1.93189387E+01
 11
-2.39569876E+01
 21
7.31893866E+00
  0
LINE
  8
0
 62
7
 10
-2.22069876E+01
 20
1.69289387E+01
 11
-1.27069876E+01
 21
1.69289387E+01
  0
LINE
  8
0
 62
7
 10
-2.22069876E+01
 20
9.70893866E+00
 11
-1.27069876E+01
 21
9.70893866E+00
  0
LINE
  8
0
  6
CENTER
 62
2
 10
-1.54569876E+01
 20
2.13189387E+01
 11
-1.54569876E+01
 21
1.69289387E+01
  0
LINE
  8
0
 62
7
 10
-2.22069876E+01
 20
1.93189387E+01
 11
-2.22069876E+01
 21
1.69289387E+01
  0
LINE
  8
0
 62
7
 10
-1.27069876E+01
 20
1.93189387E+01
 11
-1.27069876E+01
 21
1.69289387E+01
  0
LINE
  8
0
 62
7
 10
-2.22069876E+01
 20
9.70893866E+00
 11
-2.22069876E+01
 21
7.31893866E+00
  0
LINE
  8
0
 62
7
 10
-1.27069876E+01
 20
9.70893866E+00
 11
-1.27069876E+01
 21
7.31893866E+00
  0
ARC
  8
0
 62
7
 10
-1.93710972E+01
 20
1.33189387E+01
 40
4.59068340E+00
 50
1.28151945E+02
 51
1.77381560E+02
  0
ARC
  8
0
 62
7
 10
-1.55496742E+01
 20
1.33189387E+01
 40
4.59488490E+00
 50
3.08218586E+02
 51
5.17814134E+01
  0
LINE
  8
0
 62
6
 10
2.31301240E+00
 20
2.93189387E+01
 11
2.31301240E+00
 21
2.83189387E+01
  0
LINE
  8
0
 62
6
 10
4.77301240E+00
 20
2.93189387E+01
 11
4.77301240E+00
 21
2.83189387E+01
  0
LINE
  8
0
 62
4
 10
2.04301240E+00
 20
2.93189387E+01
 11
2.04301240E+00
 21
2.83189387E+01
  0
LINE
  8
0
 62
4
 10
5.04301240E+00
 20
2.93189387E+01
 11
5.04301240E+00
 21
2.83189387E+01
  0
LINE
  8
0
 62
4
 10
-9.56987601E-01
 20
2.83189387E+01
 11
8.04301240E+00
 21
2.83189387E+01
  0
LINE
  8
0
 62
4
 10
1.04301240E+00
 20
2.93189387E+01
 11
6.04301240E+00
 21
2.93189387E+01
  0
LINE
  8
0
 62
4
 10
2.04301240E+00
 20
3.08189387E+01
 11
5.04301240E+00
 21
3.08189387E+01
  0
LINE
  8
0
 62
4
 10
6.04301240E+00
 20
2.98189387E+01
 11
6.04301240E+00
 21
2.93189387E+01
  0
LINE
  8
0
 62
4
 10
1.04301240E+00
 20
2.98189387E+01
 11
1.04301240E+00
 21
2.93189387E+01
  0
ARC
  8
0
 62
4
 10
2.04380389E+00
 20
2.98181472E+01
 40
1.00079180E+00
 50
9.00000002E+01
 51
1.79954687E+02
  0
ARC
  8
0
 62
4
 10
5.04134674E+00
 20
2.98172730E+01
 40
1.00166704E+00
 50
9.52762946E-02
 51
8.99047236E+01
  0
LINE
  8
0
  6
CENTER
 62
2
 10
-1.09956988E+02
 20
3.25649423E+01
 11
-1.09956988E+02
 21
5.31893866E+00
  0
LINE
  8
0
 62
4
 10
-1.03656988E+02
 20
1.53689387E+01
 11
-1.02656988E+02
 21
1.43689387E+01
  0
LINE
  8
0
 62
4
 10
-1.00656988E+02
 20
1.22689387E+01
 11
-1.02656988E+02
 21
1.22689387E+01
  0
LINE
  8
0
 62
4
 10
-1.02656988E+02
 20
1.22689387E+01
 11
-1.03656988E+02
 21
1.12689387E+01
  0
LINE
  8
0
 62
4
 10
-9.96569876E+01
 20
1.12689387E+01
 11
-1.00656988E+02
 21
1.22689387E+01
  0
LINE
  8
0
 62
4
 10
-1.02656988E+02
 20
1.22689387E+01
 11
-1.02656988E+02
 21
1.43689387E+01
  0
LINE
  8
0
 62
4
 10
-9.96569876E+01
 20
1.53689387E+01
 11
-1.00656988E+02
 21
1.43689387E+01
  0
LINE
  8
0
 62
4
 10
-1.00656988E+02
 20
1.22689387E+01
 11
-1.00656988E+02
 21
1.43689387E+01
  0
LINE
  8
0
 62
4
 10
-1.00656988E+02
 20
1.43689387E+01
 11
-1.02656988E+02
 21
1.43689387E+01
  0
LINE
  8
0
 62
4
 10
-1.08906988E+02
 20
2.06189387E+01
 11
-1.07906988E+02
 21
1.96189387E+01
  0
LINE
  8
0
 62
4
 10
-1.12006988E+02
 20
1.96189387E+01
 11
-1.11006988E+02
 21
2.06189387E+01
  0
LINE
  8
0
 62
4
 10
-1.07906988E+02
 20
2.36189387E+01
 11
-1.08906988E+02
 21
2.26189387E+01
  0
LINE
  8
0
 62
4
 10
-1.12006988E+02
 20
2.36189387E+01
 11
-1.11006988E+02
 21
2.26189387E+01
  0
LINE
  8
0
 62
4
 10
-1.08906988E+02
 20
2.26189387E+01
 11
-1.11006988E+02
 21
2.26189387E+01
  0
LINE
  8
0
 62
4
 10
-1.08906988E+02
 20
2.06189387E+01
 11
-1.11006988E+02
 21
2.06189387E+01
  0
LINE
  8
0
 62
4
 10
-1.08906988E+02
 20
2.26189387E+01
 11
-1.08906988E+02
 21
2.06189387E+01
  0
LINE
  8
0
 62
4
 10
-1.11006988E+02
 20
2.26189387E+01
 11
-1.11006988E+02
 21
2.06189387E+01
  0
LINE
  8
0
 62
4
 10
-1.03656988E+02
 20
1.12689387E+01
 11
-1.03656988E+02
 21
1.53689387E+01
  0
LINE
  8
0
 62
4
 10
-1.03656988E+02
 20
1.23189387E+01
 11
-1.03956988E+02
 21
1.23189387E+01
  0
LINE
  8
0
 62
4
 10
-1.03656988E+02
 20
1.43189387E+01
 11
-1.03956988E+02
 21
1.43189387E+01
  0
ARC
  8
0
 62
4
 10
-9.34493609E+01
 20
1.48265654E+01
 40
9.92402587E-01
 50
3.59559672E+02
 51
9.04403286E+01
  0
ARC
  8
0
 62
4
 10
-9.34571172E+01
 20
1.18190682E+01
 40
1.00012957E+00
 50
2.70000000E+02
 51
3.59992577E+02
  0
ARC
  8
0
 62
4
 10
-9.57493624E+01
 20
1.68265639E+01
 40
7.92411497E-01
 50
3.59448647E+02
 51
9.05513523E+01
  0
ARC
  8
0
 62
4
 10
-9.57571259E+01
 20
9.81907701E+00
 40
8.00138358E-01
 50
2.70000000E+02
 51
3.59990093E+02
  0
ARC
  8
0
 62
4
 10
-9.62493624E+01
 20
1.63265639E+01
 40
4.92433852E-01
 50
3.59112757E+02
 51
9.08872431E+01
  0
ARC
  8
0
 62
4
 10
-9.62571478E+01
 20
1.03190988E+01
 40
5.00160181E-01
 50
2.70000000E+02
 51
3.59981653E+02
  0
LINE
  8
0
 62
4
 10
-9.64569876E+01
 20
1.48189387E+01
 11
-9.76569876E+01
 21
1.48189387E+01
  0
LINE
  8
0
 62
6
 10
-9.64569876E+01
 20
1.45489387E+01
 11
-9.79269876E+01
 21
1.45489387E+01
  0
LINE
  8
0
 62
6
 10
-9.64569876E+01
 20
1.20889387E+01
 11
-9.79269876E+01
 21
1.20889387E+01
  0
LINE
  8
0
 62
4
 10
-9.64569876E+01
 20
1.18189387E+01
 11
-9.76569876E+01
 21
1.18189387E+01
  0
LINE
  8
0
 62
4
 10
-9.24569876E+01
 20
1.18189387E+01
 11
-9.24569876E+01
 21
1.48189387E+01
  0
LINE
  8
0
 62
4
 10
-9.34569876E+01
 20
1.08189387E+01
 11
-9.39569876E+01
 21
1.08189387E+01
  0
LINE
  8
0
 62
4
 10
-9.34569876E+01
 20
1.58189387E+01
 11
-9.39569876E+01
 21
1.58189387E+01
  0
LINE
  8
0
 62
6
 10
-9.39569876E+01
 20
1.20889387E+01
 11
-9.49569876E+01
 21
1.20889387E+01
  0
LINE
  8
0
 62
6
 10
-9.39569876E+01
 20
1.45489387E+01
 11
-9.49569876E+01
 21
1.45489387E+01
  0
LINE
  8
0
 62
4
 10
-9.39569876E+01
 20
1.48189387E+01
 11
-9.49569876E+01
 21
1.48189387E+01
  0
LINE
  8
0
 62
4
 10
-9.39569876E+01
 20
1.18189387E+01
 11
-9.49569876E+01
 21
1.18189387E+01
  0
LINE
  8
0
 62
4
 10
-9.94663938E+01
 20
1.84768305E+01
 11
-9.90269876E+01
 21
1.92189387E+01
  0
LINE
  8
0
 62
4
 10
-9.85855549E+01
 20
1.83910877E+01
 11
-9.85669876E+01
 21
1.84189387E+01
  0
LINE
  8
0
 62
4
 10
-9.62569876E+01
 20
9.81893866E+00
 11
-9.62569876E+01
 21
9.96893866E+00
  0
LINE
  8
0
 62
4
 10
-9.62569876E+01
 20
9.96893866E+00
 11
-1.01456988E+02
 21
9.96893866E+00
  0
LINE
  8
0
 62
4
 10
-9.90269876E+01
 20
1.76189387E+01
 11
-9.88621487E+01
 21
1.79156487E+01
  0
LINE
  8
0
 62
4
 10
-9.66569876E+01
 20
1.84189387E+01
 11
-9.85669876E+01
 21
1.84189387E+01
  0
LINE
  8
0
 62
4
 10
-9.66569876E+01
 20
1.84189387E+01
 11
-9.66569876E+01
 21
1.92189387E+01
  0
LINE
  8
0
 62
4
 10
-9.66569876E+01
 20
1.92189387E+01
 11
-9.90269876E+01
 21
1.92189387E+01
  0
LINE
  8
0
 62
4
 10
-9.99569876E+01
 20
1.76189387E+01
 11
-9.97343790E+01
 21
1.80005534E+01
  0
LINE
  8
0
 62
4
 10
-1.02156988E+02
 20
1.68189387E+01
 11
-1.02156988E+02
 21
1.76189387E+01
  0
LINE
  8
0
 62
4
 10
-1.01456988E+02
 20
9.01893866E+00
 11
-1.01456988E+02
 21
9.81893866E+00
  0
LINE
  8
0
 62
4
 10
-9.57569876E+01
 20
1.12589387E+01
 11
-9.64569876E+01
 21
1.13189387E+01
  0
LINE
  8
0
 62
4
 10
-9.57569876E+01
 20
1.53789387E+01
 11
-9.64569876E+01
 21
1.53189387E+01
  0
LINE
  8
0
 62
4
 10
-9.57569876E+01
 20
9.01893866E+00
 11
-1.01456988E+02
 21
9.01893866E+00
  0
LINE
  8
0
 62
4
 10
-9.57569876E+01
 20
1.76189387E+01
 11
-1.02156988E+02
 21
1.76189387E+01
  0
LINE
  8
0
 62
4
 10
-9.57569876E+01
 20
1.03189387E+01
 11
-9.57569876E+01
 21
1.63189387E+01
  0
LINE
  8
0
 62
4
 10
-9.64569876E+01
 20
1.13189387E+01
 11
-9.64569876E+01
 21
1.53189387E+01
  0
LINE
  8
0
 62
4
 10
-9.49569876E+01
 20
9.81893866E+00
 11
-9.49569876E+01
 21
1.68189387E+01
  0
LINE
  8
0
 62
4
 10
-9.39569876E+01
 20
1.08189387E+01
 11
-9.39569876E+01
 21
1.58189387E+01
  0
LINE
  8
0
 62
4
 10
-9.62569876E+01
 20
9.81893866E+00
 11
-1.01456988E+02
 21
9.81893866E+00
  0
LINE
  8
0
 62
4
 10
-9.62569876E+01
 20
1.68189387E+01
 11
-1.02156988E+02
 21
1.68189387E+01
  0
LINE
  8
0
 62
4
 10
-1.01456988E+02
 20
1.00689387E+01
 11
-1.01456988E+02
 21
1.12689387E+01
  0
LINE
  8
0
 62
4
 10
-1.01856988E+02
 20
1.00689387E+01
 11
-1.01856988E+02
 21
1.12689387E+01
  0
LINE
  8
0
 62
4
 10
-9.86569876E+01
 20
1.00689387E+01
 11
-9.86569876E+01
 21
1.65689387E+01
  0
LINE
  8
0
 62
4
 10
-9.93569876E+01
 20
1.23189387E+01
 11
-9.93569876E+01
 21
1.43189387E+01
  0
LINE
  8
0
 62
4
 10
-9.93569876E+01
 20
1.43189387E+01
 11
-9.96569876E+01
 21
1.43189387E+01
  0
LINE
  8
0
 62
4
 10
-9.93569876E+01
 20
1.23189387E+01
 11
-9.96569876E+01
 21
1.23189387E+01
  0
LINE
  8
0
 62
4
 10
-9.96569876E+01
 20
1.12689387E+01
 11
-9.96569876E+01
 21
1.53689387E+01
  0
LINE
  8
0
 62
4
 10
-9.79569876E+01
 20
1.00689387E+01
 11
-9.79569876E+01
 21
1.65689387E+01
  0
LINE
  8
0
 62
4
 10
-9.79569876E+01
 20
1.00689387E+01
 11
-1.01456988E+02
 21
1.00689387E+01
  0
LINE
  8
0
 62
4
 10
-1.02806988E+02
 20
1.81489387E+01
 11
-1.02792455E+02
 21
1.82982330E+01
  0
LINE
  8
0
 62
4
 10
-9.63230332E+01
 20
1.76684858E+01
 11
-9.62745911E+01
 21
1.81661336E+01
  0
LINE
  8
0
 62
4
 10
-9.76569876E+01
 20
1.48189387E+01
 11
-9.79569876E+01
 21
1.45189387E+01
  0
LINE
  8
0
 62
4
 10
-9.76569876E+01
 20
1.18189387E+01
 11
-9.79569876E+01
 21
1.21189387E+01
  0
LINE
  8
0
 62
4
 10
-9.62745911E+01
 20
1.81661336E+01
 11
-1.06028620E+02
 21
1.91156115E+01
  0
LINE
  8
0
 62
4
 10
-9.63230332E+01
 20
1.76684858E+01
 11
-1.05292274E+02
 21
1.85415707E+01
  0
LINE
  8
0
 62
4
 10
-1.02806988E+02
 20
1.81489387E+01
 11
-1.05110278E+02
 21
1.83731458E+01
  0
LINE
  8
0
 62
4
 10
-1.01456988E+02
 20
9.81893866E+00
 11
-1.04463980E+02
 21
8.98245039E+00
  0
LINE
  8
0
 62
4
 10
-1.01456988E+02
 20
9.96893866E+00
 11
-1.04317336E+02
 21
9.17556215E+00
  0
LINE
  8
0
 62
4
 10
-9.79569876E+01
 20
1.65689387E+01
 11
-1.03956988E+02
 21
1.65689387E+01
  0
LINE
  8
0
 62
4
 10
-9.96569876E+01
 20
1.53689387E+01
 11
-1.03656988E+02
 21
1.53689387E+01
  0
LINE
  8
0
 62
4
 10
-1.01856988E+02
 20
1.00689387E+01
 11
-1.03956988E+02
 21
1.00689387E+01
  0
LINE
  8
0
 62
4
 10
-9.96569876E+01
 20
1.12689387E+01
 11
-1.03656988E+02
 21
1.12689387E+01
  0
LINE
  8
0
 62
4
 10
-1.08456988E+02
 20
2.56189387E+01
 11
-1.08756988E+02
 21
2.53189387E+01
  0
LINE
  8
0
 62
4
 10
-1.11456988E+02
 20
2.56189387E+01
 11
-1.11156988E+02
 21
2.53189387E+01
  0
LINE
  8
0
 62
4
 10
-1.14306535E+02
 20
2.69528931E+01
 11
-1.14804183E+02
 21
2.70013352E+01
  0
LINE
  8
0
 62
4
 10
-1.14804183E+02
 20
2.70013352E+01
 11
-1.15753660E+02
 21
1.72473059E+01
  0
LINE
  8
0
 62
4
 10
-1.14786988E+02
 20
2.04689387E+01
 11
-1.14936282E+02
 21
2.04834713E+01
  0
LINE
  8
0
 62
4
 10
-1.14306535E+02
 20
2.69528931E+01
 11
-1.15179620E+02
 21
1.79836524E+01
  0
LINE
  8
0
 62
4
 10
-1.14786988E+02
 20
2.04689387E+01
 11
-1.15011195E+02
 21
1.81656481E+01
  0
LINE
  8
0
 62
4
 10
-1.06456988E+02
 20
2.18189387E+01
 11
-1.05695965E+02
 21
1.90832302E+01
  0
LINE
  8
0
 62
4
 10
-1.06606988E+02
 20
2.18189387E+01
 11
-1.05852406E+02
 21
1.90984585E+01
  0
LINE
  8
0
 62
4
 10
-1.13206988E+02
 20
2.53189387E+01
 11
-1.13206988E+02
 21
1.93189387E+01
  0
LINE
  8
0
 62
4
 10
-1.06706988E+02
 20
2.53189387E+01
 11
-1.06706988E+02
 21
2.18189387E+01
  0
LINE
  8
0
 62
4
 10
-1.06706988E+02
 20
2.53189387E+01
 11
-1.13206988E+02
 21
2.53189387E+01
  0
LINE
  8
0
 62
4
 10
-1.07906988E+02
 20
1.96189387E+01
 11
-1.12006988E+02
 21
1.96189387E+01
  0
LINE
  8
0
 62
4
 10
-1.12006988E+02
 20
2.36189387E+01
 11
-1.12006988E+02
 21
1.96189387E+01
  0
LINE
  8
0
 62
4
 10
-1.07906988E+02
 20
2.36189387E+01
 11
-1.12006988E+02
 21
2.36189387E+01
  0
LINE
  8
0
 62
4
 10
-1.08956988E+02
 20
2.39189387E+01
 11
-1.08956988E+02
 21
2.36189387E+01
  0
LINE
  8
0
 62
4
 10
-1.10956988E+02
 20
2.39189387E+01
 11
-1.10956988E+02
 21
2.36189387E+01
  0
LINE
  8
0
 62
4
 10
-1.08956988E+02
 20
2.39189387E+01
 11
-1.10956988E+02
 21
2.39189387E+01
  0
LINE
  8
0
 62
4
 10
-1.08956988E+02
 20
1.96189387E+01
 11
-1.08956988E+02
 21
1.93189387E+01
  0
LINE
  8
0
 62
4
 10
-1.10956988E+02
 20
1.96189387E+01
 11
-1.10956988E+02
 21
1.93189387E+01
  0
LINE
  8
0
 62
4
 10
-1.06706988E+02
 20
2.46189387E+01
 11
-1.13206988E+02
 21
2.46189387E+01
  0
LINE
  8
0
 62
4
 10
-1.06706988E+02
 20
2.14189387E+01
 11
-1.07906988E+02
 21
2.14189387E+01
  0
LINE
  8
0
 62
4
 10
-1.06706988E+02
 20
2.18189387E+01
 11
-1.07906988E+02
 21
2.18189387E+01
  0
LINE
  8
0
 62
4
 10
-1.06706988E+02
 20
2.14189387E+01
 11
-1.06706988E+02
 21
1.93189387E+01
  0
LINE
  8
0
 62
4
 10
-1.07906988E+02
 20
2.36189387E+01
 11
-1.07906988E+02
 21
1.96189387E+01
  0
LINE
  8
0
 62
4
 10
-1.13456988E+02
 20
2.70189387E+01
 11
-1.13456988E+02
 21
2.11189387E+01
  0
LINE
  8
0
 62
4
 10
-1.06456988E+02
 20
2.70189387E+01
 11
-1.06456988E+02
 21
2.18189387E+01
  0
LINE
  8
0
 62
4
 10
-1.07456988E+02
 20
2.93189387E+01
 11
-1.12456988E+02
 21
2.93189387E+01
  0
LINE
  8
0
 62
4
 10
-1.06456988E+02
 20
2.83189387E+01
 11
-1.13456988E+02
 21
2.83189387E+01
  0
LINE
  8
0
 62
4
 10
-1.07956988E+02
 20
2.68189387E+01
 11
-1.11956988E+02
 21
2.68189387E+01
  0
LINE
  8
0
 62
4
 10
-1.06956988E+02
 20
2.75189387E+01
 11
-1.12956988E+02
 21
2.75189387E+01
  0
LINE
  8
0
 62
4
 10
-1.14256988E+02
 20
2.75189387E+01
 11
-1.14256988E+02
 21
2.11189387E+01
  0
LINE
  8
0
 62
4
 10
-1.05656988E+02
 20
2.75189387E+01
 11
-1.05656988E+02
 21
2.18189387E+01
  0
LINE
  8
0
 62
4
 10
-1.12016988E+02
 20
2.75189387E+01
 11
-1.11956988E+02
 21
2.68189387E+01
  0
LINE
  8
0
 62
4
 10
-1.07896988E+02
 20
2.75189387E+01
 11
-1.07956988E+02
 21
2.68189387E+01
  0
LINE
  8
0
 62
4
 10
-1.05656988E+02
 20
2.18189387E+01
 11
-1.06456988E+02
 21
2.18189387E+01
  0
LINE
  8
0
 62
4
 10
-1.13456988E+02
 20
2.11189387E+01
 11
-1.14256988E+02
 21
2.11189387E+01
  0
LINE
  8
0
 62
4
 10
-1.14256988E+02
 20
2.33189387E+01
 11
-1.14638602E+02
 21
2.35415473E+01
  0
LINE
  8
0
 62
4
 10
-1.15856988E+02
 20
2.66189387E+01
 11
-1.15856988E+02
 21
2.42489387E+01
  0
LINE
  8
0
 62
4
 10
-1.15056988E+02
 20
2.66189387E+01
 11
-1.15856988E+02
 21
2.66189387E+01
  0
LINE
  8
0
 62
4
 10
-1.15056988E+02
 20
2.66189387E+01
 11
-1.15056988E+02
 21
2.47089387E+01
  0
LINE
  8
0
 62
4
 10
-1.14256988E+02
 20
2.42489387E+01
 11
-1.14553698E+02
 21
2.44137776E+01
  0
LINE
  8
0
 62
4
 10
-1.06606988E+02
 20
2.70189387E+01
 11
-1.06606988E+02
 21
2.18189387E+01
  0
LINE
  8
0
 62
4
 10
-1.06456988E+02
 20
2.70189387E+01
 11
-1.06606988E+02
 21
2.70189387E+01
  0
LINE
  8
0
 62
4
 10
-1.15029137E+02
 20
2.46903714E+01
 11
-1.15056988E+02
 21
2.47089387E+01
  0
LINE
  8
0
 62
4
 10
-1.15114879E+02
 20
2.38095325E+01
 11
-1.15856988E+02
 21
2.42489387E+01
  0
LINE
  8
0
 62
4
 10
-1.08456988E+02
 20
2.93189387E+01
 11
-1.08456988E+02
 21
2.83189387E+01
  0
LINE
  8
0
 62
4
 10
-1.11456988E+02
 20
2.93189387E+01
 11
-1.11456988E+02
 21
2.83189387E+01
  0
LINE
  8
0
 62
6
 10
-1.11186988E+02
 20
2.93189387E+01
 11
-1.11186988E+02
 21
2.83189387E+01
  0
LINE
  8
0
 62
6
 10
-1.08726988E+02
 20
2.93189387E+01
 11
-1.08726988E+02
 21
2.83189387E+01
  0
LINE
  8
0
 62
4
 10
-1.12456988E+02
 20
2.98189387E+01
 11
-1.12456988E+02
 21
2.93189387E+01
  0
LINE
  8
0
 62
4
 10
-1.07456988E+02
 20
2.98189387E+01
 11
-1.07456988E+02
 21
2.93189387E+01
  0
LINE
  8
0
 62
4
 10
-1.08456988E+02
 20
3.08189387E+01
 11
-1.11456988E+02
 21
3.08189387E+01
  0
LINE
  8
0
 62
4
 10
-1.08456988E+02
 20
2.68189387E+01
 11
-1.08456988E+02
 21
2.56189387E+01
  0
LINE
  8
0
 62
6
 10
-1.08726988E+02
 20
2.68189387E+01
 11
-1.08726988E+02
 21
2.53489387E+01
  0
LINE
  8
0
 62
6
 10
-1.11186988E+02
 20
2.68189387E+01
 11
-1.11186988E+02
 21
2.53489387E+01
  0
LINE
  8
0
 62
4
 10
-1.11456988E+02
 20
2.68189387E+01
 11
-1.11456988E+02
 21
2.56189387E+01
  0
ARC
  8
0
 62
4
 10
-1.06957148E+02
 20
2.70187785E+01
 40
5.00160181E-01
 50
1.83465799E-02
 51
9.00000002E+01
  0
ARC
  8
0
 62
4
 10
-1.12964613E+02
 20
2.70265639E+01
 40
4.92433852E-01
 50
8.91127567E+01
 51
1.80887243E+02
  0
ARC
  8
0
 62
4
 10
-1.06457126E+02
 20
2.75188003E+01
 40
8.00138358E-01
 50
9.90662024E-03
 51
9.00000002E+01
  0
ARC
  8
0
 62
4
 10
-1.13464613E+02
 20
2.75265639E+01
 40
7.92411497E-01
 50
8.94486475E+01
 51
1.80551352E+02
  0
ARC
  8
0
 62
4
 10
-1.08457117E+02
 20
2.98188091E+01
 40
1.00012957E+00
 50
7.42247612E-03
 51
9.00000002E+01
  0
ARC
  8
0
 62
4
 10
-1.11464614E+02
 20
2.98265654E+01
 40
9.92402587E-01
 50
8.95596718E+01
 51
1.80440329E+02
  0
CIRCLE
  8
0
 62
2
 10
-1.09956988E+02
 20
1.33189387E+01
 40
1.62100000E+00
  0
LINE
  8
0
  6
CENTER
 62
2
 10
-1.17956988E+02
 20
1.33189387E+01
 11
-9.12740693E+01
 21
1.33189387E+01
  0
LINE
  8
0
 62
4
 10
-1.09956988E+02
 20
1.73589387E+01
 11
-1.13456988E+02
 21
1.53389387E+01
  0
LINE
  8
0
 62
4
 10
-1.13456988E+02
 20
1.53389387E+01
 11
-1.13456988E+02
 21
1.12989387E+01
  0
LINE
  8
0
 62
4
 10
-1.13456988E+02
 20
1.12989387E+01
 11
-1.09956988E+02
 21
9.27893866E+00
  0
LINE
  8
0
 62
4
 10
-1.09956988E+02
 20
9.27893866E+00
 11
-1.06456988E+02
 21
1.12989387E+01
  0
LINE
  8
0
 62
4
 10
-1.06456988E+02
 20
1.12989387E+01
 11
-1.06456988E+02
 21
1.53389387E+01
  0
LINE
  8
0
 62
4
 10
-1.06456988E+02
 20
1.53389387E+01
 11
-1.09956988E+02
 21
1.73589387E+01
  0
LINE
  8
0
 62
7
 10
-1.13566988E+02
 20
7.31893866E+00
 11
-1.06356988E+02
 21
7.31893866E+00
  0
LINE
  8
0
 62
7
 10
-1.13566988E+02
 20
1.93189387E+01
 11
-1.06356988E+02
 21
1.93189387E+01
  0
LINE
  8
0
 62
7
 10
-1.15956988E+02
 20
1.69289387E+01
 11
-1.15956988E+02
 21
9.70893866E+00
  0
LINE
  8
0
 62
7
 10
-1.03956988E+02
 20
1.69289387E+01
 11
-1.03956988E+02
 21
9.70893866E+00
  0
CIRCLE
  8
0
 62
7
 10
-1.09964029E+02
 20
1.33239389E+01
 40
2.00000000E+00
  0
CIRCLE
  8
0
 62
4
 10
-1.09964029E+02
 20
1.33239389E+01
 40
3.50000000E+00
  0
ARC
  8
0
 62
7
 10
-1.09964026E+02
 20
1.33189387E+01
 40
3.99554522E+00
 50
1.50952093E+02
 51
2.09047906E+02
  0
ARC
  8
0
 62
7
 10
-1.09956818E+02
 20
1.33197721E+01
 40
4.00163661E+00
 50
2.10997298E+02
 51
2.68852053E+02
  0
ARC
  8
0
 62
7
 10
-1.09968179E+02
 20
1.33215380E+01
 40
4.00342272E+00
 50
2.71162073E+02
 51
3.28988576E+02
  0
ARC
  8
0
 62
7
 10
-1.09964031E+02
 20
1.33189387E+01
 40
4.00786175E+00
 50
3.31049840E+02
 51
2.89501602E+01
  0
ARC
  8
0
 62
7
 10
-1.09963841E+02
 20
1.33238304E+01
 40
3.99584741E+00
 50
3.09514121E+01
 51
8.88979394E+01
  0
ARC
  8
0
 62
7
 10
-1.09961158E+02
 20
1.33255996E+01
 40
3.99405895E+00
 50
9.10878539E+01
 51
1.49062795E+02
  0
ARC
  8
0
 62
7
 10
-1.09950470E+02
 20
1.33104003E+01
 40
7.00111741E+00
 50
3.11212950E+01
 51
5.91179354E+01
  0
ARC
  8
0
 62
7
 10
-1.09963008E+02
 20
1.33249592E+01
 40
6.99403020E+00
 50
1.21017086E+02
 51
1.48982914E+02
  0
ARC
  8
0
 62
7
 10
-1.09958004E+02
 20
1.33179218E+01
 40
7.00089694E+00
 50
2.11031080E+02
 51
2.38968920E+02
  0
ARC
  8
0
 62
7
 10
-1.09955459E+02
 20
1.33324872E+01
 40
7.00797842E+00
 50
3.00896048E+02
 51
3.28864721E+02
  0
CIRCLE
  8
0
 62
7
 10
-1.09964029E+02
 20
1.33239389E+01
 40
6.00000000E+00
  0
ARC
  8
0
 62
4
 10
8.77253857E+01
 20
1.48265654E+01
 40
9.92402587E-01
 50
8.95596718E+01
 51
1.80440329E+02
  0
ARC
  8
0
 62
4
 10
8.77331420E+01
 20
1.18190682E+01
 40
1.00012957E+00
 50
1.80007422E+02
 51
2.70000000E+02
  0
ARC
  8
0
 62
4
 10
9.00253872E+01
 20
1.68265639E+01
 40
7.92411497E-01
 50
8.94486475E+01
 51
1.80551352E+02
  0
ARC
  8
0
 62
4
 10
9.00331507E+01
 20
9.81907701E+00
 40
8.00138358E-01
 50
1.80009907E+02
 51
2.70000000E+02
  0
ARC
  8
0
 62
4
 10
9.05253872E+01
 20
1.63265639E+01
 40
4.92433852E-01
 50
8.91127567E+01
 51
1.80887243E+02
  0
ARC
  8
0
 62
4
 10
9.05331726E+01
 20
1.03190988E+01
 40
5.00160181E-01
 50
1.80018346E+02
 51
2.70000000E+02
  0
LINE
  8
0
 62
4
 10
9.72330124E+01
 20
1.46189387E+01
 11
9.79330124E+01
 21
1.53689387E+01
  0
LINE
  8
0
 62
4
 10
9.72330124E+01
 20
1.20189387E+01
 11
9.79330124E+01
 21
1.12689387E+01
  0
LINE
  8
0
 62
4
 10
9.46330124E+01
 20
1.46189387E+01
 11
9.39330124E+01
 21
1.53689387E+01
  0
LINE
  8
0
 62
4
 10
9.39330124E+01
 20
1.12689387E+01
 11
9.46330124E+01
 21
1.20189387E+01
  0
LINE
  8
0
 62
4
 10
9.46330124E+01
 20
1.20189387E+01
 11
9.72330124E+01
 21
1.20189387E+01
  0
LINE
  8
0
 62
4
 10
9.46330124E+01
 20
1.46189387E+01
 11
9.72330124E+01
 21
1.46189387E+01
  0
LINE
  8
0
 62
4
 10
9.46330124E+01
 20
1.20189387E+01
 11
9.46330124E+01
 21
1.46189387E+01
  0
LINE
  8
0
 62
4
 10
9.72330124E+01
 20
1.20189387E+01
 11
9.72330124E+01
 21
1.46189387E+01
  0
LINE
  8
0
 62
4
 10
9.07330124E+01
 20
1.48189387E+01
 11
9.19330124E+01
 21
1.48189387E+01
  0
LINE
  8
0
 62
6
 10
9.07330124E+01
 20
1.45489387E+01
 11
9.22030124E+01
 21
1.45489387E+01
  0
LINE
  8
0
 62
6
 10
9.07330124E+01
 20
1.20889387E+01
 11
9.22030124E+01
 21
1.20889387E+01
  0
LINE
  8
0
 62
4
 10
9.07330124E+01
 20
1.18189387E+01
 11
9.19330124E+01
 21
1.18189387E+01
  0
LINE
  8
0
 62
4
 10
8.67330124E+01
 20
1.18189387E+01
 11
8.67330124E+01
 21
1.48189387E+01
  0
LINE
  8
0
 62
4
 10
8.77330124E+01
 20
1.08189387E+01
 11
8.82330124E+01
 21
1.08189387E+01
  0
LINE
  8
0
 62
4
 10
8.77330124E+01
 20
1.58189387E+01
 11
8.82330124E+01
 21
1.58189387E+01
  0
LINE
  8
0
 62
6
 10
8.82330124E+01
 20
1.20889387E+01
 11
8.92330124E+01
 21
1.20889387E+01
  0
LINE
  8
0
 62
6
 10
8.82330124E+01
 20
1.45489387E+01
 11
8.92330124E+01
 21
1.45489387E+01
  0
LINE
  8
0
 62
4
 10
8.82330124E+01
 20
1.48189387E+01
 11
8.92330124E+01
 21
1.48189387E+01
  0
LINE
  8
0
 62
4
 10
8.82330124E+01
 20
1.18189387E+01
 11
8.92330124E+01
 21
1.18189387E+01
  0
LINE
  8
0
 62
4
 10
9.37424186E+01
 20
1.84768305E+01
 11
9.33030124E+01
 21
1.92189387E+01
  0
LINE
  8
0
 62
4
 10
9.28615797E+01
 20
1.83910877E+01
 11
9.28430124E+01
 21
1.84189387E+01
  0
LINE
  8
0
 62
4
 10
9.05330124E+01
 20
9.81893866E+00
 11
9.05330124E+01
 21
9.96893866E+00
  0
LINE
  8
0
 62
4
 10
9.05330124E+01
 20
9.96893866E+00
 11
9.57330124E+01
 21
9.96893866E+00
  0
LINE
  8
0
 62
4
 10
9.33030124E+01
 20
1.76189387E+01
 11
9.31381735E+01
 21
1.79156487E+01
  0
LINE
  8
0
 62
4
 10
9.09330124E+01
 20
1.84189387E+01
 11
9.28430124E+01
 21
1.84189387E+01
  0
LINE
  8
0
 62
4
 10
9.09330124E+01
 20
1.84189387E+01
 11
9.09330124E+01
 21
1.92189387E+01
  0
LINE
  8
0
 62
4
 10
9.09330124E+01
 20
1.92189387E+01
 11
9.33030124E+01
 21
1.92189387E+01
  0
LINE
  8
0
 62
4
 10
9.42330124E+01
 20
1.76189387E+01
 11
9.40104038E+01
 21
1.80005534E+01
  0
LINE
  8
0
 62
4
 10
9.64330124E+01
 20
1.68189387E+01
 11
9.64330124E+01
 21
1.76189387E+01
  0
LINE
  8
0
 62
4
 10
9.57330124E+01
 20
9.01893866E+00
 11
9.57330124E+01
 21
9.81893866E+00
  0
LINE
  8
0
 62
4
 10
9.00330124E+01
 20
1.12589387E+01
 11
9.07330124E+01
 21
1.13189387E+01
  0
LINE
  8
0
 62
4
 10
9.00330124E+01
 20
1.53789387E+01
 11
9.07330124E+01
 21
1.53189387E+01
  0
LINE
  8
0
 62
4
 10
9.00330124E+01
 20
9.01893866E+00
 11
9.57330124E+01
 21
9.01893866E+00
  0
LINE
  8
0
 62
4
 10
9.00330124E+01
 20
1.76189387E+01
 11
9.64330124E+01
 21
1.76189387E+01
  0
LINE
  8
0
 62
4
 10
9.00330124E+01
 20
1.03189387E+01
 11
9.00330124E+01
 21
1.63189387E+01
  0
LINE
  8
0
 62
4
 10
9.07330124E+01
 20
1.13189387E+01
 11
9.07330124E+01
 21
1.53189387E+01
  0
LINE
  8
0
 62
4
 10
8.92330124E+01
 20
9.81893866E+00
 11
8.92330124E+01
 21
1.68189387E+01
  0
LINE
  8
0
 62
4
 10
8.82330124E+01
 20
1.08189387E+01
 11
8.82330124E+01
 21
1.58189387E+01
  0
LINE
  8
0
 62
4
 10
9.05330124E+01
 20
9.81893866E+00
 11
9.57330124E+01
 21
9.81893866E+00
  0
LINE
  8
0
 62
4
 10
9.05330124E+01
 20
1.68189387E+01
 11
9.64330124E+01
 21
1.68189387E+01
  0
LINE
  8
0
 62
4
 10
9.39330124E+01
 20
1.12689387E+01
 11
9.79330124E+01
 21
1.12689387E+01
  0
LINE
  8
0
 62
4
 10
9.57330124E+01
 20
1.00689387E+01
 11
9.57330124E+01
 21
1.12689387E+01
  0
LINE
  8
0
 62
4
 10
9.61330124E+01
 20
1.00689387E+01
 11
9.61330124E+01
 21
1.12689387E+01
  0
LINE
  8
0
 62
4
 10
9.29330124E+01
 20
1.00689387E+01
 11
9.29330124E+01
 21
1.65689387E+01
  0
LINE
  8
0
 62
4
 10
9.36330124E+01
 20
1.23189387E+01
 11
9.36330124E+01
 21
1.43189387E+01
  0
LINE
  8
0
 62
4
 10
9.36330124E+01
 20
1.43189387E+01
 11
9.39330124E+01
 21
1.43189387E+01
  0
LINE
  8
0
 62
4
 10
9.36330124E+01
 20
1.23189387E+01
 11
9.39330124E+01
 21
1.23189387E+01
  0
LINE
  8
0
 62
4
 10
9.39330124E+01
 20
1.12689387E+01
 11
9.39330124E+01
 21
1.53689387E+01
  0
LINE
  8
0
 62
4
 10
9.39330124E+01
 20
1.53689387E+01
 11
9.79330124E+01
 21
1.53689387E+01
  0
LINE
  8
0
 62
4
 10
9.79330124E+01
 20
1.12689387E+01
 11
9.79330124E+01
 21
1.53689387E+01
  0
LINE
  8
0
 62
4
 10
9.22330124E+01
 20
1.00689387E+01
 11
9.22330124E+01
 21
1.65689387E+01
  0
LINE
  8
0
 62
4
 10
9.22330124E+01
 20
1.00689387E+01
 11
9.57330124E+01
 21
1.00689387E+01
  0
CIRCLE
  8
0
 62
4
 10
9.59330124E+01
 20
1.33189387E+01
 40
1.30000000E+00
  0
LINE
  8
0
 62
4
 10
9.70830124E+01
 20
1.81489387E+01
 11
9.70684798E+01
 21
1.82982330E+01
  0
LINE
  8
0
 62
4
 10
9.05990580E+01
 20
1.76684858E+01
 11
9.05506159E+01
 21
1.81661336E+01
  0
LINE
  8
0
 62
4
 10
9.19330124E+01
 20
1.48189387E+01
 11
9.22330124E+01
 21
1.45189387E+01
  0
LINE
  8
0
 62
4
 10
9.19330124E+01
 20
1.18189387E+01
 11
9.22330124E+01
 21
1.21189387E+01
  0
LINE
  8
0
 62
4
 10
9.05506159E+01
 20
1.81661336E+01
 11
1.00305918E+02
 21
1.91157354E+01
  0
LINE
  8
0
 62
4
 10
9.05990580E+01
 20
1.76684858E+01
 11
9.95718216E+01
 21
1.85419136E+01
  0
LINE
  8
0
 62
4
 10
9.70830124E+01
 20
1.81489387E+01
 11
9.93902802E+01
 21
1.83735330E+01
  0
LINE
  8
0
 62
4
 10
9.57330124E+01
 20
9.81893866E+00
 11
9.87332697E+01
 21
8.98432409E+00
  0
LINE
  8
0
 62
4
 10
9.57330124E+01
 20
9.96893866E+00
 11
9.85864894E+01
 21
9.17746812E+00
  0
LINE
  8
0
 62
4
 10
9.22330124E+01
 20
1.65689387E+01
 11
9.82330124E+01
 21
1.65689387E+01
  0
LINE
  8
0
 62
4
 10
9.79330124E+01
 20
1.23189387E+01
 11
9.82330124E+01
 21
1.23189387E+01
  0
LINE
  8
0
 62
4
 10
9.79330124E+01
 20
1.43189387E+01
 11
9.82330124E+01
 21
1.43189387E+01
  0
LINE
  8
0
 62
4
 10
9.61330124E+01
 20
1.00689387E+01
 11
9.82330124E+01
 21
1.00689387E+01
  0
LINE
  8
0
 62
4
 10
1.02733012E+02
 20
2.56189387E+01
 11
1.03033012E+02
 21
2.53189387E+01
  0
LINE
  8
0
 62
4
 10
1.05733012E+02
 20
2.56189387E+01
 11
1.05433012E+02
 21
2.53189387E+01
  0
LINE
  8
0
 62
4
 10
1.08582560E+02
 20
2.69528931E+01
 11
1.09080207E+02
 21
2.70013352E+01
  0
LINE
  8
0
 62
4
 10
1.09080207E+02
 20
2.70013352E+01
 11
1.10029809E+02
 21
1.72460333E+01
  0
LINE
  8
0
 62
4
 10
1.09063012E+02
 20
2.04689387E+01
 11
1.09212307E+02
 21
2.04834713E+01
  0
LINE
  8
0
 62
4
 10
1.08582560E+02
 20
2.69528931E+01
 11
1.09455987E+02
 21
1.79801295E+01
  0
LINE
  8
0
 62
4
 10
1.09063012E+02
 20
2.04689387E+01
 11
1.09287607E+02
 21
1.81616709E+01
  0
LINE
  8
0
 62
4
 10
1.00733012E+02
 20
2.18189387E+01
 11
9.99719903E+01
 21
1.90832302E+01
  0
LINE
  8
0
 62
4
 10
1.00883012E+02
 20
2.18189387E+01
 11
1.00128431E+02
 21
1.90984585E+01
  0
CIRCLE
  8
0
 62
4
 10
1.04233012E+02
 20
2.16189387E+01
 40
1.30000000E+00
  0
LINE
  8
0
 62
4
 10
1.07483012E+02
 20
2.53189387E+01
 11
1.07483012E+02
 21
1.93189387E+01
  0
LINE
  8
0
 62
4
 10
1.00983012E+02
 20
2.53189387E+01
 11
1.00983012E+02
 21
2.18189387E+01
  0
LINE
  8
0
 62
4
 10
1.00983012E+02
 20
2.53189387E+01
 11
1.07483012E+02
 21
2.53189387E+01
  0
LINE
  8
0
 62
4
 10
1.02183012E+02
 20
1.96189387E+01
 11
1.06283012E+02
 21
1.96189387E+01
  0
LINE
  8
0
 62
4
 10
1.06283012E+02
 20
2.36189387E+01
 11
1.06283012E+02
 21
1.96189387E+01
  0
LINE
  8
0
 62
4
 10
1.02183012E+02
 20
2.36189387E+01
 11
1.06283012E+02
 21
2.36189387E+01
  0
LINE
  8
0
 62
4
 10
1.03233012E+02
 20
2.39189387E+01
 11
1.03233012E+02
 21
2.36189387E+01
  0
LINE
  8
0
 62
4
 10
1.05233012E+02
 20
2.39189387E+01
 11
1.05233012E+02
 21
2.36189387E+01
  0
LINE
  8
0
 62
4
 10
1.03233012E+02
 20
2.39189387E+01
 11
1.05233012E+02
 21
2.39189387E+01
  0
LINE
  8
0
 62
4
 10
1.03233012E+02
 20
1.96189387E+01
 11
1.03233012E+02
 21
1.93189387E+01
  0
LINE
  8
0
 62
4
 10
1.05233012E+02
 20
1.96189387E+01
 11
1.05233012E+02
 21
1.93189387E+01
  0
LINE
  8
0
 62
4
 10
1.00983012E+02
 20
2.46189387E+01
 11
1.07483012E+02
 21
2.46189387E+01
  0
LINE
  8
0
 62
4
 10
1.00983012E+02
 20
2.14189387E+01
 11
1.02183012E+02
 21
2.14189387E+01
  0
LINE
  8
0
 62
4
 10
1.00983012E+02
 20
2.18189387E+01
 11
1.02183012E+02
 21
2.18189387E+01
  0
LINE
  8
0
 62
4
 10
1.00983012E+02
 20
2.14189387E+01
 11
1.00983012E+02
 21
1.93189387E+01
  0
LINE
  8
0
 62
4
 10
1.02183012E+02
 20
2.36189387E+01
 11
1.02183012E+02
 21
1.96189387E+01
  0
LINE
  8
0
 62
4
 10
1.07733012E+02
 20
2.70189387E+01
 11
1.07733012E+02
 21
2.11189387E+01
  0
LINE
  8
0
 62
4
 10
1.00733012E+02
 20
2.70189387E+01
 11
1.00733012E+02
 21
2.18189387E+01
  0
LINE
  8
0
 62
4
 10
1.01733012E+02
 20
2.93189387E+01
 11
1.06733012E+02
 21
2.93189387E+01
  0
LINE
  8
0
 62
4
 10
1.00733012E+02
 20
2.83189387E+01
 11
1.07733012E+02
 21
2.83189387E+01
  0
LINE
  8
0
 62
4
 10
1.02233012E+02
 20
2.68189387E+01
 11
1.06233012E+02
 21
2.68189387E+01
  0
LINE
  8
0
 62
4
 10
1.01233012E+02
 20
2.75189387E+01
 11
1.07233012E+02
 21
2.75189387E+01
  0
LINE
  8
0
 62
4
 10
1.08533012E+02
 20
2.75189387E+01
 11
1.08533012E+02
 21
2.11189387E+01
  0
LINE
  8
0
 62
4
 10
9.99330124E+01
 20
2.75189387E+01
 11
9.99330124E+01
 21
2.18189387E+01
  0
LINE
  8
0
 62
4
 10
1.06293012E+02
 20
2.75189387E+01
 11
1.06233012E+02
 21
2.68189387E+01
  0
LINE
  8
0
 62
4
 10
1.02173012E+02
 20
2.75189387E+01
 11
1.02233012E+02
 21
2.68189387E+01
  0
LINE
  8
0
 62
4
 10
9.99330124E+01
 20
2.18189387E+01
 11
1.00733012E+02
 21
2.18189387E+01
  0
LINE
  8
0
 62
4
 10
1.07733012E+02
 20
2.11189387E+01
 11
1.08533012E+02
 21
2.11189387E+01
  0
LINE
  8
0
 62
4
 10
1.08533012E+02
 20
2.33189387E+01
 11
1.08914627E+02
 21
2.35415473E+01
  0
LINE
  8
0
 62
4
 10
1.10133012E+02
 20
2.66189387E+01
 11
1.10133012E+02
 21
2.42489387E+01
  0
LINE
  8
0
 62
4
 10
1.09333012E+02
 20
2.66189387E+01
 11
1.10133012E+02
 21
2.66189387E+01
  0
LINE
  8
0
 62
4
 10
1.09333012E+02
 20
2.66189387E+01
 11
1.09333012E+02
 21
2.47089387E+01
  0
LINE
  8
0
 62
4
 10
1.08533012E+02
 20
2.42489387E+01
 11
1.08829722E+02
 21
2.44137776E+01
  0
LINE
  8
0
 62
4
 10
1.00883012E+02
 20
2.70189387E+01
 11
1.00883012E+02
 21
2.18189387E+01
  0
LINE
  8
0
 62
4
 10
1.00733012E+02
 20
2.70189387E+01
 11
1.00883012E+02
 21
2.70189387E+01
  0
LINE
  8
0
 62
4
 10
1.09305161E+02
 20
2.46903714E+01
 11
1.09333012E+02
 21
2.47089387E+01
  0
LINE
  8
0
 62
4
 10
1.09390904E+02
 20
2.38095325E+01
 11
1.10133012E+02
 21
2.42489387E+01
  0
LINE
  8
0
 62
4
 10
1.02733012E+02
 20
2.93189387E+01
 11
1.02733012E+02
 21
2.83189387E+01
  0
LINE
  8
0
 62
4
 10
1.05733012E+02
 20
2.93189387E+01
 11
1.05733012E+02
 21
2.83189387E+01
  0
LINE
  8
0
 62
6
 10
1.05463012E+02
 20
2.93189387E+01
 11
1.05463012E+02
 21
2.83189387E+01
  0
LINE
  8
0
 62
6
 10
1.03003012E+02
 20
2.93189387E+01
 11
1.03003012E+02
 21
2.83189387E+01
  0
LINE
  8
0
 62
4
 10
1.06733012E+02
 20
2.98189387E+01
 11
1.06733012E+02
 21
2.93189387E+01
  0
LINE
  8
0
 62
4
 10
1.01733012E+02
 20
2.98189387E+01
 11
1.01733012E+02
 21
2.93189387E+01
  0
LINE
  8
0
 62
4
 10
1.02733012E+02
 20
3.08189387E+01
 11
1.05733012E+02
 21
3.08189387E+01
  0
LINE
  8
0
 62
4
 10
1.02733012E+02
 20
2.68189387E+01
 11
1.02733012E+02
 21
2.56189387E+01
  0
LINE
  8
0
 62
6
 10
1.03003012E+02
 20
2.68189387E+01
 11
1.03003012E+02
 21
2.53489387E+01
  0
LINE
  8
0
 62
6
 10
1.05463012E+02
 20
2.68189387E+01
 11
1.05463012E+02
 21
2.53489387E+01
  0
LINE
  8
0
 62
4
 10
1.05733012E+02
 20
2.68189387E+01
 11
1.05733012E+02
 21
2.56189387E+01
  0
LINE
  8
0
 62
4
 10
1.02933012E+02
 20
2.03189387E+01
 11
1.05533012E+02
 21
2.03189387E+01
  0
LINE
  8
0
 62
4
 10
1.02933012E+02
 20
2.29189387E+01
 11
1.05533012E+02
 21
2.29189387E+01
  0
LINE
  8
0
 62
4
 10
1.05533012E+02
 20
2.29189387E+01
 11
1.05533012E+02
 21
2.03189387E+01
  0
LINE
  8
0
 62
4
 10
1.02933012E+02
 20
2.29189387E+01
 11
1.02933012E+02
 21
2.03189387E+01
  0
LINE
  8
0
 62
4
 10
1.02183012E+02
 20
2.36189387E+01
 11
1.02933012E+02
 21
2.29189387E+01
  0
LINE
  8
0
 62
4
 10
1.05533012E+02
 20
2.29189387E+01
 11
1.06283012E+02
 21
2.36189387E+01
  0
LINE
  8
0
 62
4
 10
1.02933012E+02
 20
2.03189387E+01
 11
1.02183012E+02
 21
1.96189387E+01
  0
LINE
  8
0
 62
4
 10
1.05533012E+02
 20
2.03189387E+01
 11
1.06283012E+02
 21
1.96189387E+01
  0
ARC
  8
0
 62
4
 10
1.01233173E+02
 20
2.70187785E+01
 40
5.00160181E-01
 50
9.00000002E+01
 51
1.79981654E+02
  0
ARC
  8
0
 62
4
 10
1.07240638E+02
 20
2.70265639E+01
 40
4.92433852E-01
 50
3.59112757E+02
 51
9.08872431E+01
  0
ARC
  8
0
 62
4
 10
1.00733151E+02
 20
2.75188003E+01
 40
8.00138358E-01
 50
9.00000002E+01
 51
1.79990093E+02
  0
ARC
  8
0
 62
4
 10
1.07740638E+02
 20
2.75265639E+01
 40
7.92411497E-01
 50
3.59448647E+02
 51
9.05513523E+01
  0
ARC
  8
0
 62
4
 10
1.02733142E+02
 20
2.98188091E+01
 40
1.00012957E+00
 50
9.00000002E+01
 51
1.79992578E+02
  0
ARC
  8
0
 62
4
 10
1.05740639E+02
 20
2.98265654E+01
 40
9.92402587E-01
 50
3.59559672E+02
 51
9.04403286E+01
  0
ARC
  8
0
 62
7
 10
1.04233268E+02
 20
1.33240187E+01
 40
7.00469417E+00
 50
3.00985939E+02
 51
3.28929398E+02
  0
LINE
  8
0
 62
7
 10
1.10233012E+02
 20
1.69289387E+01
 11
1.10233012E+02
 21
9.70893866E+00
  0
LINE
  8
0
  6
CENTER
 62
2
 10
8.52948981E+01
 20
1.33189387E+01
 11
1.12233012E+02
 21
1.33189387E+01
  0
LINE
  8
0
  6
CENTER
 62
2
 10
1.04233012E+02
 20
3.22374650E+01
 11
1.04233012E+02
 21
5.31893866E+00
  0
LINE
  8
0
 62
7
 10
9.82330124E+01
 20
1.69289387E+01
 11
9.82330124E+01
 21
9.70893866E+00
  0
LINE
  8
0
 62
7
 10
1.00623012E+02
 20
1.93189387E+01
 11
1.07833012E+02
 21
1.93189387E+01
  0
LINE
  8
0
 62
7
 10
1.00623012E+02
 20
7.31893866E+00
 11
1.07833012E+02
 21
7.31893866E+00
  0
LINE
  8
0
 62
7
 10
1.05833012E+02
 20
1.93189387E+01
 11
1.05833012E+02
 21
7.31893866E+00
  0
LINE
  8
0
 62
7
 10
1.02633012E+02
 20
1.93189387E+01
 11
1.02633012E+02
 21
7.31893866E+00
  0
ARC
  8
0
 62
7
 10
1.04233695E+02
 20
1.33189387E+01
 40
5.99754832E+00
 50
1.05479260E+02
 51
2.54520740E+02
  0
ARC
  8
0
 62
7
 10
1.04230277E+02
 20
1.33189487E+01
 40
7.00087420E+00
 50
1.21014783E+02
 51
1.48941962E+02
  0
ARC
  8
0
 62
7
 10
1.04233694E+02
 20
1.33189387E+01
 40
5.99718423E+00
 50
2.85466694E+02
 51
7.45333053E+01
  0
ARC
  8
0
 62
7
 10
1.04243385E+02
 20
1.33142708E+01
 40
6.99581746E+00
 50
3.11104736E+01
 51
5.91287569E+01
  0
ARC
  8
0
 62
7
 10
1.04233268E+02
 20
1.33240187E+01
 40
7.00469417E+00
 50
2.11062510E+02
 51
2.39014061E+02
  0
LINE
  8
0
  6
PHANTOM
 10
2.56327935E+01
 20
4.32794416E+01
 11
2.56327935E+01
 21
6.39777844E+01
  0
LINE
  8
0
  6
PHANTOM
 10
-5.43672066E+01
 20
3.15615410E+01
 11
-5.43672066E+01
 21
6.32645694E+01
  0
LINE
  8
0
  6
PHANTOM
 10
2.56327934E+01
 20
3.69384982E+01
 11
2.56327934E+01
 21
3.09712786E+01
  0
LINE
  8
0
  6
PHANTOM
 10
1.84626931E+01
 20
3.69384982E+01
 11
2.56327934E+01
 21
3.69384982E+01
  0
LINE
  8
0
  6
PHANTOM
 10
1.84626931E+01
 20
3.69384982E+01
 11
1.84626931E+01
 21
4.32794416E+01
  0
LINE
  8
0
  6
PHANTOM
 10
1.84626931E+01
 20
4.32794416E+01
 11
2.56327934E+01
 21
4.32794416E+01
  0
TEXT
  8
0
 62
7
 10
1.14570749E+01
 20
4.39189387E+01
 40
1.50000000E+00
  1
PBTAS10-7
 41
1.00000000E+00
  7
MONOTXT
  0
ARC
  8
0
 62
7
 10
-1.93381688E+01
 20
4.83189387E+01
 40
4.62356726E+00
 50
1.82596937E+02
 51
2.31332268E+02
  0
LINE
  8
0
 62
4
 10
3.55330124E+01
 20
3.50189387E+01
 11
3.55330124E+01
 21
3.73889387E+01
  0
LINE
  8
0
 62
4
 10
3.15330124E+01
 20
3.50189387E+01
 11
3.15330124E+01
 21
3.73889387E+01
  0
LINE
  8
0
 62
4
 10
3.15330124E+01
 20
3.73889387E+01
 11
3.55330124E+01
 21
3.73889387E+01
  0
LINE
  8
0
 62
4
 10
3.15330124E+01
 20
3.50189387E+01
 11
3.55330124E+01
 21
3.50189387E+01
  0
LINE
  8
0
 62
4
 10
2.90330124E+01
 20
3.46365417E+01
 11
3.80330124E+01
 21
3.46365417E+01
  0
LINE
  8
0
 62
7
 10
4.05330124E+01
 20
4.28189387E+01
 11
5.30330124E+01
 21
4.28189387E+01
  0
LINE
  8
0
 62
7
 10
3.80330124E+01
 20
5.38189387E+01
 11
5.30330124E+01
 21
5.38189387E+01
  0
LINE
  8
0
 62
4
 10
4.05330124E+01
 20
3.80189387E+01
 11
4.60330124E+01
 21
3.80189387E+01
  0
LINE
  8
0
 62
4
 10
4.05330124E+01
 20
4.20189387E+01
 11
4.60330124E+01
 21
4.20189387E+01
  0
LINE
  8
0
 62
4
 10
2.65330124E+01
 20
3.70189387E+01
 11
2.65330124E+01
 21
4.33189387E+01
  0
LINE
  8
0
 62
4
 10
4.05330124E+01
 20
3.70189387E+01
 11
4.05330124E+01
 21
4.33189387E+01
  0
LINE
  8
0
 62
4
 10
2.90330124E+01
 20
3.98189387E+01
 11
2.90330124E+01
 21
3.33189387E+01
  0
LINE
  8
0
 62
4
 10
3.80330124E+01
 20
3.98189387E+01
 11
3.80330124E+01
 21
3.33189387E+01
  0
LINE
  8
0
 62
4
 10
3.80330124E+01
 20
3.70189387E+01
 11
4.05330124E+01
 21
3.70189387E+01
  0
LINE
  8
0
 62
4
 10
2.65330124E+01
 20
3.70189387E+01
 11
2.90330124E+01
 21
3.70189387E+01
  0
LINE
  8
0
 62
4
 10
2.90330124E+01
 20
5.39649913E+01
 11
3.80330124E+01
 21
5.39649913E+01
  0
LINE
  8
0
 62
6
 10
3.23030124E+01
 20
3.23189387E+01
 11
3.23030124E+01
 21
3.33189387E+01
  0
LINE
  8
0
 62
6
 10
3.47630124E+01
 20
3.23189387E+01
 11
3.47630124E+01
 21
3.33189387E+01
  0
LINE
  8
0
 62
4
 10
3.20330124E+01
 20
3.23189387E+01
 11
3.20330124E+01
 21
3.33189387E+01
  0
LINE
  8
0
 62
4
 10
3.50330124E+01
 20
3.23189387E+01
 11
3.50330124E+01
 21
3.33189387E+01
  0
LINE
  8
0
 62
4
 10
2.65330124E+01
 20
3.80189387E+01
 11
2.20330124E+01
 21
3.80189387E+01
  0
LINE
  8
0
 62
4
 10
3.80330124E+01
 20
3.98189387E+01
 11
3.80330124E+01
 21
5.39689387E+01
  0
LINE
  8
0
 62
4
 10
2.90330124E+01
 20
3.98189387E+01
 11
2.90330124E+01
 21
5.39689387E+01
  0
LINE
  8
0
 62
4
 10
2.90330124E+01
 20
3.33189387E+01
 11
3.80330124E+01
 21
3.33189387E+01
  0
LINE
  8
0
 62
4
 10
2.90330124E+01
 20
5.39689387E+01
 11
3.80330124E+01
 21
5.39689387E+01
  0
LINE
  8
0
 62
4
 10
2.10330124E+01
 20
3.90189387E+01
 11
2.10330124E+01
 21
4.10189387E+01
  0
LINE
  8
0
 62
4
 10
2.20330124E+01
 20
4.20189387E+01
 11
2.65330124E+01
 21
4.20189387E+01
  0
LINE
  8
0
  6
CENTER
 62
6
 10
3.35330124E+01
 20
2.83089387E+01
 11
3.35330124E+01
 21
5.57389387E+01
  0
LINE
  8
0
 62
4
 10
3.10330124E+01
 20
3.23189387E+01
 11
3.60330124E+01
 21
3.23189387E+01
  0
LINE
  8
0
 62
4
 10
3.20330124E+01
 20
3.08189387E+01
 11
3.50330124E+01
 21
3.08189387E+01
  0
LINE
  8
0
 62
4
 10
3.60330124E+01
 20
3.18189387E+01
 11
3.60330124E+01
 21
3.23189387E+01
  0
LINE
  8
0
 62
4
 10
3.10330124E+01
 20
3.18189387E+01
 11
3.10330124E+01
 21
3.23189387E+01
  0
LINE
  8
0
 62
4
 10
2.20330124E+01
 20
3.80189387E+01
 11
2.20330124E+01
 21
4.20189387E+01
  0
LINE
  8
0
 62
4
 10
2.10330124E+01
 20
3.90189387E+01
 11
2.20330124E+01
 21
3.80189387E+01
  0
LINE
  8
0
 62
4
 10
2.10330124E+01
 20
4.10189387E+01
 11
2.20330124E+01
 21
4.20189387E+01
  0
LINE
  8
0
 62
4
 10
2.65330124E+01
 20
4.33189387E+01
 11
2.90330124E+01
 21
4.33189387E+01
  0
LINE
  8
0
 62
4
 10
3.80330124E+01
 20
4.33189387E+01
 11
4.05330124E+01
 21
4.33189387E+01
  0
ARC
  8
0
 62
4
 10
3.20338039E+01
 20
3.18197301E+01
 40
1.00079180E+00
 50
1.80045313E+02
 51
2.70000000E+02
  0
ARC
  8
0
 62
4
 10
3.50313468E+01
 20
3.18206043E+01
 40
1.00166704E+00
 50
2.70095277E+02
 51
3.59904724E+02
  0
LINE
  8
0
 62
4
 10
4.90330124E+01
 20
4.13189387E+01
 11
5.39700115E+01
 21
4.13189387E+01
  0
LINE
  8
0
 62
4
 10
4.90330124E+01
 20
3.87189387E+01
 11
5.13700115E+01
 21
3.87189387E+01
  0
LINE
  8
0
 62
4
 10
4.60330124E+01
 20
4.20189387E+01
 11
4.90330124E+01
 21
4.13189387E+01
  0
LINE
  8
0
 62
4
 10
4.60330124E+01
 20
3.80189387E+01
 11
4.90330124E+01
 21
3.87189387E+01
  0
LINE
  8
0
 62
4
 10
4.60330124E+01
 20
3.80189387E+01
 11
4.60330124E+01
 21
4.20189387E+01
  0
LINE
  8
0
 62
4
 10
4.90330124E+01
 20
3.87189387E+01
 11
4.90330124E+01
 21
4.13189387E+01
  0
LINE
  8
0
 62
6
 10
5.39700115E+01
 20
4.13189387E+01
 11
5.13700115E+01
 21
3.87189387E+01
  0
LINE
  8
0
 62
7
 10
8.04301240E+00
 20
4.28189387E+01
 11
2.65330124E+01
 21
4.28189387E+01
  0
LINE
  8
0
 62
7
 10
8.04301240E+00
 20
5.38189387E+01
 11
2.90330124E+01
 21
5.38189387E+01
  0
LINE
  8
0
  6
CENTER
 62
6
 10
3.54301240E+00
 20
5.56189387E+01
 11
3.54301240E+00
 21
4.01389387E+01
  0
LINE
  8
0
 62
4
 10
5.54301240E+00
 20
5.41834176E+01
 11
5.54301240E+00
 21
5.31661336E+01
  0
LINE
  8
0
 62
4
 10
8.04301240E+00
 20
4.26689387E+01
 11
8.04301240E+00
 21
5.41834176E+01
  0
LINE
  8
0
 62
4
 10
-9.56987601E-01
 20
4.26689387E+01
 11
-9.56987601E-01
 21
5.41834176E+01
  0
LINE
  8
0
 62
4
 10
-9.56987579E-01
 20
5.31661336E+01
 11
8.04301242E+00
 21
5.31661336E+01
  0
LINE
  8
0
 62
6
 10
2.39800115E+01
 20
4.96189387E+01
 11
2.13800115E+01
 21
4.70189387E+01
  0
LINE
  8
0
 62
4
 10
1.60430124E+01
 20
4.63189387E+01
 11
1.90430124E+01
 21
4.70189387E+01
  0
LINE
  8
0
 62
4
 10
1.90430124E+01
 20
4.96189387E+01
 11
1.90430124E+01
 21
4.70189387E+01
  0
LINE
  8
0
 62
4
 10
1.90430124E+01
 20
4.70189387E+01
 11
2.13800115E+01
 21
4.70189387E+01
  0
LINE
  8
0
 62
4
 10
1.90430124E+01
 20
4.96189387E+01
 11
2.39800115E+01
 21
4.96189387E+01
  0
LINE
  8
0
 62
4
 10
1.60430124E+01
 20
5.03189387E+01
 11
1.90430124E+01
 21
4.96189387E+01
  0
LINE
  8
0
 62
4
 10
-9.56987610E-01
 20
5.26189754E+01
 11
8.04301240E+00
 21
5.26189754E+01
  0
LINE
  8
0
 62
4
 10
-9.56987610E-01
 20
4.40189387E+01
 11
8.04301240E+00
 21
4.40189387E+01
  0
LINE
  8
0
 62
4
 10
-3.45698760E+00
 20
4.50689387E+01
 11
-3.45698760E+00
 21
5.15689387E+01
  0
LINE
  8
0
 62
4
 10
-9.56987601E-01
 20
4.26689387E+01
 11
8.04301240E+00
 21
4.26689387E+01
  0
LINE
  8
0
 62
4
 10
4.65301240E+00
 20
4.72189387E+01
 11
4.60301240E+00
 21
4.72589387E+01
  0
LINE
  8
0
 62
4
 10
2.48301240E+00
 20
4.72589387E+01
 11
4.60301240E+00
 21
4.93789387E+01
  0
LINE
  8
0
 62
4
 10
4.55301240E+00
 20
4.73189387E+01
 11
2.48301240E+00
 21
4.93789387E+01
  0
LINE
  8
0
 62
4
 10
1.60430124E+01
 20
5.03189387E+01
 11
1.60430124E+01
 21
4.63189387E+01
  0
LINE
  8
0
 62
4
 10
-8.95698760E+00
 20
4.93189387E+01
 11
-8.95698760E+00
 21
4.73189387E+01
  0
LINE
  8
0
 62
4
 10
-7.95698760E+00
 20
4.63189387E+01
 11
-3.45698760E+00
 21
4.63189387E+01
  0
LINE
  8
0
 62
4
 10
-7.95698760E+00
 20
5.03189387E+01
 11
-3.45698760E+00
 21
5.03189387E+01
  0
LINE
  8
0
 62
4
 10
-7.95698760E+00
 20
5.03189387E+01
 11
-7.95698760E+00
 21
4.63189387E+01
  0
LINE
  8
0
 62
4
 10
-8.95698760E+00
 20
4.93189387E+01
 11
-7.95698760E+00
 21
5.03189387E+01
  0
LINE
  8
0
 62
4
 10
-8.95698760E+00
 20
4.73189387E+01
 11
-7.95698760E+00
 21
4.63189387E+01
  0
LINE
  8
0
 62
4
 10
-3.45698760E+00
 20
4.50689387E+01
 11
-9.56987601E-01
 21
4.50689387E+01
  0
LINE
  8
0
 62
4
 10
-3.45698760E+00
 20
5.15689387E+01
 11
-9.56987601E-01
 21
5.15689387E+01
  0
LINE
  8
0
 62
4
 10
1.05430124E+01
 20
4.50689387E+01
 11
1.05430124E+01
 21
5.15689387E+01
  0
LINE
  8
0
 62
4
 10
8.04301240E+00
 20
5.15689387E+01
 11
1.05430124E+01
 21
5.15689387E+01
  0
LINE
  8
0
 62
4
 10
8.04301240E+00
 20
4.50689387E+01
 11
1.05430124E+01
 21
4.50689387E+01
  0
LINE
  8
0
 62
4
 10
1.05430124E+01
 20
5.03189387E+01
 11
1.60430124E+01
 21
5.03189387E+01
  0
LINE
  8
0
 62
4
 10
1.05430124E+01
 20
4.63189387E+01
 11
1.60430124E+01
 21
4.63189387E+01
  0
CIRCLE
  8
0
 62
4
 10
3.54213716E+00
 20
4.83164802E+01
 40
2.50000000E+00
  0
LINE
  8
0
 62
4
 10
1.54301239E+00
 20
5.34189387E+01
 11
5.54301239E+00
 21
5.34189387E+01
  0
LINE
  8
0
 62
4
 10
-9.56987579E-01
 20
5.41834176E+01
 11
8.04301242E+00
 21
5.41834176E+01
  0
LINE
  8
0
 62
4
 10
1.54301240E+00
 20
5.31661336E+01
 11
1.54301240E+00
 21
5.41834176E+01
  0
ARC
  8
0
 62
4
 10
-7.85005011E+01
 20
4.65689387E+01
 40
4.32351351E+00
 50
3.36123699E+02
 51
2.38763010E+01
  0
ARC
  8
0
 62
4
 10
-7.85005011E+01
 20
5.00689387E+01
 40
4.32351351E+00
 50
3.36123699E+02
 51
2.38763010E+01
  0
ARC
  8
0
 62
4
 10
-7.30534741E+01
 20
4.65689387E+01
 40
4.32351351E+00
 50
1.56123699E+02
 51
2.03876301E+02
  0
ARC
  8
0
 62
4
 10
-7.30534741E+01
 20
5.00689387E+01
 40
4.32351351E+00
 50
1.56123699E+02
 51
2.03876301E+02
  0
LINE
  8
0
 62
4
 10
-7.70069876E+01
 20
4.83189387E+01
 11
-7.45469876E+01
 21
4.83189387E+01
  0
LINE
  8
0
 62
4
 10
-7.73769876E+01
 20
4.48189387E+01
 11
-7.41769876E+01
 21
4.48189387E+01
  0
LINE
  8
0
 62
4
 10
-7.73769876E+01
 20
5.18189387E+01
 11
-7.41769876E+01
 21
5.18189387E+01
  0
LINE
  8
0
 62
4
 10
-7.41769876E+01
 20
5.18189387E+01
 11
-7.41769876E+01
 21
4.48189387E+01
  0
LINE
  8
0
 62
4
 10
-7.73769876E+01
 20
5.18189387E+01
 11
-7.73769876E+01
 21
4.48189387E+01
  0
LINE
  8
0
 62
7
 10
-2.54569876E+01
 20
5.23189387E+01
 11
-2.54569876E+01
 21
4.43189387E+01
  0
LINE
  8
0
 62
7
 10
-3.19569876E+01
 20
4.51189387E+01
 11
-3.11569876E+01
 21
4.43189387E+01
  0
LINE
  8
0
 62
2
 10
-3.18334876E+01
 20
4.49954387E+01
 11
-2.54569876E+01
 21
4.49954387E+01
  0
LINE
  8
0
 62
7
 10
-3.11569876E+01
 20
4.43189387E+01
 11
-2.39569876E+01
 21
4.43189387E+01
  0
LINE
  8
0
 62
7
 10
-3.11569876E+01
 20
5.23189387E+01
 11
-3.19569876E+01
 21
5.15189387E+01
  0
LINE
  8
0
 62
2
 10
-3.18334876E+01
 20
5.16424387E+01
 11
-2.54569876E+01
 21
5.16424387E+01
  0
LINE
  8
0
 62
7
 10
-3.19569876E+01
 20
5.15189387E+01
 11
-3.19569876E+01
 21
4.51189387E+01
  0
LINE
  8
0
 62
7
 10
-3.11569876E+01
 20
5.23189387E+01
 11
-2.39569876E+01
 21
5.23189387E+01
  0
LINE
  8
0
 62
7
 10
-3.11569876E+01
 20
5.23189387E+01
 11
-3.11569876E+01
 21
4.43189387E+01
  0
LINE
  8
0
 62
7
 10
-1.09569876E+01
 20
4.28189387E+01
 11
-9.56987601E-01
 21
4.28189387E+01
  0
LINE
  8
0
 62
7
 10
-1.09569876E+01
 20
5.38189387E+01
 11
-9.56987601E-01
 21
5.38189387E+01
  0
LINE
  8
0
 62
7
 10
-1.09569876E+01
 20
5.43189387E+01
 11
-1.09569876E+01
 21
4.23189387E+01
  0
LINE
  8
0
 62
7
 10
-2.39569876E+01
 20
5.43189387E+01
 11
-1.09569876E+01
 21
5.43189387E+01
  0
LINE
  8
0
 62
7
 10
-2.39569876E+01
 20
4.23189387E+01
 11
-1.09569876E+01
 21
4.23189387E+01
  0
LINE
  8
0
 62
7
 10
-2.39569876E+01
 20
5.43189387E+01
 11
-2.39569876E+01
 21
4.23189387E+01
  0
LINE
  8
0
 62
7
 10
-2.22269876E+01
 20
5.19289387E+01
 11
-1.26869876E+01
 21
5.19289387E+01
  0
LINE
  8
0
 62
7
 10
-2.22269876E+01
 20
4.47089387E+01
 11
-1.26869876E+01
 21
4.47089387E+01
  0
LINE
  8
0
 62
7
 10
-2.22269876E+01
 20
5.43189387E+01
 11
-2.22269876E+01
 21
5.19289387E+01
  0
LINE
  8
0
 62
7
 10
-1.26869876E+01
 20
5.43189387E+01
 11
-1.26869876E+01
 21
5.19289387E+01
  0
LINE
  8
0
 62
7
 10
-2.22269876E+01
 20
4.47089387E+01
 11
-2.22269876E+01
 21
4.23189387E+01
  0
LINE
  8
0
 62
7
 10
-1.26869876E+01
 20
4.47089387E+01
 11
-1.26869876E+01
 21
4.23189387E+01
  0
LINE
  8
0
  6
CENTER
 62
2
 10
-1.54569876E+01
 20
5.19289387E+01
 11
-1.54569876E+01
 21
4.47089387E+01
  0
LINE
  8
0
 62
7
 10
-8.19569876E+01
 20
4.96189387E+01
 11
-8.19569876E+01
 21
4.70189387E+01
  0
LINE
  8
0
 62
7
 10
-6.69569876E+01
 20
5.03189387E+01
 11
-6.69569876E+01
 21
4.63189387E+01
  0
LINE
  8
0
 62
7
 10
-8.12569876E+01
 20
5.03189387E+01
 11
-7.73769876E+01
 21
5.03189387E+01
  0
LINE
  8
0
 62
7
 10
-8.12569876E+01
 20
4.63189387E+01
 11
-7.73769876E+01
 21
4.63189387E+01
  0
LINE
  8
0
 62
7
 10
-8.12569876E+01
 20
5.03189387E+01
 11
-8.19569876E+01
 21
4.96189387E+01
  0
LINE
  8
0
 62
7
 10
-8.19569876E+01
 20
4.70189387E+01
 11
-8.12569876E+01
 21
4.63189387E+01
  0
LINE
  8
0
 62
7
 10
-8.12569876E+01
 20
5.03189387E+01
 11
-8.12569876E+01
 21
4.63189387E+01
  0
LINE
  8
0
 62
7
 10
-7.41769876E+01
 20
5.03189387E+01
 11
-3.19569876E+01
 21
5.03189387E+01
  0
LINE
  8
0
 62
7
 10
-7.41769876E+01
 20
4.63189387E+01
 11
-3.19569876E+01
 21
4.63189387E+01
  0
LINE
  8
0
 62
7
 10
7.50330124E+01
 20
5.43189387E+01
 11
7.50330124E+01
 21
4.99189387E+01
  0
LINE
  8
0
 62
7
 10
5.30330124E+01
 20
5.43189387E+01
 11
7.50330124E+01
 21
5.43189387E+01
  0
LINE
  8
0
 62
7
 10
5.47630124E+01
 20
5.19289387E+01
 11
7.33030124E+01
 21
5.19289387E+01
  0
LINE
  8
0
 62
7
 10
5.47630124E+01
 20
4.47089387E+01
 11
7.33030124E+01
 21
4.47089387E+01
  0
LINE
  8
0
 62
7
 10
5.30330124E+01
 20
4.23189387E+01
 11
7.50330124E+01
 21
4.23189387E+01
  0
LINE
  8
0
 62
7
 10
7.33030124E+01
 20
5.43189387E+01
 11
7.33030124E+01
 21
5.19289387E+01
  0
LINE
  8
0
 62
7
 10
7.33030124E+01
 20
4.47089387E+01
 11
7.33030124E+01
 21
4.23189387E+01
  0
LINE
  8
0
  6
CENTER
 62
2
 10
5.75330124E+01
 20
5.16989387E+01
 11
5.75330124E+01
 21
4.45389387E+01
  0
LINE
  8
0
  6
CENTER
 62
2
 10
7.00330124E+01
 20
5.63994050E+01
 11
7.00330124E+01
 21
4.01491217E+01
  0
LINE
  8
0
 62
7
 10
5.30330124E+01
 20
5.43189387E+01
 11
5.30330124E+01
 21
4.23189387E+01
  0
LINE
  8
0
 62
7
 10
5.47630124E+01
 20
5.43189387E+01
 11
5.47630124E+01
 21
5.19289387E+01
  0
LINE
  8
0
 62
7
 10
5.47630124E+01
 20
4.47089387E+01
 11
5.47630124E+01
 21
4.23189387E+01
  0
LINE
  8
0
 62
7
 10
6.20330124E+01
 20
4.67189387E+01
 11
7.50330124E+01
 21
4.67189387E+01
  0
LINE
  8
0
 62
7
 10
6.20330124E+01
 20
4.99189387E+01
 11
7.50330124E+01
 21
4.99189387E+01
  0
LINE
  8
0
 62
7
 10
6.20330124E+01
 20
4.99189387E+01
 11
6.20330124E+01
 21
4.67189387E+01
  0
LINE
  8
0
 62
7
 10
7.50330124E+01
 20
4.67189387E+01
 11
7.50330124E+01
 21
4.23189387E+01
  0
ARC
  8
0
 62
7
 10
-1.93381688E+01
 20
4.83189387E+01
 40
4.62356726E+00
 50
1.28667732E+02
 51
1.77403063E+02
  0
ARC
  8
0
 62
7
 10
-1.55826180E+01
 20
4.83189387E+01
 40
4.62782618E+00
 50
3.08733576E+02
 51
5.12664237E+01
  0
CIRCLE
  8
0
 62
2
 10
-1.54603934E+01
 20
4.83239389E+01
 40
2.50000000E+00
  0
ARC
  8
0
 62
7
 10
7.04148494E+01
 20
4.83204493E+01
 40
4.62433716E+00
 50
3.08649693E+02
 51
3.39737471E+02
  0
CIRCLE
  8
0
 62
2
 10
5.75395914E+01
 20
4.83239389E+01
 40
2.50000000E+00
  0
ARC
  8
0
 62
7
 10
5.76618312E+01
 20
4.83189387E+01
 40
4.62982188E+00
 50
1.28764356E+02
 51
2.31235644E+02
  0
ARC
  8
0
 62
7
 10
7.04195938E+01
 20
4.83208506E+01
 40
4.61870138E+00
 50
2.02430813E+01
 51
5.13697542E+01
  0
CIRCLE
  8
0
 62
7
 10
-1.54569876E+01
 20
4.83189387E+01
 40
2.06700000E+00
  0
CIRCLE
  8
0
 62
7
 10
5.75330124E+01
 20
4.83189387E+01
 40
2.06700000E+00
  0
LINE
  8
0
 62
2
 10
-7.41769876E+01
 20
4.66979387E+01
 11
-6.69569876E+01
 21
4.66979387E+01
  0
LINE
  8
0
 62
2
 10
-7.41769876E+01
 20
4.99399387E+01
 11
-6.69569876E+01
 21
4.99399387E+01
  0
LINE
  8
0
 62
2
 10
-8.16359876E+01
 20
4.66979387E+01
 11
-7.73769876E+01
 21
4.66979387E+01
  0
LINE
  8
0
 62
2
 10
-8.16359876E+01
 20
4.99399387E+01
 11
-7.73769876E+01
 21
4.99399387E+01
  0
LINE
  8
0
  6
CENTER
 62
2
 10
-8.37551206E+01
 20
4.83189387E+01
 11
6.34616611E+01
 21
4.83189387E+01
  0
LINE
  8
0
 62
4
 10
-1.03963526E+02
 20
-2.91866752E+01
 11
-1.03965026E+02
 21
-3.06866745E+01
  0
LINE
  8
0
 62
4
 10
-1.11963522E+02
 20
-2.91786749E+01
 11
-1.03963526E+02
 21
-2.91866752E+01
  0
LINE
  8
0
 62
4
 10
-1.11958522E+02
 20
-2.41786774E+01
 11
-1.03958526E+02
 21
-2.41866777E+01
  0
LINE
  8
0
 62
4
 10
-1.03957026E+02
 20
-2.26866785E+01
 11
-1.03958526E+02
 21
-2.41866777E+01
  0
LINE
  8
0
  6
CENTER
 62
6
 10
-9.99579491E+01
 20
-2.36119789E+01
 11
-9.99642564E+01
 21
-2.99189610E+01
  0
LINE
  8
0
 62
4
 10
-1.03965026E+02
 20
-3.06866745E+01
 11
-9.89650286E+01
 21
-3.06916747E+01
  0
LINE
  8
0
 62
4
 10
-1.03957026E+02
 20
-2.26866785E+01
 11
-9.89570283E+01
 21
-2.26916787E+01
  0
CIRCLE
  8
0
 62
4
 10
-9.99610280E+01
 20
-2.66906766E+01
 40
1.10000000E+00
  0
CIRCLE
  8
0
 62
4
 10
-9.99610280E+01
 20
-2.66906766E+01
 40
1.59999943E+00
  0
LINE
  8
0
 62
4
 10
-1.16967520E+02
 20
-3.31736727E+01
 11
-1.11967522E+02
 21
-3.31786729E+01
  0
LINE
  8
0
 62
4
 10
-1.11954792E+02
 20
-2.04486793E+01
 11
-1.11967522E+02
 21
-3.31786729E+01
  0
LINE
  8
0
 62
4
 10
-1.16954789E+02
 20
-2.04436791E+01
 11
-1.16967520E+02
 21
-3.31736727E+01
  0
LINE
  8
0
 62
4
 10
-1.16956689E+02
 20
-2.23436781E+01
 11
-1.11956692E+02
 21
-2.23486783E+01
  0
LINE
  8
0
 62
4
 10
-1.16954789E+02
 20
-2.04436791E+01
 11
-1.11954792E+02
 21
-2.04486793E+01
  0
LINE
  8
0
 62
4
 10
-1.16955149E+02
 20
-2.08036789E+01
 11
-1.11955152E+02
 21
-2.08086791E+01
  0
LINE
  8
0
  6
CENTER
 62
6
 10
-1.18944328E+02
 20
-2.66716926E+01
 11
-9.31035303E+01
 21
-2.66975344E+01
  0
ARC
  8
0
 62
4
 10
-9.89610285E+01
 20
-2.66916767E+01
 40
4.00000000E+00
 50
2.69942702E+02
 51
8.99427021E+01
  0
LINE
  8
0
  6
CENTER
 62
6
 10
-5.76776119E+01
 20
-2.07145874E+01
 11
-5.76776119E+01
 21
-3.61066148E+01
  0
LINE
  8
0
  6
CENTER
 62
6
 10
-6.72582068E+01
 20
-2.66956768E+01
 11
-4.84581221E+01
 21
-2.66956768E+01
  0
LINE
  8
0
 62
4
 10
-5.15776119E+01
 20
-3.06956768E+01
 11
-5.11776119E+01
 21
-3.06956768E+01
  0
LINE
  8
0
 62
4
 10
-6.45776119E+01
 20
-2.50956768E+01
 11
-6.45776119E+01
 21
-2.82956768E+01
  0
LINE
  8
0
 62
4
 10
-6.45776119E+01
 20
-2.50956768E+01
 11
-6.50776119E+01
 21
-2.55956768E+01
  0
LINE
  8
0
 62
4
 10
-6.50776119E+01
 20
-2.55956768E+01
 11
-6.50776119E+01
 21
-2.77956768E+01
  0
LINE
  8
0
 62
4
 10
-6.45776119E+01
 20
-2.82956768E+01
 11
-6.50776119E+01
 21
-2.77956768E+01
  0
LINE
  8
0
 62
4
 10
-6.45776119E+01
 20
-2.82956768E+01
 11
-5.15776119E+01
 21
-2.82956768E+01
  0
LINE
  8
0
 62
4
 10
-6.45776119E+01
 20
-2.50956768E+01
 11
-5.15776119E+01
 21
-2.50956768E+01
  0
ARC
  8
0
 62
4
 10
-5.76803470E+01
 20
-2.66956667E+01
 40
7.00087420E+00
 50
1.47744798E+02
 51
1.66788784E+02
  0
ARC
  8
0
 62
4
 10
-5.76773567E+01
 20
-2.66905968E+01
 40
7.00469417E+00
 50
1.93246650E+02
 51
3.30552688E+02
  0
ARC
  8
0
 62
4
 10
-5.76878102E+01
 20
-2.67316248E+01
 40
6.99693101E+00
 50
3.38502920E+02
 51
3.52080472E+02
  0
ARC
  8
0
 62
4
 10
-5.76803450E+01
 20
-2.67007163E+01
 40
7.49903105E+00
 50
3.30128328E+02
 51
3.52375597E+02
  0
LINE
  8
0
 62
4
 10
-5.11776119E+01
 20
-2.76956768E+01
 11
-5.00776119E+01
 21
-2.76956768E+01
  0
LINE
  8
0
 62
4
 10
-5.00776119E+01
 20
-2.56956768E+01
 11
-5.00776119E+01
 21
-2.76956768E+01
  0
LINE
  8
0
 62
4
 10
-5.11776119E+01
 20
-2.56956768E+01
 11
-5.00776119E+01
 21
-2.56956768E+01
  0
ARC
  8
0
 62
4
 10
-5.76772944E+01
 20
-2.66896019E+01
 40
7.49587013E+00
 50
7.61965181E+00
 51
2.98764230E+01
  0
LINE
  8
0
 62
4
 10
-5.15776119E+01
 20
-2.26956768E+01
 11
-5.11776119E+01
 21
-2.26956768E+01
  0
ARC
  8
0
 62
4
 10
-5.08787557E+01
 20
-2.24824060E+01
 40
5.05997495E-01
 50
1.35170308E+02
 51
2.04928438E+02
  0
ARC
  8
0
 62
4
 10
-5.08780180E+01
 20
-2.24794111E+01
 40
9.99382529E-01
 50
1.35237547E+02
 51
2.25570897E+02
  0
ARC
  8
0
 62
4
 10
-5.76853045E+01
 20
-2.66590711E+01
 40
6.99435861E+00
 50
7.91701914E+00
 51
2.14995887E+01
  0
LINE
  8
0
 62
4
 10
-5.11776119E+01
 20
-2.26956768E+01
 11
-5.11776119E+01
 21
-3.06956768E+01
  0
LINE
  8
0
 62
4
 10
-5.15876119E+01
 20
-2.17756768E+01
 11
-5.02876119E+01
 21
-2.04656768E+01
  0
LINE
  8
0
 62
4
 10
-5.02876119E+01
 20
-2.04656768E+01
 11
-4.99376119E+01
 21
-2.08256768E+01
  0
LINE
  8
0
 62
4
 10
-5.12376119E+01
 20
-2.21256768E+01
 11
-4.99376119E+01
 21
-2.08256768E+01
  0
ARC
  8
0
 62
4
 10
-5.76783191E+01
 20
-2.66898082E+01
 40
7.50010334E+00
 50
1.48272703E+02
 51
3.27716530E+02
  0
ARC
  8
0
 62
4
 10
-6.44751850E+01
 20
-2.24848930E+01
 40
9.94784285E-01
 50
3.28431721E+02
 51
4.54741939E+01
  0
ARC
  8
0
 62
4
 10
-6.44759154E+01
 20
-2.24789530E+01
 40
4.96104207E-01
 50
3.27477101E+02
 51
4.54060996E+01
  0
LINE
  8
0
 62
4
 10
-6.50776119E+01
 20
-2.04656768E+01
 11
-6.54276119E+01
 21
-2.08256768E+01
  0
LINE
  8
0
 62
4
 10
-6.50776119E+01
 20
-2.04656768E+01
 11
-6.37776119E+01
 21
-2.17756768E+01
  0
LINE
  8
0
 62
4
 10
-6.54276119E+01
 20
-2.08256768E+01
 11
-6.41276119E+01
 21
-2.21256768E+01
  0
LINE
  8
0
 62
4
 10
-5.15776119E+01
 20
-2.26956768E+01
 11
-5.15776119E+01
 21
-3.06956768E+01
  0
LINE
  8
0
  6
CENTER
 62
6
 10
4.21466545E+01
 20
-7.66791281E+01
 11
4.21466545E+01
 21
-8.46791281E+01
  0
LINE
  8
0
  6
CENTER
 62
6
 10
7.23466545E+01
 20
-7.66791281E+01
 11
7.23466545E+01
 21
-8.46791281E+01
  0
LINE
  8
0
  6
CENTER
 62
6
 10
5.72466545E+01
 20
-4.26791281E+01
 11
5.72466545E+01
 21
-8.46791281E+01
  0
LINE
  8
0
 62
4
 10
6.72466545E+01
 20
-7.96791281E+01
 11
7.72466545E+01
 21
-7.96791281E+01
  0
LINE
  8
0
 62
4
 10
7.72466545E+01
 20
-7.96791281E+01
 11
7.72466545E+01
 21
-8.16791281E+01
  0
LINE
  8
0
 62
4
 10
6.62466545E+01
 20
-7.66791281E+01
 11
6.62466545E+01
 21
-7.86791281E+01
  0
LINE
  8
0
 62
4
 10
6.42466545E+01
 20
-7.66791281E+01
 11
6.42466545E+01
 21
-7.86791281E+01
  0
LINE
  8
0
 62
4
 10
6.72466545E+01
 20
-8.16791281E+01
 11
7.72466545E+01
 21
-8.16791281E+01
  0
LINE
  8
0
 62
4
 10
4.82466545E+01
 20
-7.66791281E+01
 11
4.82466545E+01
 21
-7.86791281E+01
  0
LINE
  8
0
 62
4
 10
4.72466545E+01
 20
-7.96791281E+01
 11
3.72466545E+01
 21
-7.96791281E+01
  0
LINE
  8
0
 62
4
 10
3.72466545E+01
 20
-7.96791281E+01
 11
3.72466545E+01
 21
-8.16791281E+01
  0
LINE
  8
0
 62
4
 10
4.72466545E+01
 20
-8.16791281E+01
 11
3.72466545E+01
 21
-8.16791281E+01
  0
LINE
  8
0
 62
4
 10
5.02466545E+01
 20
-7.66791281E+01
 11
5.02466545E+01
 21
-7.86791281E+01
  0
LINE
  8
0
 62
4
 10
5.31466545E+01
 20
-8.16791281E+01
 11
6.13466545E+01
 21
-8.16791281E+01
  0
LINE
  8
0
 62
4
 10
5.31466545E+01
 20
-7.66791281E+01
 11
6.13466545E+01
 21
-7.66791281E+01
  0
ARC
  8
0
 62
4
 10
4.72466545E+01
 20
-7.86791281E+01
 40
3.00000000E+00
 50
2.70000000E+02
 51
0.00000000E+00
  0
ARC
  8
0
 62
4
 10
4.72466545E+01
 20
-7.86791281E+01
 40
1.00000000E+00
 50
2.70000000E+02
 51
0.00000000E+00
  0
ARC
  8
0
 62
4
 10
6.72466545E+01
 20
-7.86791281E+01
 40
1.00000000E+00
 50
1.80000000E+02
 51
2.70000000E+02
  0
ARC
  8
0
 62
4
 10
6.72466545E+01
 20
-7.86791281E+01
 40
3.00000000E+00
 50
1.80000000E+02
 51
2.70000000E+02
  0
LINE
  8
0
 62
4
 10
5.87966545E+01
 20
-6.46791281E+01
 11
6.32466545E+01
 21
-6.46791281E+01
  0
LINE
  8
0
  6
CENTER
 62
6
 10
5.26966545E+01
 20
-5.26791281E+01
 11
6.17966545E+01
 21
-5.26791281E+01
  0
LINE
  8
0
 62
4
 10
5.56966545E+01
 20
-4.56791281E+01
 11
5.87966545E+01
 21
-4.56791281E+01
  0
LINE
  8
0
 62
4
 10
6.32466545E+01
 20
-6.46791281E+01
 11
6.32466545E+01
 21
-7.36791281E+01
  0
LINE
  8
0
 62
4
 10
5.87966545E+01
 20
-4.56791281E+01
 11
5.87966545E+01
 21
-6.46791281E+01
  0
LINE
  8
0
 62
4
 10
5.12466545E+01
 20
-7.36791281E+01
 11
6.32466545E+01
 21
-7.36791281E+01
  0
LINE
  8
0
 62
4
 10
5.12466545E+01
 20
-7.56791281E+01
 11
6.32466545E+01
 21
-7.56791281E+01
  0
LINE
  8
0
 62
4
 10
5.56966545E+01
 20
-4.56791281E+01
 11
5.56966545E+01
 21
-6.46791281E+01
  0
LINE
  8
0
 62
4
 10
5.56966545E+01
 20
-6.46791281E+01
 11
5.12466545E+01
 21
-6.46791281E+01
  0
LINE
  8
0
 62
4
 10
5.12466545E+01
 20
-6.46791281E+01
 11
5.12466545E+01
 21
-7.36791281E+01
  0
LINE
  8
0
 62
4
 10
5.56966545E+01
 20
-4.72891281E+01
 11
5.87966545E+01
 21
-4.72891281E+01
  0
LINE
  8
0
 62
4
 10
5.31466545E+01
 20
-7.56791281E+01
 11
5.31466545E+01
 21
-8.16791281E+01
  0
LINE
  8
0
 62
4
 10
6.13466545E+01
 20
-7.56791281E+01
 11
6.13466545E+01
 21
-8.16791281E+01
  0
ARC
  8
0
 62
4
 10
5.12466545E+01
 20
-7.66791281E+01
 40
1.00000000E+00
 50
9.00000002E+01
 51
1.80000000E+02
  0
ARC
  8
0
 62
4
 10
5.12466545E+01
 20
-7.66791281E+01
 40
3.00000000E+00
 50
9.00000002E+01
 51
1.80000000E+02
  0
ARC
  8
0
 62
4
 10
6.32466545E+01
 20
-7.66791281E+01
 40
1.00000000E+00
 50
0.00000000E+00
 51
9.00000002E+01
  0
ARC
  8
0
 62
4
 10
6.32466545E+01
 20
-7.66791281E+01
 40
3.00000000E+00
 50
0.00000000E+00
 51
9.00000002E+01
  0
LINE
  8
0
 62
4
 10
1.01466545E+01
 20
-7.96741279E+01
 11
1.01466545E+01
 21
-8.16741279E+01
  0
LINE
  8
0
 62
4
 10
1.43466545E+01
 20
-7.96741279E+01
 11
1.43466545E+01
 21
-8.16741279E+01
  0
LINE
  8
0
  6
CENTER
 62
6
 10
1.22466545E+01
 20
-7.66741279E+01
 11
1.22466545E+01
 21
-8.46741279E+01
  0
LINE
  8
0
 62
4
 10
-1.85334551E+00
 20
-7.96741279E+01
 11
-1.85334551E+00
 21
-8.16741279E+01
  0
LINE
  8
0
 62
4
 10
2.34665449E+00
 20
-7.96741279E+01
 11
2.34665449E+00
 21
-8.16741279E+01
  0
LINE
  8
0
  6
CENTER
 62
6
 10
2.46654489E-01
 20
-7.66741279E+01
 11
2.46654489E-01
 21
-8.46741279E+01
  0
LINE
  8
0
 62
4
 10
-4.75334551E+00
 20
-8.16741279E+01
 11
1.72466545E+01
 21
-8.16741279E+01
  0
LINE
  8
0
 62
4
 10
-4.75334551E+00
 20
-7.96741279E+01
 11
1.72466545E+01
 21
-7.96741279E+01
  0
LINE
  8
0
  6
CENTER
 62
6
 10
-2.75334551E+00
 20
-5.26741279E+01
 11
1.52466545E+01
 21
-5.26741279E+01
  0
LINE
  8
0
 62
4
 10
2.46654489E-01
 20
-6.46741279E+01
 11
1.22466545E+01
 21
-6.46741279E+01
  0
LINE
  8
0
 62
4
 10
-4.75334551E+00
 20
-7.36741279E+01
 11
1.72466545E+01
 21
-7.36741279E+01
  0
LINE
  8
0
 62
4
 10
1.22466545E+01
 20
-4.72841279E+01
 11
1.22466545E+01
 21
-7.36741279E+01
  0
LINE
  8
0
 62
4
 10
2.46654489E-01
 20
-4.72841279E+01
 11
2.46654489E-01
 21
-7.36741279E+01
  0
CIRCLE
  8
0
 62
4
 10
6.24665449E+00
 20
-5.26741279E+01
 40
1.64999962E+00
  0
ARC
  8
0
 62
4
 10
6.24665449E+00
 20
-5.76741298E+01
 40
1.19980057E+01
 50
5.99945013E+01
 51
1.20005499E+02
  0
LINE
  8
0
  6
CENTER
 62
6
 10
6.24665449E+00
 20
-4.26741279E+01
 11
6.24665449E+00
 21
-8.46741279E+01
  0
LINE
  8
0
 62
4
 10
1.72466545E+01
 20
-7.36741279E+01
 11
1.72466545E+01
 21
-8.16741279E+01
  0
LINE
  8
0
 62
4
 10
-4.75334551E+00
 20
-7.36741279E+01
 11
-4.75334551E+00
 21
-8.16741279E+01
  0
LINE
  8
0
 62
4
 10
3.72466545E+01
 20
-1.16791338E+01
 11
3.72466545E+01
 21
-1.45791338E+01
  0
LINE
  8
0
 62
4
 10
4.82466545E+01
 20
-1.16791338E+01
 11
4.82466545E+01
 21
-3.36791338E+01
  0
LINE
  8
0
 62
4
 10
5.12466545E+01
 20
-1.66791338E+01
 11
5.12466545E+01
 21
-2.86791338E+01
  0
LINE
  8
0
  6
CENTER
 62
6
 10
5.72466545E+01
 20
-1.09715934E+01
 11
5.72466545E+01
 21
-3.45965722E+01
  0
LINE
  8
0
 62
4
 10
6.32466545E+01
 20
-1.66791338E+01
 11
6.32466545E+01
 21
-2.86791338E+01
  0
LINE
  8
0
 62
4
 10
6.62466545E+01
 20
-1.16791338E+01
 11
6.62466545E+01
 21
-3.36791338E+01
  0
LINE
  8
0
 62
4
 10
7.72466545E+01
 20
-1.16791338E+01
 11
7.72466545E+01
 21
-1.45791338E+01
  0
LINE
  8
0
  6
CENTER
 62
6
 10
8.02466545E+01
 20
-2.26791338E+01
 11
3.42466545E+01
 21
-2.26791338E+01
  0
LINE
  8
0
 62
4
 10
6.32466545E+01
 20
-2.86791338E+01
 11
5.12466545E+01
 21
-2.86791338E+01
  0
LINE
  8
0
 62
4
 10
7.72466545E+01
 20
-3.36791338E+01
 11
3.72466545E+01
 21
-3.36791338E+01
  0
LINE
  8
0
 62
4
 10
6.32466545E+01
 20
-1.66791338E+01
 11
5.12466545E+01
 21
-1.66791338E+01
  0
LINE
  8
0
 62
4
 10
7.72466545E+01
 20
-1.16791338E+01
 11
3.72466545E+01
 21
-1.16791338E+01
  0
LINE
  8
0
 62
4
 10
7.72466545E+01
 20
-1.45791338E+01
 11
7.23466545E+01
 21
-1.45791338E+01
  0
LINE
  8
0
 62
4
 10
7.72466545E+01
 20
-1.87791338E+01
 11
7.23466545E+01
 21
-1.87791338E+01
  0
LINE
  8
0
 62
4
 10
7.72466545E+01
 20
-2.65791338E+01
 11
7.23466545E+01
 21
-2.65791338E+01
  0
LINE
  8
0
 62
4
 10
7.72466545E+01
 20
-3.07791338E+01
 11
7.23466545E+01
 21
-3.07791338E+01
  0
LINE
  8
0
 62
4
 10
5.87966545E+01
 20
-1.66791338E+01
 11
5.87966545E+01
 21
-2.86791338E+01
  0
LINE
  8
0
 62
4
 10
5.56966545E+01
 20
-1.66791338E+01
 11
5.56966545E+01
 21
-2.86791338E+01
  0
LINE
  8
0
  6
CENTER
 62
6
 10
8.02466545E+01
 20
-1.66791338E+01
 11
6.72466545E+01
 21
-1.66791338E+01
  0
LINE
  8
0
  6
CENTER
 62
6
 10
8.02466545E+01
 20
-2.86791338E+01
 11
6.72466545E+01
 21
-2.86791338E+01
  0
LINE
  8
0
 62
4
 10
4.21466545E+01
 20
-1.45791338E+01
 11
3.72466545E+01
 21
-1.45791338E+01
  0
LINE
  8
0
 62
4
 10
4.21466545E+01
 20
-1.87791338E+01
 11
3.72466545E+01
 21
-1.87791338E+01
  0
LINE
  8
0
 62
4
 10
4.21466545E+01
 20
-2.65791338E+01
 11
3.72466545E+01
 21
-2.65791338E+01
  0
LINE
  8
0
 62
4
 10
4.21466545E+01
 20
-3.07791338E+01
 11
3.72466545E+01
 21
-3.07791338E+01
  0
LINE
  8
0
 62
4
 10
7.72466545E+01
 20
-1.89391338E+01
 11
7.72466545E+01
 21
-2.65791338E+01
  0
LINE
  8
0
 62
4
 10
7.72466545E+01
 20
-3.07791338E+01
 11
7.72466545E+01
 21
-3.36791338E+01
  0
LINE
  8
0
 62
4
 10
3.72466545E+01
 20
-1.87791338E+01
 11
3.72466545E+01
 21
-2.65791338E+01
  0
LINE
  8
0
 62
4
 10
3.72466545E+01
 20
-3.07791338E+01
 11
3.72466545E+01
 21
-3.36791338E+01
  0
LINE
  8
0
  6
CENTER
 62
6
 10
7.23466545E+01
 20
-1.07884541E+01
 11
7.23466545E+01
 21
-3.45965722E+01
  0
LINE
  8
0
  6
CENTER
 62
6
 10
4.21466545E+01
 20
-1.09715934E+01
 11
4.21466545E+01
 21
-3.45965722E+01
  0
LINE
  8
0
  6
CENTER
 62
6
 10
4.72466545E+01
 20
-1.66791338E+01
 11
3.42466545E+01
 21
-1.66791338E+01
  0
LINE
  8
0
  6
CENTER
 62
6
 10
4.72466545E+01
 20
-2.86791338E+01
 11
3.42466545E+01
 21
-2.86791338E+01
  0
ARC
  8
0
 62
4
 10
7.23466545E+01
 20
-2.86791338E+01
 40
2.10000000E+00
 50
9.00000002E+01
 51
2.70000000E+02
  0
ARC
  8
0
 62
4
 10
4.21466545E+01
 20
-2.86791338E+01
 40
2.10000000E+00
 50
2.70000000E+02
 51
9.00000002E+01
  0
ARC
  8
0
 62
4
 10
4.21466545E+01
 20
-1.66791338E+01
 40
2.10000000E+00
 50
2.70000000E+02
 51
9.00000002E+01
  0
ARC
  8
0
 62
4
 10
7.23466545E+01
 20
-1.66791338E+01
 40
2.10000000E+00
 50
9.00000002E+01
 51
2.70000000E+02
  0
TEXT
  8
0
 62
7
 10
-5.71374690E+01
 20
-8.84000011E+01
 40
3.20000005E+00
  1
-5
 41
1.00000000E+00
  7
MONOTXT
  0
TEXT
  8
0
 62
7
 10
-5.71374690E+01
 20
-8.24000031E+01
 40
3.20000005E+00
  1
-5
 41
1.00000000E+00
  7
MONOTXT
  0
TEXT
  8
0
 62
7
 10
-5.71374690E+01
 20
-7.03963805E+01
 40
3.20000005E+00
  1
25
 41
1.00000000E+00
  7
MONOTXT
  0
TEXT
  8
0
 62
7
 10
-7.07374691E+01
 20
-8.84000011E+01
 40
3.20000005E+00
  1
-10
 41
1.00000000E+00
  7
MONOTXT
  0
TEXT
  8
0
 62
7
 10
-7.07374691E+01
 20
-8.24000031E+01
 40
3.20000005E+00
  1
-10
 41
1.00000000E+00
  7
MONOTXT
  0
TEXT
  8
0
 62
7
 10
-6.91374690E+01
 20
-7.03963805E+01
 40
3.20000005E+00
  1
20
 41
1.00000000E+00
  7
MONOTXT
  0
LINE
  8
0
 62
7
 10
-4.83999939E+01
 20
-5.98000031E+01
 11
-4.83999939E+01
 21
-8.98000031E+01
  0
LINE
  8
0
 62
7
 10
-6.03999939E+01
 20
-5.98000031E+01
 11
-6.03999939E+01
 21
-8.98000031E+01
  0
TEXT
  8
0
 62
7
 10
-1.06737469E+02
 20
-8.84000011E+01
 40
3.20000005E+00
  1
-30
 41
1.00000000E+00
  7
MONOTXT
  0
TEXT
  8
0
 62
7
 10
-9.47374691E+01
 20
-8.84000011E+01
 40
3.20000005E+00
  1
-25
 41
1.00000000E+00
  7
MONOTXT
  0
TEXT
  8
0
 62
7
 10
-8.27374691E+01
 20
-8.84000011E+01
 40
3.20000005E+00
  1
-20
 41
1.00000000E+00
  7
MONOTXT
  0
TEXT
  8
0
 62
7
 10
-4.35374690E+01
 20
-8.84000011E+01
 40
3.20000005E+00
  1
0
 41
1.00000000E+00
  7
MONOTXT
  0
TEXT
  8
0
 62
7
 10
-1.22037469E+02
 20
-8.84000031E+01
 40
3.20000005E+00
  1
B
 41
1.00000000E+00
  7
MONOTXT
  0
TEXT
  8
0
 62
7
 10
-1.22037469E+02
 20
-8.24000031E+01
 40
3.20000005E+00
  1
A
 41
1.00000000E+00
  7
MONOTXT
  0
TEXT
  8
0
 62
7
 10
-1.32241000E+02
 20
-7.19763780E+01
 40
3.20000005E+00
  1
STRETCH
 41
1.00000000E+00
  7
MONOTXT
  0
TEXT
  8
0
 62
7
 10
-1.32241000E+02
 20
-7.67763782E+01
 40
3.20000005E+00
  1
  PLACE
 41
1.20689655E+00
  7
MONOTXT
  0
TEXT
  8
0
 62
7
 10
-1.06737469E+02
 20
-8.24000031E+01
 40
3.20000005E+00
  1
-25
 41
1.00000000E+00
  7
MONOTXT
  0
TEXT
  8
0
 62
7
 10
-9.47374691E+01
 20
-8.24000031E+01
 40
3.20000005E+00
  1
-20
 41
1.00000000E+00
  7
MONOTXT
  0
TEXT
  8
0
 62
7
 10
-8.27374691E+01
 20
-8.24000031E+01
 40
3.20000005E+00
  1
-15
 41
1.00000000E+00
  7
MONOTXT
  0
TEXT
  8
0
 62
7
 10
-4.35374690E+01
 20
-8.24000031E+01
 40
3.20000005E+00
  1
0
 41
1.00000000E+00
  7
MONOTXT
  0
TEXT
  8
0
 62
7
 10
-1.03537469E+02
 20
-7.03963805E+01
 40
3.20000005E+00
  1
5
 41
1.00000000E+00
  7
MONOTXT
  0
TEXT
  8
0
 62
7
 10
-9.31374690E+01
 20
-7.03963805E+01
 40
3.20000005E+00
  1
10
 41
1.00000000E+00
  7
MONOTXT
  0
TEXT
  8
0
 62
7
 10
-8.11374690E+01
 20
-7.03963805E+01
 40
3.20000005E+00
  1
15
 41
1.00000000E+00
  7
MONOTXT
  0
TEXT
  8
0
 62
7
 10
-4.51374690E+01
 20
-7.03963805E+01
 40
3.20000005E+00
  1
30
 41
1.00000000E+00
  7
MONOTXT
  0
TEXT
  8
0
 62
7
 10
-1.29037469E+02
 20
-6.43963843E+01
 40
3.20000005E+00
  1
STROKE
 41
1.00000000E+00
  7
MONOTXT
  0
LINE
  8
0
 62
7
 10
-1.33399994E+02
 20
-5.98000031E+01
 11
-1.33399994E+02
 21
-8.98000031E+01
  0
LINE
  8
0
 62
7
 10
-1.33399994E+02
 20
-6.58000031E+01
 11
-1.10509994E+02
 21
-6.58000031E+01
  0
LINE
  8
0
 62
7
 10
-1.08399994E+02
 20
-7.78000031E+01
 11
-1.10509994E+02
 21
-6.58000031E+01
  0
LINE
  8
0
 62
7
 10
-1.33399994E+02
 20
-7.78000031E+01
 11
-3.63999939E+01
 21
-7.78000031E+01
  0
LINE
  8
0
 62
7
 10
-1.33399994E+02
 20
-5.98000031E+01
 11
-3.63999939E+01
 21
-5.98000031E+01
  0
LINE
  8
0
 62
7
 10
-3.63999939E+01
 20
-5.98000031E+01
 11
-3.63999939E+01
 21
-8.98000031E+01
  0
LINE
  8
0
 62
7
 10
-7.23999939E+01
 20
-5.98000031E+01
 11
-7.23999939E+01
 21
-8.98000031E+01
  0
LINE
  8
0
 62
7
 10
-8.43999939E+01
 20
-5.98000031E+01
 11
-8.43999939E+01
 21
-8.98000031E+01
  0
LINE
  8
0
 62
7
 10
-9.63999939E+01
 20
-5.98000031E+01
 11
-9.63999939E+01
 21
-8.98000031E+01
  0
LINE
  8
0
 62
7
 10
-1.08399994E+02
 20
-5.98000031E+01
 11
-1.08399994E+02
 21
-8.98000031E+01
  0
LINE
  8
0
 62
7
 10
-1.33399994E+02
 20
-8.38000031E+01
 11
-3.63999939E+01
 21
-8.38000031E+01
  0
LINE
  8
0
 62
7
 10
-1.33399994E+02
 20
-8.98000031E+01
 11
-3.63999939E+01
 21
-8.98000031E+01
  0
TEXT
  8
0
 62
7
 10
-4.83429940E+01
 20
-5.83963843E+01
 40
3.20000005E+00
  1
(mm)
 41
1.00000000E+00
  7
MONOTXT
  0
TEXT
  8
0
 62
7
 10
-1.03642994E+02
 20
-5.83963843E+01
 40
3.20000005E+00
  1
STRETCH LIST
 41
1.05263158E+00
  7
MONOTXT
  0
TEXT
  8
0
 10
-7.58585199E+01
 20
6.70639124E+01
 40
3.20000005E+00
  1
STRETCH LINE A
 41
1.09375000E+00
  7
MONOTXT
  0
TEXT
  8
0
 10
4.14148008E+00
 20
6.70639124E+01
 40
3.20000005E+00
  1
STRETCH LINE B
 41
1.09375000E+00
  7
MONOTXT
  0
LINE
  8
0
 62
7
 10
-1.38399994E+02
 20
9.45000000E+01
 11
1.38350006E+02
 21
9.45000000E+01
  0
LINE
  8
0
 62
7
 10
1.38350006E+02
 20
9.45000000E+01
 11
1.38350006E+02
 21
-9.48000031E+01
  0
LINE
  8
0
 62
7
 10
-1.38399994E+02
 20
-9.48000031E+01
 11
1.38350006E+02
 21
-9.48000031E+01
  0
LINE
  8
0
 62
7
 10
-1.38399994E+02
 20
9.45000000E+01
 11
-1.38399994E+02
 21
-9.48000031E+01
  0
LINE
  8
0
 62
7
 10
7.33500061E+01
 20
-8.48000031E+01
 11
1.38350006E+02
 21
-8.48000031E+01
  0
LINE
  8
0
 62
7
 10
-1.38399994E+02
 20
8.45000000E+01
 11
-7.33999939E+01
 21
8.45000000E+01
  0
LINE
  8
0
 62
7
 10
7.33500061E+01
 20
8.45000000E+01
 11
1.38350006E+02
 21
8.45000000E+01
  0
LINE
  8
0
 62
7
 10
7.33500061E+01
 20
-8.48000031E+01
 11
7.33500061E+01
 21
-9.48000031E+01
  0
LINE
  8
0
 62
7
 10
7.33500061E+01
 20
9.45000000E+01
 11
7.33500061E+01
 21
8.45000000E+01
  0
LINE
  8
0
 62
7
 10
-7.33999939E+01
 20
9.45000000E+01
 11
-7.33999939E+01
 21
8.45000000E+01
  0
TEXT
  8
0
 62
7
 10
7.72426624E+01
 20
-9.20500031E+01
 40
4.50000000E+00
  1
KOGANEI CORP.
 41
1.04838710E+00
  7
MONOTXT
  0
TEXT
  8
0
 62
7
 10
9.35071483E+01
 20
8.79000000E+01
 40
3.20000005E+00
  1
Ver. 1.1
 41
1.08108108E+00
  7
MONOTXT
  0
TEXT
  8
0
 62
7
 10
-1.31042852E+02
 20
8.79000000E+01
 40
3.20000005E+00
  1
NEW PEN CYLINDER
 41
1.08108108E+00
  7
MONOTXT
  0
TEXT
  8
0
 62
7
 10
-1.29085994E+02
 20
7.29000000E+01
 40
3.20000005E+00
  1
MODEL:PBTAS10*ST(30)-7-ZC230
 41
1.00000000E+00
  7
MONOTXT
  0
ENDSEC
  0
EOF
