  0
SECTION
  2
HEADER
  9
$ACADVER
  1
AC1003
  9
$EXTMIN
 10
-1.38399994E+02
 20
-9.48000031E+01
  9
$EXTMAX
 10
1.38350006E+02
 20
9.45000000E+01
  9
$LIMMIN
 10
-1.38400994E+02
 20
-9.48010031E+01
  9
$LIMMAX
 10
1.38351006E+02
 20
9.45010000E+01
  9
$SNAPUNIT
 10
1
 20
1
  9
$SNAPBASE
 10
0
 20
0
  9
$GRIDMODE
 70
0
  9
$GRIDUNIT
 10
0
 20
0
  9
$LTSCALE
 40
4.61250000E+00
  9
$TEXTSIZE
 40
3.2
  9
$DIMTAD
 70
0
  9
$LUNITS
 70
2
  9
$LUPREC
 70
4
  9
$FILLETRAD
 40
0
  9
$AUNITS
 70
0
  9
$AUPREC
 70
0
  0
ENDSEC
  0
SECTION
  2
TABLES
  0
TABLE
  2
LTYPE
 70
2
  0
LTYPE
  2
CONTINUOUS
 70
64
  3
Solid-Line
 72
65
 73
0
 40
0
  0
LTYPE
  2
DASHED
 70
64
  3
DASHED
 72
65
 73
2
 40
.75
 49
.5
 49
-.25
  0
LTYPE
  2
HIDDEN
 70
64
  3
HIDDEN
 72
65
 73
2
 40
.375
 49
.25
 49
-.125
  0
LTYPE
  2
CENTER
 70
64
  3
CENTER
 72
65
 73
4
 40
2
 49
1.25
 49
-.25
 49
.25
 49
-.25
  0
LTYPE
  2
PHANTOM
 70
64
  3
PHANTOM
 72
65
 73
6
 40
2.5
 49
1.25
 49
-.25
 49
.25
 49
-.25
 49
.25
 49
-.25
  0
ENDTAB
  0
TABLE
  2
LAYER
 70
1
  0
LAYER
  2
1
 70
0
 62
7
  6
CONTINUOUS
 0
ENDTAB
  0
TABLE
  2
STYLE
 70
2
  0
STYLE
  2
MONOTXT
 70
0
 40
0
 41
1
 50
0
 71
0
 42
.2
  3
monotxt
  0
STYLE
  2
BIGFONT
 70
0
 40
0
 41
1
 50
0
 71
0
 42
.2
  3
txt
  4
bigfont
  0
ENDTAB
  0
ENDSEC
  0
SECTION
  2
ENTITIES
  0
LINE
  8
0
 62
4
 10
2.31586118E+01
 20
4.52917560E+01
 11
2.31586118E+01
 21
4.12917560E+01
  0
LINE
  8
0
 62
4
 10
2.31586118E+01
 20
4.52917560E+01
 11
2.61586118E+01
 21
4.45917560E+01
  0
LINE
  8
0
 62
4
 10
3.65861179E+00
 20
4.62917560E+01
 11
3.65861179E+00
 21
4.34917560E+01
  0
LINE
  8
0
 62
4
 10
1.76586118E+01
 20
4.62917560E+01
 11
1.76586118E+01
 21
4.34917560E+01
  0
LINE
  8
0
 62
4
 10
-1.84138821E+00
 20
4.42917560E+01
 11
-8.41388208E-01
 21
4.52917560E+01
  0
LINE
  8
0
 62
4
 10
-8.41388208E-01
 20
4.52917560E+01
 11
-8.41388208E-01
 21
4.12917560E+01
  0
LINE
  8
0
  6
CENTER
 62
6
 10
1.06586118E+01
 20
5.50017560E+01
 11
1.06586118E+01
 21
2.75717560E+01
  0
LINE
  8
0
 62
4
 10
1.51586118E+01
 20
4.34917560E+01
 11
1.51586118E+01
 21
4.99917560E+01
  0
LINE
  8
0
 62
4
 10
6.15861179E+00
 20
4.34917560E+01
 11
6.15861179E+00
 21
4.99917560E+01
  0
LINE
  8
0
  6
PHANTOM
 10
3.22020039E+01
 20
3.88012891E+01
 11
3.22020039E+01
 21
5.95180246E+01
  0
LINE
  8
0
  6
PHANTOM
 10
2.33889760E+01
 20
3.34107396E+01
 11
2.33889760E+01
 21
3.88012891E+01
  0
LINE
  8
0
  6
PHANTOM
 10
-4.77979961E+01
 20
1.46634414E+01
 11
-4.77979961E+01
 21
5.95180246E+01
  0
TEXT
  8
0
 62
7
 10
1.60726743E+01
 20
3.05917560E+01
 40
1.50000000E+00
  1
PBTAS10
 41
1.00000000E+00
  7
MONOTXT
  0
ARC
  8
0
 62
7
 10
-1.22225694E+01
 20
3.49917560E+01
 40
4.62356726E+00
 50
1.82596937E+02
 51
2.31332268E+02
  0
LINE
  8
0
  6
PHANTOM
 10
2.33889760E+01
 20
3.88012891E+01
 11
3.22020039E+01
 21
3.88012891E+01
  0
LINE
  8
0
 62
7
 10
1.51586118E+01
 20
2.94917560E+01
 11
3.61486118E+01
 21
2.94917560E+01
  0
LINE
  8
0
 62
7
 10
1.76586118E+01
 20
4.04917560E+01
 11
3.61486118E+01
 21
4.04917560E+01
  0
LINE
  8
0
 62
4
 10
1.76586118E+01
 20
4.12917560E+01
 11
2.31586118E+01
 21
4.12917560E+01
  0
LINE
  8
0
 62
4
 10
3.65861179E+00
 20
4.30917560E+01
 11
3.65861179E+00
 21
3.99917560E+01
  0
LINE
  8
0
 62
4
 10
1.76586118E+01
 20
4.30917560E+01
 11
1.76586118E+01
 21
3.99917560E+01
  0
LINE
  8
0
 62
4
 10
6.15861179E+00
 20
4.34917560E+01
 11
1.51586118E+01
 21
4.34917560E+01
  0
LINE
  8
0
 62
4
 10
1.51586118E+01
 20
4.30917560E+01
 11
1.76586118E+01
 21
4.30917560E+01
  0
LINE
  8
0
 62
4
 10
3.65861178E+00
 20
4.34917560E+01
 11
6.15861179E+00
 21
4.34917560E+01
  0
LINE
  8
0
 62
4
 10
3.65861178E+00
 20
4.30917560E+01
 11
6.15861179E+00
 21
4.30917560E+01
  0
LINE
  8
0
 62
4
 10
6.15861178E+00
 20
2.93457033E+01
 11
1.51586118E+01
 21
2.93457033E+01
  0
LINE
  8
0
 62
4
 10
1.51586118E+01
 20
4.34917560E+01
 11
1.51586118E+01
 21
2.93417560E+01
  0
LINE
  8
0
 62
4
 10
6.15861179E+00
 20
4.34917560E+01
 11
6.15861179E+00
 21
2.93417560E+01
  0
LINE
  8
0
 62
4
 10
1.51586118E+01
 20
4.34917560E+01
 11
1.76586118E+01
 21
4.34917560E+01
  0
LINE
  8
0
 62
4
 10
6.15861179E+00
 20
2.93417560E+01
 11
1.51586118E+01
 21
2.93417560E+01
  0
LINE
  8
0
 62
4
 10
-1.84138821E+00
 20
4.42917560E+01
 11
-1.84138821E+00
 21
4.22917560E+01
  0
LINE
  8
0
 62
4
 10
-8.41388208E-01
 20
4.12917560E+01
 11
3.65861179E+00
 21
4.12917560E+01
  0
LINE
  8
0
 62
4
 10
-1.84138821E+00
 20
4.22917560E+01
 11
-8.41388208E-01
 21
4.12917560E+01
  0
LINE
  8
0
 62
4
 10
3.65861179E+00
 20
3.99917560E+01
 11
6.15861179E+00
 21
3.99917560E+01
  0
LINE
  8
0
 62
4
 10
1.51586118E+01
 20
3.99917560E+01
 11
1.76586118E+01
 21
3.99917560E+01
  0
LINE
  8
0
 62
4
 10
2.61586118E+01
 20
4.45917560E+01
 11
3.10956109E+01
 21
4.45917560E+01
  0
LINE
  8
0
 62
4
 10
2.61586118E+01
 20
4.19917560E+01
 11
2.84956109E+01
 21
4.19917560E+01
  0
LINE
  8
0
 62
4
 10
2.31586118E+01
 20
4.12917560E+01
 11
2.61586118E+01
 21
4.19917560E+01
  0
LINE
  8
0
 62
4
 10
2.61586118E+01
 20
4.45917560E+01
 11
2.61586118E+01
 21
4.19917560E+01
  0
LINE
  8
0
 62
6
 10
3.10956109E+01
 20
4.45917560E+01
 11
2.84956109E+01
 21
4.19917560E+01
  0
LINE
  8
0
 62
4
 10
6.01486118E+01
 20
3.53547569E+01
 11
6.01486118E+01
 21
2.94917560E+01
  0
LINE
  8
0
 62
7
 10
4.51486118E+01
 20
2.94917560E+01
 11
6.01486118E+01
 21
2.94917560E+01
  0
LINE
  8
0
 62
7
 10
4.51486118E+01
 20
4.04917560E+01
 11
6.01486118E+01
 21
4.04917560E+01
  0
LINE
  8
0
  6
CENTER
 62
6
 10
4.06486118E+01
 20
4.22917560E+01
 11
4.06486118E+01
 21
2.68117560E+01
  0
LINE
  8
0
 62
4
 10
4.26486118E+01
 20
4.08562349E+01
 11
4.26486118E+01
 21
3.98389509E+01
  0
LINE
  8
0
 62
4
 10
4.51486118E+01
 20
2.93417560E+01
 11
4.51486118E+01
 21
4.08562349E+01
  0
LINE
  8
0
 62
4
 10
3.61486118E+01
 20
2.93417560E+01
 11
3.61486118E+01
 21
4.08562349E+01
  0
LINE
  8
0
 62
4
 10
3.61486118E+01
 20
3.98389509E+01
 11
4.51486118E+01
 21
3.98389509E+01
  0
LINE
  8
0
 62
6
 10
6.10856109E+01
 20
3.62917560E+01
 11
5.84856109E+01
 21
3.36917560E+01
  0
LINE
  8
0
 62
4
 10
5.31486118E+01
 20
3.29917560E+01
 11
5.61486118E+01
 21
3.36917560E+01
  0
LINE
  8
0
 62
4
 10
5.61486118E+01
 20
3.62917560E+01
 11
5.61486118E+01
 21
3.36917560E+01
  0
LINE
  8
0
 62
4
 10
5.61486118E+01
 20
3.36917560E+01
 11
5.84856109E+01
 21
3.36917560E+01
  0
LINE
  8
0
 62
4
 10
5.61486118E+01
 20
3.62917560E+01
 11
6.10856109E+01
 21
3.62917560E+01
  0
LINE
  8
0
 62
4
 10
5.31486118E+01
 20
3.69917560E+01
 11
5.61486118E+01
 21
3.62917560E+01
  0
LINE
  8
0
 62
4
 10
3.61486118E+01
 20
3.92917927E+01
 11
4.51486118E+01
 21
3.92917927E+01
  0
LINE
  8
0
 62
4
 10
3.61486118E+01
 20
3.06917560E+01
 11
4.51486118E+01
 21
3.06917560E+01
  0
LINE
  8
0
 62
4
 10
3.36486118E+01
 20
3.17417560E+01
 11
3.36486118E+01
 21
3.82417560E+01
  0
LINE
  8
0
 62
4
 10
3.61486118E+01
 20
2.93417560E+01
 11
4.51486118E+01
 21
2.93417560E+01
  0
LINE
  8
0
 62
4
 10
4.17586118E+01
 20
3.38917560E+01
 11
4.17086118E+01
 21
3.39317560E+01
  0
LINE
  8
0
 62
4
 10
3.95886118E+01
 20
3.39317560E+01
 11
4.17086118E+01
 21
3.60517560E+01
  0
LINE
  8
0
 62
4
 10
4.16586118E+01
 20
3.39917560E+01
 11
3.95886118E+01
 21
3.60517560E+01
  0
LINE
  8
0
 62
4
 10
5.31486118E+01
 20
3.69917560E+01
 11
5.31486118E+01
 21
3.29917560E+01
  0
LINE
  8
0
 62
4
 10
2.81486118E+01
 20
3.59917560E+01
 11
2.81486118E+01
 21
3.39917560E+01
  0
LINE
  8
0
 62
4
 10
2.91486118E+01
 20
3.29917560E+01
 11
3.36486118E+01
 21
3.29917560E+01
  0
LINE
  8
0
 62
4
 10
2.91486118E+01
 20
3.69917560E+01
 11
3.36486118E+01
 21
3.69917560E+01
  0
LINE
  8
0
 62
4
 10
2.91486118E+01
 20
3.69917560E+01
 11
2.91486118E+01
 21
3.29917560E+01
  0
LINE
  8
0
 62
4
 10
2.81486118E+01
 20
3.59917560E+01
 11
2.91486118E+01
 21
3.69917560E+01
  0
LINE
  8
0
 62
4
 10
2.81486118E+01
 20
3.39917560E+01
 11
2.91486118E+01
 21
3.29917560E+01
  0
LINE
  8
0
 62
4
 10
3.36486118E+01
 20
3.17417560E+01
 11
3.61486118E+01
 21
3.17417560E+01
  0
LINE
  8
0
 62
4
 10
3.36486118E+01
 20
3.82417560E+01
 11
3.61486118E+01
 21
3.82417560E+01
  0
LINE
  8
0
 62
4
 10
4.76486118E+01
 20
3.17417560E+01
 11
4.76486118E+01
 21
3.82417560E+01
  0
LINE
  8
0
 62
4
 10
4.51486118E+01
 20
3.82417560E+01
 11
4.76486118E+01
 21
3.82417560E+01
  0
LINE
  8
0
 62
4
 10
4.51486118E+01
 20
3.17417560E+01
 11
4.76486118E+01
 21
3.17417560E+01
  0
LINE
  8
0
 62
4
 10
4.76486118E+01
 20
3.69917560E+01
 11
5.31486118E+01
 21
3.69917560E+01
  0
LINE
  8
0
 62
4
 10
4.76486118E+01
 20
3.29917560E+01
 11
5.31486118E+01
 21
3.29917560E+01
  0
CIRCLE
  8
0
 62
4
 10
4.06477365E+01
 20
3.49892975E+01
 40
2.50000000E+00
  0
LINE
  8
0
 62
4
 10
3.86486118E+01
 20
4.00917560E+01
 11
4.26486118E+01
 21
4.00917560E+01
  0
LINE
  8
0
 62
4
 10
3.61486118E+01
 20
4.08562349E+01
 11
4.51486118E+01
 21
4.08562349E+01
  0
LINE
  8
0
 62
4
 10
3.86486118E+01
 20
3.98389509E+01
 11
3.86486118E+01
 21
4.08562349E+01
  0
LINE
  8
0
 62
4
 10
6.01486118E+01
 20
2.94917560E+01
 11
6.56486118E+01
 21
2.94917560E+01
  0
LINE
  8
0
 62
4
 10
6.01486118E+01
 20
4.04917560E+01
 11
6.56486118E+01
 21
4.04917560E+01
  0
CIRCLE
  8
0
 62
7
 10
-8.34138821E+00
 20
3.49917560E+01
 40
2.06700000E+00
  0
LINE
  8
0
 62
7
 10
-1.89313882E+01
 20
3.89917560E+01
 11
-1.68413882E+01
 21
3.89917560E+01
  0
LINE
  8
0
 62
7
 10
-1.68413882E+01
 20
4.09917560E+01
 11
-1.68413882E+01
 21
2.89917560E+01
  0
ARC
  8
0
 62
7
 10
-8.46701856E+00
 20
3.49917560E+01
 40
4.62782618E+00
 50
3.08733576E+02
 51
5.12664237E+01
  0
CIRCLE
  8
0
 62
2
 10
-8.34479397E+00
 20
3.49867562E+01
 40
2.50000000E+00
  0
LINE
  8
0
 62
7
 10
-5.57138821E+00
 20
3.13817560E+01
 11
-5.57138821E+00
 21
2.89917560E+01
  0
LINE
  8
0
 62
7
 10
-1.51113882E+01
 20
3.13817560E+01
 11
-1.51113882E+01
 21
2.89917560E+01
  0
LINE
  8
0
 62
7
 10
-5.57138821E+00
 20
4.09917560E+01
 11
-5.57138821E+00
 21
3.86017560E+01
  0
LINE
  8
0
 62
7
 10
-1.51113882E+01
 20
4.09917560E+01
 11
-1.51113882E+01
 21
3.86017560E+01
  0
LINE
  8
0
 62
7
 10
-1.51113882E+01
 20
3.13817560E+01
 11
-5.57138821E+00
 21
3.13817560E+01
  0
LINE
  8
0
 62
7
 10
-1.51113882E+01
 20
3.86017560E+01
 11
-5.57138821E+00
 21
3.86017560E+01
  0
LINE
  8
0
  6
CENTER
 62
2
 10
-8.34138821E+00
 20
3.86017560E+01
 11
-8.34138821E+00
 21
3.13817560E+01
  0
LINE
  8
0
 62
4
 10
6.61486118E+01
 20
2.99917560E+01
 11
6.56486118E+01
 21
2.94917560E+01
  0
LINE
  8
0
 62
4
 10
6.56486118E+01
 20
4.04917560E+01
 11
6.61486118E+01
 21
3.99917560E+01
  0
LINE
  8
0
 62
4
 10
6.61486118E+01
 20
3.99917560E+01
 11
6.61486118E+01
 21
2.99917560E+01
  0
LINE
  8
0
 62
4
 10
6.56486118E+01
 20
4.04917560E+01
 11
6.56486118E+01
 21
2.94917560E+01
  0
LINE
  8
0
 62
4
 10
6.01486118E+01
 20
4.04917560E+01
 11
6.01486118E+01
 21
3.62917560E+01
  0
LINE
  8
0
 62
7
 10
-3.84138821E+00
 20
4.09917560E+01
 11
-3.84138821E+00
 21
2.89917560E+01
  0
LINE
  8
0
 62
7
 10
-3.84138821E+00
 20
4.04917560E+01
 11
3.65861179E+00
 21
4.04917560E+01
  0
LINE
  8
0
 62
7
 10
-3.84138821E+00
 20
2.94917560E+01
 11
6.15861179E+00
 21
2.94917560E+01
  0
LINE
  8
0
 62
7
 10
-1.68413882E+01
 20
4.09917560E+01
 11
-3.84138821E+00
 21
4.09917560E+01
  0
LINE
  8
0
 62
7
 10
-1.68413882E+01
 20
2.89917560E+01
 11
-3.84138821E+00
 21
2.89917560E+01
  0
ARC
  8
0
 62
7
 10
-1.22225694E+01
 20
3.49917560E+01
 40
4.62356726E+00
 50
1.28667732E+02
 51
1.77403063E+02
  0
LINE
  8
0
 62
2
 10
-2.29313882E+01
 20
3.16782560E+01
 11
-2.47178882E+01
 21
3.16782560E+01
  0
LINE
  8
0
 62
2
 10
-2.29313882E+01
 20
3.83152560E+01
 11
-2.47178882E+01
 21
3.83152560E+01
  0
LINE
  8
0
 62
2
 10
-6.70613882E+01
 20
3.33807560E+01
 11
-5.98413882E+01
 21
3.33807560E+01
  0
LINE
  8
0
 62
2
 10
-6.70613882E+01
 20
3.66127560E+01
 11
-5.98413882E+01
 21
3.66127560E+01
  0
LINE
  8
0
 62
2
 10
-7.45258810E+01
 20
3.33807560E+01
 11
-7.02613882E+01
 21
3.33807560E+01
  0
LINE
  8
0
 62
2
 10
-7.45203882E+01
 20
3.66127560E+01
 11
-7.02613882E+01
 21
3.66127560E+01
  0
LINE
  8
0
 62
2
 10
-1.83413882E+01
 20
3.83152560E+01
 11
-1.89313882E+01
 21
3.83152560E+01
  0
LINE
  8
0
 62
2
 10
-1.83413882E+01
 20
3.16782560E+01
 11
-1.89313882E+01
 21
3.16782560E+01
  0
LINE
  8
0
 62
7
 10
-2.48413882E+01
 20
3.81917560E+01
 11
-2.48413882E+01
 21
3.18017560E+01
  0
LINE
  8
0
 62
7
 10
-2.40413882E+01
 20
3.89917560E+01
 11
-2.29313882E+01
 21
3.89917560E+01
  0
LINE
  8
0
 62
7
 10
-2.40413882E+01
 20
3.10017560E+01
 11
-2.29313882E+01
 21
3.10017560E+01
  0
LINE
  8
0
 62
7
 10
-2.40413882E+01
 20
3.89917560E+01
 11
-2.48413882E+01
 21
3.81917560E+01
  0
LINE
  8
0
 62
7
 10
-2.48413882E+01
 20
3.18017560E+01
 11
-2.40413882E+01
 21
3.10017560E+01
  0
LINE
  8
0
 62
7
 10
-2.40413882E+01
 20
3.89917560E+01
 11
-2.40413882E+01
 21
3.10017560E+01
  0
LINE
  8
0
 62
7
 10
-1.83413882E+01
 20
3.89917560E+01
 11
-1.83413882E+01
 21
3.10017560E+01
  0
LINE
  8
0
 62
7
 10
-7.48413882E+01
 20
3.62917560E+01
 11
-7.48413882E+01
 21
3.36917560E+01
  0
LINE
  8
0
 62
7
 10
-5.98413882E+01
 20
3.69917560E+01
 11
-5.98413882E+01
 21
3.30017560E+01
  0
LINE
  8
0
 62
7
 10
-7.41413882E+01
 20
3.69917560E+01
 11
-7.02613882E+01
 21
3.69917560E+01
  0
LINE
  8
0
 62
7
 10
-7.41413882E+01
 20
3.30017560E+01
 11
-7.02613882E+01
 21
3.30017560E+01
  0
LINE
  8
0
 62
7
 10
-7.41413882E+01
 20
3.69917560E+01
 11
-7.48413882E+01
 21
3.62917560E+01
  0
LINE
  8
0
 62
7
 10
-7.48413882E+01
 20
3.36917560E+01
 11
-7.41413882E+01
 21
3.30017560E+01
  0
LINE
  8
0
 62
7
 10
-7.41413882E+01
 20
3.69917560E+01
 11
-7.41413882E+01
 21
3.30017560E+01
  0
LINE
  8
0
  6
CENTER
 62
2
 10
-7.68413882E+01
 20
3.49917560E+01
 11
6.81486118E+01
 21
3.49917560E+01
  0
LINE
  8
0
 62
4
 10
-7.02613882E+01
 20
3.83917560E+01
 11
-7.02613882E+01
 21
3.16017560E+01
  0
LINE
  8
0
 62
4
 10
-6.70613882E+01
 20
3.83917560E+01
 11
-6.70613882E+01
 21
3.16017560E+01
  0
LINE
  8
0
 62
4
 10
-6.98913882E+01
 20
3.90317560E+01
 11
-6.74313882E+01
 21
3.90317560E+01
  0
LINE
  8
0
 62
4
 10
-6.98913882E+01
 20
3.09617560E+01
 11
-6.74313882E+01
 21
3.09617560E+01
  0
LINE
  8
0
 62
4
 10
-6.98913882E+01
 20
3.70117560E+01
 11
-6.74313882E+01
 21
3.70117560E+01
  0
LINE
  8
0
 62
4
 10
-6.98913882E+01
 20
3.29817560E+01
 11
-6.74313882E+01
 21
3.29817560E+01
  0
LINE
  8
0
 62
7
 10
-6.70613882E+01
 20
3.69917560E+01
 11
-2.48413882E+01
 21
3.69917560E+01
  0
LINE
  8
0
 62
7
 10
-6.70613882E+01
 20
3.30017560E+01
 11
-2.48413882E+01
 21
3.30017560E+01
  0
LINE
  8
0
 62
4
 10
-7.02613882E+01
 20
3.83917560E+01
 11
-6.98913882E+01
 21
3.90317560E+01
  0
LINE
  8
0
 62
4
 10
-6.74313882E+01
 20
3.90317560E+01
 11
-6.70613882E+01
 21
3.83917560E+01
  0
LINE
  8
0
 62
4
 10
-7.02613882E+01
 20
3.16017560E+01
 11
-6.98913882E+01
 21
3.09617560E+01
  0
LINE
  8
0
 62
4
 10
-6.74313882E+01
 20
3.09617560E+01
 11
-6.70613882E+01
 21
3.16017560E+01
  0
LINE
  8
0
 62
4
 10
-2.29313882E+01
 20
4.09917560E+01
 11
-2.29313882E+01
 21
2.90017560E+01
  0
LINE
  8
0
 62
4
 10
-1.89313882E+01
 20
4.09917560E+01
 11
-1.89313882E+01
 21
2.90017560E+01
  0
LINE
  8
0
 62
4
 10
-2.24013882E+01
 20
3.84517560E+01
 11
-1.94713882E+01
 21
3.84517560E+01
  0
LINE
  8
0
 62
4
 10
-2.24013882E+01
 20
3.15417560E+01
 11
-1.94713882E+01
 21
3.15417560E+01
  0
LINE
  8
0
 62
4
 10
-2.24013882E+01
 20
2.80717560E+01
 11
-1.94713882E+01
 21
2.80717560E+01
  0
LINE
  8
0
 62
4
 10
-2.24013882E+01
 20
4.19217560E+01
 11
-1.94713882E+01
 21
4.19217560E+01
  0
LINE
  8
0
 62
4
 10
-2.29313882E+01
 20
4.09917560E+01
 11
-2.24013882E+01
 21
4.19217560E+01
  0
LINE
  8
0
 62
7
 10
-1.89313882E+01
 20
3.10017560E+01
 11
-1.68413882E+01
 21
3.10017560E+01
  0
LINE
  8
0
 62
4
 10
-1.89313882E+01
 20
4.09917560E+01
 11
-1.94713882E+01
 21
4.19217560E+01
  0
LINE
  8
0
 62
4
 10
-2.29313882E+01
 20
2.90017560E+01
 11
-2.24013882E+01
 21
2.80717560E+01
  0
LINE
  8
0
 62
4
 10
-1.89313882E+01
 20
2.90017560E+01
 11
-1.94713882E+01
 21
2.80717560E+01
  0
ARC
  8
0
 62
4
 10
-6.87047092E+01
 20
3.80217560E+01
 40
1.55830260E+00
 50
1.39598403E+02
 51
2.20401597E+02
  0
ARC
  8
0
 62
4
 10
-6.45700290E+01
 20
3.49967560E+01
 40
5.69008693E+00
 50
1.59260195E+02
 51
2.00739805E+02
  0
ARC
  8
0
 62
4
 10
-7.27662112E+01
 20
3.49967560E+01
 40
5.70268020E+00
 50
3.39308098E+02
 51
2.06919019E+01
  0
ARC
  8
0
 62
4
 10
-6.86315309E+01
 20
3.80217560E+01
 40
1.56857978E+00
 50
3.19917156E+02
 51
4.00828446E+01
  0
ARC
  8
0
 62
4
 10
-6.87047092E+01
 20
3.19717560E+01
 40
1.55830260E+00
 50
1.39598403E+02
 51
2.20401597E+02
  0
ARC
  8
0
 62
4
 10
-6.86315309E+01
 20
3.19717560E+01
 40
1.56857978E+00
 50
3.19917156E+02
 51
4.00828446E+01
  0
ARC
  8
0
 62
4
 10
-1.98738874E+01
 20
4.01867560E+01
 40
3.06569493E+00
 50
1.45532394E+02
 51
2.14467606E+02
  0
ARC
  8
0
 62
4
 10
-1.14767672E+01
 20
3.49967560E+01
 40
1.14579391E+01
 50
1.62450019E+02
 51
1.97549981E+02
  0
ARC
  8
0
 62
4
 10
-1.98738874E+01
 20
2.98067560E+01
 40
3.06569493E+00
 50
1.45532394E+02
 51
2.14467606E+02
  0
ARC
  8
0
 62
4
 10
-2.20078697E+01
 20
4.01867560E+01
 40
3.07310324E+00
 50
3.25627155E+02
 51
3.43728456E+01
  0
ARC
  8
0
 62
4
 10
-3.04049746E+01
 20
3.49967560E+01
 40
1.14664876E+01
 50
3.42463527E+02
 51
1.75364728E+01
  0
ARC
  8
0
 62
4
 10
-2.20078697E+01
 20
2.98067560E+01
 40
3.07310324E+00
 50
3.25627155E+02
 51
3.43728456E+01
  0
LINE
  8
0
 62
4
 10
1.76586118E+01
 20
4.52917560E+01
 11
2.31586118E+01
 21
4.52917560E+01
  0
LINE
  8
0
 62
4
 10
1.51586118E+01
 20
4.62917560E+01
 11
1.76586118E+01
 21
4.62917560E+01
  0
LINE
  8
0
 62
4
 10
3.65861178E+00
 20
4.62917560E+01
 11
6.15861179E+00
 21
4.62917560E+01
  0
LINE
  8
0
 62
6
 10
9.42861179E+00
 20
5.09917560E+01
 11
9.42861179E+00
 21
4.99917560E+01
  0
LINE
  8
0
 62
6
 10
1.18886118E+01
 20
5.09917560E+01
 11
1.18886118E+01
 21
4.99917560E+01
  0
LINE
  8
0
 62
4
 10
9.15861179E+00
 20
5.09917560E+01
 11
9.15861179E+00
 21
4.99917560E+01
  0
LINE
  8
0
 62
4
 10
1.21586118E+01
 20
5.09917560E+01
 11
1.21586118E+01
 21
4.99917560E+01
  0
LINE
  8
0
 62
4
 10
3.65861179E+00
 20
4.52917560E+01
 11
-8.41388208E-01
 21
4.52917560E+01
  0
LINE
  8
0
 62
4
 10
6.15861179E+00
 20
4.99917560E+01
 11
1.51586118E+01
 21
4.99917560E+01
  0
LINE
  8
0
 62
4
 10
8.15861179E+00
 20
5.09917560E+01
 11
1.31586118E+01
 21
5.09917560E+01
  0
LINE
  8
0
 62
4
 10
9.15861179E+00
 20
5.24917560E+01
 11
1.21586118E+01
 21
5.24917560E+01
  0
LINE
  8
0
 62
4
 10
1.31586118E+01
 20
5.14917560E+01
 11
1.31586118E+01
 21
5.09917560E+01
  0
LINE
  8
0
 62
4
 10
8.15861179E+00
 20
5.14917560E+01
 11
8.15861179E+00
 21
5.09917560E+01
  0
ARC
  8
0
 62
4
 10
9.15940328E+00
 20
5.14909645E+01
 40
1.00079180E+00
 50
9.00000002E+01
 51
1.79954687E+02
  0
ARC
  8
0
 62
4
 10
1.21569461E+01
 20
5.14900903E+01
 40
1.00166704E+00
 50
9.52762946E-02
 51
8.99047236E+01
  0
LINE
  8
0
  6
PHANTOM
 10
2.33889760E+01
 20
3.34107396E+01
 11
2.76631709E+01
 21
3.34107396E+01
  0
LINE
  8
0
  6
PHANTOM
 10
2.76631709E+01
 20
3.34107396E+01
 11
2.76631709E+01
 21
1.46634414E+01
  0
ARC
  8
0
 62
7
 10
-1.02744871E+02
 20
3.50102950E+01
 40
7.00111833E+00
 50
3.00882066E+02
 51
3.28878703E+02
  0
CIRCLE
  8
0
 62
4
 10
-1.02758429E+02
 20
3.49967571E+01
 40
6.00000000E+00
  0
ARC
  8
0
 62
7
 10
-1.02757408E+02
 20
3.49957362E+01
 40
6.99403112E+00
 50
2.11017088E+02
 51
2.38982912E+02
  0
LINE
  8
0
 62
4
 10
-1.02751388E+02
 20
2.80717560E+01
 11
-9.67513882E+01
 21
3.15417560E+01
  0
LINE
  8
0
 62
4
 10
-1.08751388E+02
 20
3.15417560E+01
 11
-1.02751388E+02
 21
2.80717560E+01
  0
LINE
  8
0
  6
CENTER
 62
2
 10
-1.02751388E+02
 20
5.38599266E+01
 11
-1.02751388E+02
 21
2.70017560E+01
  0
LINE
  8
0
 62
4
 10
-9.64513882E+01
 20
3.29417560E+01
 11
-9.64513882E+01
 21
3.70417560E+01
  0
ARC
  8
0
 62
4
 10
-8.62437615E+01
 20
3.64993827E+01
 40
9.92402587E-01
 50
3.59559672E+02
 51
9.04403286E+01
  0
ARC
  8
0
 62
4
 10
-8.62515178E+01
 20
3.34918855E+01
 40
1.00012957E+00
 50
2.70000000E+02
 51
3.59992577E+02
  0
ARC
  8
0
 62
4
 10
-8.85437630E+01
 20
3.84993812E+01
 40
7.92411497E-01
 50
3.59448647E+02
 51
9.05513523E+01
  0
ARC
  8
0
 62
4
 10
-8.85515266E+01
 20
3.14918943E+01
 40
8.00138358E-01
 50
2.70000000E+02
 51
3.59990093E+02
  0
ARC
  8
0
 62
4
 10
-8.90437630E+01
 20
3.79993812E+01
 40
4.92433852E-01
 50
3.59112757E+02
 51
9.08872431E+01
  0
ARC
  8
0
 62
4
 10
-8.90515484E+01
 20
3.19919161E+01
 40
5.00160181E-01
 50
2.70000000E+02
 51
3.59981653E+02
  0
LINE
  8
0
 62
4
 10
-8.92513882E+01
 20
3.64917560E+01
 11
-9.04513882E+01
 21
3.64917560E+01
  0
LINE
  8
0
 62
6
 10
-8.92513882E+01
 20
3.62217560E+01
 11
-9.07213882E+01
 21
3.62217560E+01
  0
LINE
  8
0
 62
6
 10
-8.92513882E+01
 20
3.37617560E+01
 11
-9.07213882E+01
 21
3.37617560E+01
  0
LINE
  8
0
 62
4
 10
-8.92513882E+01
 20
3.34917560E+01
 11
-9.04513882E+01
 21
3.34917560E+01
  0
LINE
  8
0
 62
4
 10
-8.52513882E+01
 20
3.34917560E+01
 11
-8.52513882E+01
 21
3.64917560E+01
  0
LINE
  8
0
 62
4
 10
-8.62513882E+01
 20
3.24917560E+01
 11
-8.67513882E+01
 21
3.24917560E+01
  0
LINE
  8
0
 62
4
 10
-8.62513882E+01
 20
3.74917560E+01
 11
-8.67513882E+01
 21
3.74917560E+01
  0
LINE
  8
0
 62
6
 10
-8.67513882E+01
 20
3.37617560E+01
 11
-8.77513882E+01
 21
3.37617560E+01
  0
LINE
  8
0
 62
6
 10
-8.67513882E+01
 20
3.62217560E+01
 11
-8.77513882E+01
 21
3.62217560E+01
  0
LINE
  8
0
 62
4
 10
-8.67513882E+01
 20
3.64917560E+01
 11
-8.77513882E+01
 21
3.64917560E+01
  0
LINE
  8
0
 62
4
 10
-8.67513882E+01
 20
3.34917560E+01
 11
-8.77513882E+01
 21
3.34917560E+01
  0
LINE
  8
0
 62
4
 10
-9.22607944E+01
 20
4.01496478E+01
 11
-9.18213882E+01
 21
4.08917560E+01
  0
LINE
  8
0
 62
4
 10
-9.13799555E+01
 20
4.00639050E+01
 11
-9.13613882E+01
 21
4.00917560E+01
  0
LINE
  8
0
 62
4
 10
-8.90513882E+01
 20
3.14917560E+01
 11
-8.90513882E+01
 21
3.16417560E+01
  0
LINE
  8
0
 62
4
 10
-8.90513882E+01
 20
3.16417560E+01
 11
-9.42513882E+01
 21
3.16417560E+01
  0
LINE
  8
0
 62
4
 10
-9.18213882E+01
 20
3.92917560E+01
 11
-9.16565493E+01
 21
3.95884660E+01
  0
LINE
  8
0
 62
4
 10
-8.94513882E+01
 20
4.00917560E+01
 11
-9.13613882E+01
 21
4.00917560E+01
  0
LINE
  8
0
 62
4
 10
-8.94513882E+01
 20
4.00917560E+01
 11
-8.94513882E+01
 21
4.08917560E+01
  0
LINE
  8
0
 62
4
 10
-8.94513882E+01
 20
4.08917560E+01
 11
-9.18213882E+01
 21
4.08917560E+01
  0
LINE
  8
0
 62
4
 10
-9.27513882E+01
 20
3.92917560E+01
 11
-9.25287796E+01
 21
3.96733707E+01
  0
LINE
  8
0
 62
4
 10
-9.49513882E+01
 20
3.84917560E+01
 11
-9.49513882E+01
 21
3.92917560E+01
  0
LINE
  8
0
 62
4
 10
-9.42513882E+01
 20
3.06917560E+01
 11
-9.42513882E+01
 21
3.14917560E+01
  0
LINE
  8
0
 62
4
 10
-8.85513882E+01
 20
3.29317560E+01
 11
-8.92513882E+01
 21
3.29917560E+01
  0
LINE
  8
0
 62
4
 10
-8.85513882E+01
 20
3.70517560E+01
 11
-8.92513882E+01
 21
3.69917560E+01
  0
LINE
  8
0
 62
4
 10
-8.85513882E+01
 20
3.06917560E+01
 11
-9.42513882E+01
 21
3.06917560E+01
  0
LINE
  8
0
 62
4
 10
-8.85513882E+01
 20
3.92917560E+01
 11
-9.49513882E+01
 21
3.92917560E+01
  0
LINE
  8
0
 62
4
 10
-8.85513882E+01
 20
3.19917560E+01
 11
-8.85513882E+01
 21
3.79917560E+01
  0
LINE
  8
0
 62
4
 10
-8.92513882E+01
 20
3.29917560E+01
 11
-8.92513882E+01
 21
3.69917560E+01
  0
LINE
  8
0
 62
4
 10
-8.77513882E+01
 20
3.14917560E+01
 11
-8.77513882E+01
 21
3.84917560E+01
  0
LINE
  8
0
 62
4
 10
-8.67513882E+01
 20
3.24917560E+01
 11
-8.67513882E+01
 21
3.74917560E+01
  0
LINE
  8
0
 62
4
 10
-8.90513882E+01
 20
3.14917560E+01
 11
-9.42513882E+01
 21
3.14917560E+01
  0
LINE
  8
0
 62
4
 10
-8.90513882E+01
 20
3.84917560E+01
 11
-9.49513882E+01
 21
3.84917560E+01
  0
LINE
  8
0
 62
4
 10
-9.42513882E+01
 20
3.17417560E+01
 11
-9.42513882E+01
 21
3.29417560E+01
  0
LINE
  8
0
 62
4
 10
-9.46513882E+01
 20
3.17417560E+01
 11
-9.46513882E+01
 21
3.29417560E+01
  0
LINE
  8
0
 62
4
 10
-9.14513882E+01
 20
3.17417560E+01
 11
-9.14513882E+01
 21
3.82417560E+01
  0
LINE
  8
0
 62
4
 10
-9.21513882E+01
 20
3.39917560E+01
 11
-9.21513882E+01
 21
3.59917560E+01
  0
LINE
  8
0
 62
4
 10
-9.21513882E+01
 20
3.59917560E+01
 11
-9.24513882E+01
 21
3.59917560E+01
  0
LINE
  8
0
 62
4
 10
-9.21513882E+01
 20
3.39917560E+01
 11
-9.24513882E+01
 21
3.39917560E+01
  0
LINE
  8
0
 62
4
 10
-9.24513882E+01
 20
3.29417560E+01
 11
-9.24513882E+01
 21
3.70417560E+01
  0
LINE
  8
0
 62
4
 10
-9.07513882E+01
 20
3.17417560E+01
 11
-9.07513882E+01
 21
3.82417560E+01
  0
LINE
  8
0
 62
4
 10
-9.07513882E+01
 20
3.17417560E+01
 11
-9.42513882E+01
 21
3.17417560E+01
  0
LINE
  8
0
 62
4
 10
-9.56013882E+01
 20
3.98217560E+01
 11
-9.55868556E+01
 21
3.99710503E+01
  0
LINE
  8
0
 62
4
 10
-8.91174338E+01
 20
3.93413031E+01
 11
-8.90689917E+01
 21
3.98389509E+01
  0
LINE
  8
0
 62
4
 10
-9.04513882E+01
 20
3.64917560E+01
 11
-9.07513882E+01
 21
3.61917560E+01
  0
LINE
  8
0
 62
4
 10
-9.04513882E+01
 20
3.34917560E+01
 11
-9.07513882E+01
 21
3.37917560E+01
  0
LINE
  8
0
 62
4
 10
-9.34513882E+01
 20
3.39417560E+01
 11
-9.34513882E+01
 21
3.60417560E+01
  0
LINE
  8
0
 62
4
 10
-9.34513882E+01
 20
3.60417560E+01
 11
-9.54513882E+01
 21
3.60417560E+01
  0
LINE
  8
0
 62
4
 10
-9.34513882E+01
 20
3.39417560E+01
 11
-9.54513882E+01
 21
3.39417560E+01
  0
LINE
  8
0
 62
4
 10
-9.54513882E+01
 20
3.60810932E+01
 11
-9.54513882E+01
 21
3.39417560E+01
  0
LINE
  8
0
 62
4
 10
-9.24513882E+01
 20
3.70417560E+01
 11
-9.34513882E+01
 21
3.60417560E+01
  0
LINE
  8
0
 62
4
 10
-9.24513882E+01
 20
3.29417560E+01
 11
-9.34513882E+01
 21
3.39417560E+01
  0
LINE
  8
0
 62
4
 10
-9.54513882E+01
 20
3.39417560E+01
 11
-9.64513882E+01
 21
3.29417560E+01
  0
LINE
  8
0
 62
4
 10
-9.54513882E+01
 20
3.60417560E+01
 11
-9.64513882E+01
 21
3.70417560E+01
  0
LINE
  8
0
 62
4
 10
-8.90689917E+01
 20
3.98389509E+01
 11
-9.88230209E+01
 21
4.07884288E+01
  0
LINE
  8
0
 62
4
 10
-8.91174338E+01
 20
3.93413031E+01
 11
-9.80866744E+01
 21
4.02143880E+01
  0
LINE
  8
0
 62
4
 10
-9.56013882E+01
 20
3.98217560E+01
 11
-9.79046787E+01
 21
4.00459632E+01
  0
LINE
  8
0
 62
4
 10
-9.42513882E+01
 20
3.14917560E+01
 11
-9.72583810E+01
 21
3.06552677E+01
  0
LINE
  8
0
 62
4
 10
-9.42513882E+01
 20
3.16417560E+01
 11
-9.71117368E+01
 21
3.08483795E+01
  0
LINE
  8
0
 62
4
 10
-9.07513882E+01
 20
3.82417560E+01
 11
-9.67513882E+01
 21
3.82417560E+01
  0
LINE
  8
0
 62
4
 10
-9.24513882E+01
 20
3.70417560E+01
 11
-9.64513882E+01
 21
3.70417560E+01
  0
LINE
  8
0
 62
4
 10
-9.46513882E+01
 20
3.17417560E+01
 11
-9.67513882E+01
 21
3.17417560E+01
  0
LINE
  8
0
 62
4
 10
-9.24513882E+01
 20
3.29417560E+01
 11
-9.64513882E+01
 21
3.29417560E+01
  0
LINE
  8
0
 62
4
 10
-1.01701388E+02
 20
4.22917560E+01
 11
-1.00701388E+02
 21
4.12917560E+01
  0
LINE
  8
0
 62
4
 10
-1.03801388E+02
 20
4.22917560E+01
 11
-1.04801388E+02
 21
4.12917560E+01
  0
LINE
  8
0
 62
4
 10
-1.00701388E+02
 20
4.52917560E+01
 11
-1.01701388E+02
 21
4.42917560E+01
  0
LINE
  8
0
 62
4
 10
-1.04801388E+02
 20
4.52917560E+01
 11
-1.03801388E+02
 21
4.42917560E+01
  0
LINE
  8
0
 62
4
 10
-1.03840725E+02
 20
4.22917560E+01
 11
-1.01701388E+02
 21
4.22917560E+01
  0
LINE
  8
0
 62
4
 10
-1.01701388E+02
 20
4.42917560E+01
 11
-1.01701388E+02
 21
4.22917560E+01
  0
LINE
  8
0
 62
4
 10
-1.03801388E+02
 20
4.42917560E+01
 11
-1.03801388E+02
 21
4.22917560E+01
  0
LINE
  8
0
 62
4
 10
-1.01701388E+02
 20
4.42917560E+01
 11
-1.03801388E+02
 21
4.42917560E+01
  0
LINE
  8
0
 62
4
 10
-1.03840725E+02
 20
4.12917560E+01
 11
-1.04801388E+02
 21
4.12917560E+01
  0
LINE
  8
0
 62
4
 10
-1.01251388E+02
 20
4.72917560E+01
 11
-1.01551388E+02
 21
4.69917560E+01
  0
LINE
  8
0
 62
4
 10
-1.04251388E+02
 20
4.72917560E+01
 11
-1.03951388E+02
 21
4.69917560E+01
  0
LINE
  8
0
 62
4
 10
-1.07100935E+02
 20
4.86257104E+01
 11
-1.07598583E+02
 21
4.86741525E+01
  0
LINE
  8
0
 62
4
 10
-1.07598583E+02
 20
4.86741525E+01
 11
-1.08548061E+02
 21
3.89201233E+01
  0
LINE
  8
0
 62
4
 10
-1.07581388E+02
 20
4.21417560E+01
 11
-1.07730683E+02
 21
4.21562886E+01
  0
LINE
  8
0
 62
4
 10
-1.07100935E+02
 20
4.86257104E+01
 11
-1.07974020E+02
 21
3.96564698E+01
  0
LINE
  8
0
 62
4
 10
-1.07581388E+02
 20
4.21417560E+01
 11
-1.07805595E+02
 21
3.98384655E+01
  0
LINE
  8
0
 62
4
 10
-9.92513882E+01
 20
4.34917560E+01
 11
-9.84148999E+01
 21
4.04847632E+01
  0
LINE
  8
0
 62
4
 10
-9.94013882E+01
 20
4.34917560E+01
 11
-9.86080117E+01
 21
4.06314074E+01
  0
LINE
  8
0
 62
4
 10
-1.06001388E+02
 20
4.69917560E+01
 11
-1.06001388E+02
 21
4.09917560E+01
  0
LINE
  8
0
 62
4
 10
-9.95013882E+01
 20
4.69917560E+01
 11
-9.95013882E+01
 21
4.34917560E+01
  0
LINE
  8
0
 62
4
 10
-9.95013882E+01
 20
4.69917560E+01
 11
-1.06001388E+02
 21
4.69917560E+01
  0
LINE
  8
0
 62
4
 10
-1.00701388E+02
 20
4.12917560E+01
 11
-1.01662051E+02
 21
4.12917560E+01
  0
LINE
  8
0
 62
4
 10
-1.04801388E+02
 20
4.52917560E+01
 11
-1.04801388E+02
 21
4.12917560E+01
  0
LINE
  8
0
 62
4
 10
-1.00701388E+02
 20
4.52917560E+01
 11
-1.04801388E+02
 21
4.52917560E+01
  0
LINE
  8
0
 62
4
 10
-1.01751388E+02
 20
4.55917560E+01
 11
-1.01751388E+02
 21
4.52917560E+01
  0
LINE
  8
0
 62
4
 10
-1.03751388E+02
 20
4.55917560E+01
 11
-1.03751388E+02
 21
4.52917560E+01
  0
LINE
  8
0
 62
4
 10
-1.01751388E+02
 20
4.55917560E+01
 11
-1.03751388E+02
 21
4.55917560E+01
  0
LINE
  8
0
 62
4
 10
-9.95013882E+01
 20
4.62917560E+01
 11
-1.06001388E+02
 21
4.62917560E+01
  0
LINE
  8
0
 62
4
 10
-9.95013882E+01
 20
4.30917560E+01
 11
-1.00701388E+02
 21
4.30917560E+01
  0
LINE
  8
0
 62
4
 10
-9.95013882E+01
 20
4.34917560E+01
 11
-1.00701388E+02
 21
4.34917560E+01
  0
LINE
  8
0
 62
4
 10
-9.95013882E+01
 20
4.30917560E+01
 11
-9.95013882E+01
 21
4.09917560E+01
  0
LINE
  8
0
 62
4
 10
-1.00701388E+02
 20
4.52917560E+01
 11
-1.00701388E+02
 21
4.12917560E+01
  0
LINE
  8
0
 62
4
 10
-1.06251388E+02
 20
4.86917560E+01
 11
-1.06251388E+02
 21
4.27917560E+01
  0
LINE
  8
0
 62
4
 10
-9.92513882E+01
 20
4.86917560E+01
 11
-9.92513882E+01
 21
4.34917560E+01
  0
LINE
  8
0
 62
4
 10
-1.00251388E+02
 20
5.09917560E+01
 11
-1.05251388E+02
 21
5.09917560E+01
  0
LINE
  8
0
 62
4
 10
-9.92513882E+01
 20
4.99917560E+01
 11
-1.06251388E+02
 21
4.99917560E+01
  0
LINE
  8
0
 62
4
 10
-1.00751388E+02
 20
4.84917560E+01
 11
-1.04751388E+02
 21
4.84917560E+01
  0
LINE
  8
0
 62
4
 10
-9.97513882E+01
 20
4.91917560E+01
 11
-1.05751388E+02
 21
4.91917560E+01
  0
LINE
  8
0
 62
4
 10
-1.07051388E+02
 20
4.91917560E+01
 11
-1.07051388E+02
 21
4.27917560E+01
  0
LINE
  8
0
 62
4
 10
-9.84513882E+01
 20
4.91917560E+01
 11
-9.84513882E+01
 21
4.34917560E+01
  0
LINE
  8
0
 62
4
 10
-1.04811388E+02
 20
4.91917560E+01
 11
-1.04751388E+02
 21
4.84917560E+01
  0
LINE
  8
0
 62
4
 10
-1.00691388E+02
 20
4.91917560E+01
 11
-1.00751388E+02
 21
4.84917560E+01
  0
LINE
  8
0
 62
4
 10
-9.84513882E+01
 20
4.34917560E+01
 11
-9.92513882E+01
 21
4.34917560E+01
  0
LINE
  8
0
 62
4
 10
-1.06251388E+02
 20
4.27917560E+01
 11
-1.07051388E+02
 21
4.27917560E+01
  0
LINE
  8
0
 62
4
 10
-1.07051388E+02
 20
4.49917560E+01
 11
-1.07433003E+02
 21
4.52143646E+01
  0
LINE
  8
0
 62
4
 10
-1.08651388E+02
 20
4.82917560E+01
 11
-1.08651388E+02
 21
4.59217560E+01
  0
LINE
  8
0
 62
4
 10
-1.07851388E+02
 20
4.82917560E+01
 11
-1.08651388E+02
 21
4.82917560E+01
  0
LINE
  8
0
 62
4
 10
-1.07851388E+02
 20
4.82917560E+01
 11
-1.07851388E+02
 21
4.63817560E+01
  0
LINE
  8
0
 62
4
 10
-1.07051388E+02
 20
4.59217560E+01
 11
-1.07348098E+02
 21
4.60865949E+01
  0
LINE
  8
0
 62
4
 10
-9.94013882E+01
 20
4.86917560E+01
 11
-9.94013882E+01
 21
4.34917560E+01
  0
LINE
  8
0
 62
4
 10
-9.92513882E+01
 20
4.86917560E+01
 11
-9.94013882E+01
 21
4.86917560E+01
  0
LINE
  8
0
 62
4
 10
-1.07823537E+02
 20
4.63631887E+01
 11
-1.07851388E+02
 21
4.63817560E+01
  0
LINE
  8
0
 62
4
 10
-1.07909280E+02
 20
4.54823498E+01
 11
-1.08651388E+02
 21
4.59217560E+01
  0
LINE
  8
0
 62
4
 10
-1.01251388E+02
 20
5.09917560E+01
 11
-1.01251388E+02
 21
4.99917560E+01
  0
LINE
  8
0
 62
4
 10
-1.04251388E+02
 20
5.09917560E+01
 11
-1.04251388E+02
 21
4.99917560E+01
  0
LINE
  8
0
 62
6
 10
-1.03981388E+02
 20
5.09917560E+01
 11
-1.03981388E+02
 21
4.99917560E+01
  0
LINE
  8
0
 62
6
 10
-1.01521388E+02
 20
5.09917560E+01
 11
-1.01521388E+02
 21
4.99917560E+01
  0
LINE
  8
0
 62
4
 10
-1.05251388E+02
 20
5.14917560E+01
 11
-1.05251388E+02
 21
5.09917560E+01
  0
LINE
  8
0
 62
4
 10
-1.00251388E+02
 20
5.14917560E+01
 11
-1.00251388E+02
 21
5.09917560E+01
  0
LINE
  8
0
 62
4
 10
-1.01251388E+02
 20
5.24917560E+01
 11
-1.04251388E+02
 21
5.24917560E+01
  0
LINE
  8
0
 62
4
 10
-1.01251388E+02
 20
4.84917560E+01
 11
-1.01251388E+02
 21
4.72917560E+01
  0
LINE
  8
0
 62
6
 10
-1.01521388E+02
 20
4.84917560E+01
 11
-1.01521388E+02
 21
4.70217560E+01
  0
LINE
  8
0
 62
6
 10
-1.03981388E+02
 20
4.84917560E+01
 11
-1.03981388E+02
 21
4.70217560E+01
  0
LINE
  8
0
 62
4
 10
-1.04251388E+02
 20
4.84917560E+01
 11
-1.04251388E+02
 21
4.72917560E+01
  0
ARC
  8
0
 62
4
 10
-9.97515484E+01
 20
4.86915958E+01
 40
5.00160181E-01
 50
1.83465799E-02
 51
9.00000002E+01
  0
ARC
  8
0
 62
4
 10
-1.05759013E+02
 20
4.86993812E+01
 40
4.92433852E-01
 50
8.91127567E+01
 51
1.80887243E+02
  0
ARC
  8
0
 62
4
 10
-9.92515266E+01
 20
4.91916176E+01
 40
8.00138358E-01
 50
9.90662024E-03
 51
9.00000002E+01
  0
ARC
  8
0
 62
4
 10
-1.06259013E+02
 20
4.91993812E+01
 40
7.92411497E-01
 50
8.94486475E+01
 51
1.80551352E+02
  0
ARC
  8
0
 62
4
 10
-1.01251518E+02
 20
5.14916264E+01
 40
1.00012957E+00
 50
7.42247612E-03
 51
9.00000002E+01
  0
ARC
  8
0
 62
4
 10
-1.04259015E+02
 20
5.14993827E+01
 40
9.92402587E-01
 50
8.95596718E+01
 51
1.80440329E+02
  0
LINE
  8
0
 62
7
 10
-1.08751388E+02
 20
3.15417560E+01
 11
-1.08751388E+02
 21
3.13917560E+01
  0
LINE
  8
0
 62
4
 10
-1.08751388E+02
 20
3.84517560E+01
 11
-1.08751388E+02
 21
3.15417560E+01
  0
LINE
  8
0
 62
7
 10
-9.67513882E+01
 20
3.15417560E+01
 11
-9.67513882E+01
 21
3.13917560E+01
  0
LINE
  8
0
 62
4
 10
-9.67513882E+01
 20
3.84517560E+01
 11
-9.67513882E+01
 21
3.15417560E+01
  0
CIRCLE
  8
0
 62
2
 10
-1.02751388E+02
 20
3.49917560E+01
 40
1.62100000E+00
  0
LINE
  8
0
  6
CENTER
 62
2
 10
-1.10751388E+02
 20
3.49917560E+01
 11
-8.35455212E+01
 21
3.49917560E+01
  0
LINE
  8
0
 62
4
 10
-1.02751388E+02
 20
3.90317560E+01
 11
-1.06251388E+02
 21
3.70117560E+01
  0
LINE
  8
0
 62
4
 10
-1.06251388E+02
 20
3.70117560E+01
 11
-1.06251388E+02
 21
3.29817560E+01
  0
LINE
  8
0
 62
4
 10
-1.06251388E+02
 20
3.29817560E+01
 11
-1.02751388E+02
 21
3.09617560E+01
  0
LINE
  8
0
 62
4
 10
-1.02751388E+02
 20
3.09617560E+01
 11
-9.92513882E+01
 21
3.29817560E+01
  0
LINE
  8
0
 62
4
 10
-9.92513882E+01
 20
3.29817560E+01
 11
-9.92513882E+01
 21
3.70117560E+01
  0
LINE
  8
0
 62
4
 10
-9.92513882E+01
 20
3.70117560E+01
 11
-1.02751388E+02
 21
3.90317560E+01
  0
LINE
  8
0
 62
4
 10
-1.02751388E+02
 20
4.19217560E+01
 11
-1.08751388E+02
 21
3.84517560E+01
  0
LINE
  8
0
 62
7
 10
-9.67513882E+01
 20
3.86017560E+01
 11
-9.67513882E+01
 21
3.84517560E+01
  0
LINE
  8
0
 62
7
 10
-1.06361388E+02
 20
4.09917560E+01
 11
-1.04361388E+02
 21
4.09917560E+01
  0
LINE
  8
0
 62
7
 10
-1.08751388E+02
 20
3.86017560E+01
 11
-1.08751388E+02
 21
3.84517560E+01
  0
LINE
  8
0
 62
4
 10
-9.67513882E+01
 20
3.84517560E+01
 11
-1.02751388E+02
 21
4.19217560E+01
  0
LINE
  8
0
 62
7
 10
-1.01151388E+02
 20
4.09917560E+01
 11
-9.91513882E+01
 21
4.09917560E+01
  0
CIRCLE
  8
0
 62
7
 10
-1.02758429E+02
 20
3.49967571E+01
 40
2.00000000E+00
  0
CIRCLE
  8
0
 62
4
 10
-1.02758429E+02
 20
3.49967571E+01
 40
3.50000000E+00
  0
ARC
  8
0
 62
7
 10
-1.02758429E+02
 20
3.49967560E+01
 40
3.99311751E+00
 50
1.51014793E+02
 51
2.08985207E+02
  0
ARC
  8
0
 62
7
 10
-1.02755558E+02
 20
3.49950960E+01
 40
3.99405996E+00
 50
2.10937213E+02
 51
2.68912138E+02
  0
ARC
  8
0
 62
7
 10
-1.02758243E+02
 20
3.49968652E+01
 40
3.99584842E+00
 50
2.71102069E+02
 51
3.29048580E+02
  0
ARC
  8
0
 62
7
 10
-1.02758429E+02
 20
3.49967560E+01
 40
4.00544151E+00
 50
3.31112406E+02
 51
2.88875940E+01
  0
ARC
  8
0
 62
7
 10
-1.02758242E+02
 20
3.49966484E+01
 40
3.99584669E+00
 50
3.09514064E+01
 51
8.88979451E+01
  0
ARC
  8
0
 62
7
 10
-1.02755559E+02
 20
3.49984176E+01
 40
3.99405823E+00
 50
9.10878482E+01
 51
1.49062800E+02
  0
ARC
  8
0
 62
7
 10
-1.02744870E+02
 20
3.49832181E+01
 40
7.00111676E+00
 50
3.11212937E+01
 51
5.91179366E+01
  0
ARC
  8
0
 62
7
 10
-1.02757409E+02
 20
3.49977770E+01
 40
6.99402955E+00
 50
1.21017085E+02
 51
1.48982915E+02
  0
LINE
  8
0
 62
7
 10
-1.06361388E+02
 20
2.90017560E+01
 11
-1.04361388E+02
 21
2.90017560E+01
  0
LINE
  8
0
 62
7
 10
-1.01151388E+02
 20
2.90017560E+01
 11
-9.91513882E+01
 21
2.90017560E+01
  0
ARC
  8
0
 62
7
 10
9.92436118E+01
 20
3.49967560E+01
 40
5.99500000E+00
 50
2.35021589E+02
 51
2.49634525E+01
  0
ARC
  8
0
 62
7
 10
9.92425920E+01
 20
3.49957362E+01
 40
6.99403112E+00
 50
2.18369946E+02
 51
2.38982912E+02
  0
ARC
  8
0
 62
4
 10
9.92486118E+01
 20
3.49917560E+01
 40
5.65000000E+00
 50
2.54454443E+02
 51
9.55597764E+01
  0
ARC
  8
0
 62
7
 10
9.92436118E+01
 20
3.49967560E+01
 40
5.99500000E+00
 50
2.09680180E+02
 51
2.31134705E+02
  0
LINE
  8
0
 62
7
 10
9.32486118E+01
 20
3.17417560E+01
 11
9.32486118E+01
 21
3.15417560E+01
  0
LINE
  8
0
 62
4
 10
9.48008610E+01
 20
4.00847986E+01
 11
9.41966825E+01
 21
3.79129087E+01
  0
LINE
  8
0
 62
4
 10
9.49578611E+01
 20
4.01000814E+01
 11
9.39487071E+01
 21
3.64617936E+01
  0
LINE
  8
0
 62
4
 10
9.42486118E+01
 20
3.22417560E+01
 11
9.42486118E+01
 21
3.27004681E+01
  0
LINE
  8
0
 62
4
 10
9.42486118E+01
 20
3.22417560E+01
 11
9.37486118E+01
 21
3.17417560E+01
  0
LINE
  8
0
 62
4
 10
9.42486118E+01
 20
3.72830438E+01
 11
9.42486118E+01
 21
3.77417560E+01
  0
LINE
  8
0
 62
4
 10
9.42486118E+01
 20
3.77417560E+01
 11
9.37486118E+01
 21
3.82417560E+01
  0
LINE
  8
0
 62
4
 10
9.60652618E+01
 20
4.03585871E+01
 11
9.60168197E+01
 21
4.08562349E+01
  0
LINE
  8
0
 62
4
 10
9.29486118E+01
 20
3.59917560E+01
 11
9.32486118E+01
 21
3.59917560E+01
  0
LINE
  8
0
 62
4
 10
9.29486118E+01
 20
3.39917560E+01
 11
9.32486118E+01
 21
3.39917560E+01
  0
LINE
  8
0
 62
4
 10
9.32486118E+01
 20
3.39917560E+01
 11
9.32486118E+01
 21
3.59917560E+01
  0
LINE
  8
0
 62
4
 10
9.29486118E+01
 20
3.29417560E+01
 11
9.29486118E+01
 21
3.70417560E+01
  0
ARC
  8
0
 62
4
 10
8.27409851E+01
 20
3.64993827E+01
 40
9.92402587E-01
 50
8.95596718E+01
 51
1.80440329E+02
  0
ARC
  8
0
 62
4
 10
8.27487414E+01
 20
3.34918855E+01
 40
1.00012957E+00
 50
1.80007422E+02
 51
2.70000000E+02
  0
ARC
  8
0
 62
4
 10
8.50409866E+01
 20
3.84993812E+01
 40
7.92411497E-01
 50
8.94486475E+01
 51
1.80551352E+02
  0
ARC
  8
0
 62
4
 10
8.50487501E+01
 20
3.14918943E+01
 40
8.00138358E-01
 50
1.80009907E+02
 51
2.70000000E+02
  0
ARC
  8
0
 62
4
 10
8.55409866E+01
 20
3.79993812E+01
 40
4.92433852E-01
 50
8.91127567E+01
 51
1.80887243E+02
  0
ARC
  8
0
 62
4
 10
8.55487719E+01
 20
3.19919161E+01
 40
5.00160181E-01
 50
1.80018346E+02
 51
2.70000000E+02
  0
LINE
  8
0
 62
4
 10
8.96486118E+01
 20
3.62917560E+01
 11
8.89486118E+01
 21
3.70417560E+01
  0
LINE
  8
0
 62
4
 10
8.89486118E+01
 20
3.29417560E+01
 11
8.96486118E+01
 21
3.36917560E+01
  0
LINE
  8
0
 62
4
 10
8.96486118E+01
 20
3.36917560E+01
 11
9.22486118E+01
 21
3.36917560E+01
  0
LINE
  8
0
 62
4
 10
8.96486118E+01
 20
3.62917560E+01
 11
9.22486118E+01
 21
3.62917560E+01
  0
LINE
  8
0
 62
4
 10
8.96486118E+01
 20
3.36917560E+01
 11
8.96486118E+01
 21
3.62917560E+01
  0
LINE
  8
0
 62
4
 10
9.22486118E+01
 20
3.36917560E+01
 11
9.22486118E+01
 21
3.62917560E+01
  0
LINE
  8
0
 62
4
 10
8.57486118E+01
 20
3.64917560E+01
 11
8.69486118E+01
 21
3.64917560E+01
  0
LINE
  8
0
 62
6
 10
8.57486118E+01
 20
3.62217560E+01
 11
8.72186118E+01
 21
3.62217560E+01
  0
LINE
  8
0
 62
6
 10
8.57486118E+01
 20
3.37617560E+01
 11
8.72186118E+01
 21
3.37617560E+01
  0
LINE
  8
0
 62
4
 10
8.57486118E+01
 20
3.34917560E+01
 11
8.69486118E+01
 21
3.34917560E+01
  0
LINE
  8
0
 62
4
 10
8.17486118E+01
 20
3.34917560E+01
 11
8.17486118E+01
 21
3.64917560E+01
  0
LINE
  8
0
 62
4
 10
8.27486118E+01
 20
3.24917560E+01
 11
8.32486118E+01
 21
3.24917560E+01
  0
LINE
  8
0
 62
4
 10
8.27486118E+01
 20
3.74917560E+01
 11
8.32486118E+01
 21
3.74917560E+01
  0
LINE
  8
0
 62
6
 10
8.32486118E+01
 20
3.37617560E+01
 11
8.42486118E+01
 21
3.37617560E+01
  0
LINE
  8
0
 62
6
 10
8.32486118E+01
 20
3.62217560E+01
 11
8.42486118E+01
 21
3.62217560E+01
  0
LINE
  8
0
 62
4
 10
8.32486118E+01
 20
3.64917560E+01
 11
8.42486118E+01
 21
3.64917560E+01
  0
LINE
  8
0
 62
4
 10
8.32486118E+01
 20
3.34917560E+01
 11
8.42486118E+01
 21
3.34917560E+01
  0
LINE
  8
0
 62
4
 10
8.87580180E+01
 20
4.01496478E+01
 11
8.83186118E+01
 21
4.08917560E+01
  0
LINE
  8
0
 62
4
 10
8.78771791E+01
 20
4.00639050E+01
 11
8.78586118E+01
 21
4.00917560E+01
  0
LINE
  8
0
 62
4
 10
8.55486118E+01
 20
3.14917560E+01
 11
8.55486118E+01
 21
3.16417560E+01
  0
LINE
  8
0
 62
4
 10
8.55486118E+01
 20
3.16417560E+01
 11
9.07486118E+01
 21
3.16417560E+01
  0
LINE
  8
0
 62
4
 10
8.83186118E+01
 20
3.92917560E+01
 11
8.81537729E+01
 21
3.95884660E+01
  0
LINE
  8
0
 62
4
 10
8.59486118E+01
 20
4.00917560E+01
 11
8.78586118E+01
 21
4.00917560E+01
  0
LINE
  8
0
 62
4
 10
8.59486118E+01
 20
4.00917560E+01
 11
8.59486118E+01
 21
4.08917560E+01
  0
LINE
  8
0
 62
4
 10
8.59486118E+01
 20
4.08917560E+01
 11
8.83186118E+01
 21
4.08917560E+01
  0
LINE
  8
0
 62
4
 10
8.92486118E+01
 20
3.92917560E+01
 11
8.90260032E+01
 21
3.96733707E+01
  0
LINE
  8
0
 62
4
 10
9.14486118E+01
 20
3.84917560E+01
 11
9.14486118E+01
 21
3.92917560E+01
  0
LINE
  8
0
 62
4
 10
9.07486118E+01
 20
3.06917560E+01
 11
9.07486118E+01
 21
3.14917560E+01
  0
LINE
  8
0
 62
4
 10
8.50486118E+01
 20
3.29317560E+01
 11
8.57486118E+01
 21
3.29917560E+01
  0
LINE
  8
0
 62
4
 10
8.50486118E+01
 20
3.70517560E+01
 11
8.57486118E+01
 21
3.69917560E+01
  0
LINE
  8
0
 62
4
 10
8.50486118E+01
 20
3.06917560E+01
 11
9.07486118E+01
 21
3.06917560E+01
  0
LINE
  8
0
 62
4
 10
8.50486118E+01
 20
3.92917560E+01
 11
9.14486118E+01
 21
3.92917560E+01
  0
LINE
  8
0
 62
4
 10
8.50486118E+01
 20
3.19917560E+01
 11
8.50486118E+01
 21
3.79917560E+01
  0
LINE
  8
0
 62
4
 10
8.57486118E+01
 20
3.29917560E+01
 11
8.57486118E+01
 21
3.69917560E+01
  0
LINE
  8
0
 62
4
 10
8.42486118E+01
 20
3.14917560E+01
 11
8.42486118E+01
 21
3.84917560E+01
  0
LINE
  8
0
 62
4
 10
8.32486118E+01
 20
3.24917560E+01
 11
8.32486118E+01
 21
3.74917560E+01
  0
LINE
  8
0
 62
4
 10
8.55486118E+01
 20
3.14917560E+01
 11
9.07486118E+01
 21
3.14917560E+01
  0
LINE
  8
0
 62
4
 10
8.55486118E+01
 20
3.84917560E+01
 11
9.14486118E+01
 21
3.84917560E+01
  0
LINE
  8
0
 62
4
 10
9.07486118E+01
 20
3.17417560E+01
 11
9.07486118E+01
 21
3.29417560E+01
  0
LINE
  8
0
 62
4
 10
9.11486118E+01
 20
3.17417560E+01
 11
9.11486118E+01
 21
3.29417560E+01
  0
LINE
  8
0
 62
4
 10
8.79486118E+01
 20
3.17417560E+01
 11
8.79486118E+01
 21
3.82417560E+01
  0
LINE
  8
0
 62
4
 10
8.86486118E+01
 20
3.39917560E+01
 11
8.86486118E+01
 21
3.59917560E+01
  0
LINE
  8
0
 62
4
 10
8.86486118E+01
 20
3.59917560E+01
 11
8.89486118E+01
 21
3.59917560E+01
  0
LINE
  8
0
 62
4
 10
8.86486118E+01
 20
3.39917560E+01
 11
8.89486118E+01
 21
3.39917560E+01
  0
LINE
  8
0
 62
4
 10
8.89486118E+01
 20
3.29417560E+01
 11
8.89486118E+01
 21
3.70417560E+01
  0
LINE
  8
0
 62
4
 10
8.72486118E+01
 20
3.17417560E+01
 11
8.72486118E+01
 21
3.82417560E+01
  0
LINE
  8
0
 62
4
 10
8.72486118E+01
 20
3.17417560E+01
 11
9.07486118E+01
 21
3.17417560E+01
  0
CIRCLE
  8
0
 62
4
 10
9.09486118E+01
 20
3.49917560E+01
 40
1.30000000E+00
  0
LINE
  8
0
 62
4
 10
9.20986118E+01
 20
3.98217560E+01
 11
9.20840792E+01
 21
3.99710503E+01
  0
LINE
  8
0
 62
4
 10
8.56146574E+01
 20
3.93413031E+01
 11
8.55662153E+01
 21
3.98389509E+01
  0
LINE
  8
0
 62
4
 10
8.69486118E+01
 20
3.64917560E+01
 11
8.72486118E+01
 21
3.61917560E+01
  0
LINE
  8
0
 62
4
 10
8.69486118E+01
 20
3.34917560E+01
 11
8.72486118E+01
 21
3.37917560E+01
  0
LINE
  8
0
 62
4
 10
8.55662153E+01
 20
3.98389509E+01
 11
9.60168197E+01
 21
4.08562349E+01
  0
LINE
  8
0
 62
4
 10
8.56146574E+01
 20
3.93413031E+01
 11
9.87012161E+01
 21
4.06151765E+01
  0
LINE
  8
0
 62
4
 10
9.20986118E+01
 20
3.98217560E+01
 11
9.87157487E+01
 21
4.04658821E+01
  0
LINE
  8
0
 62
4
 10
9.07486118E+01
 20
3.14917560E+01
 11
9.77343864E+01
 21
2.95484462E+01
  0
LINE
  8
0
 62
4
 10
9.07486118E+01
 20
3.16417560E+01
 11
9.77785742E+01
 21
2.96918513E+01
  0
LINE
  8
0
 62
4
 10
8.72486118E+01
 20
3.82417560E+01
 11
9.37486118E+01
 21
3.82417560E+01
  0
LINE
  8
0
 62
4
 10
8.89486118E+01
 20
3.70417560E+01
 11
9.29486118E+01
 21
3.70417560E+01
  0
LINE
  8
0
 62
4
 10
9.11486118E+01
 20
3.17417560E+01
 11
9.37486118E+01
 21
3.17417560E+01
  0
LINE
  8
0
 62
4
 10
8.89486118E+01
 20
3.29417560E+01
 11
9.29486118E+01
 21
3.29417560E+01
  0
LINE
  8
0
 62
4
 10
9.22486118E+01
 20
3.36917560E+01
 11
9.29486118E+01
 21
3.29417560E+01
  0
LINE
  8
0
 62
4
 10
9.22486118E+01
 20
3.62917560E+01
 11
9.29486118E+01
 21
3.70417560E+01
  0
ARC
  8
0
 62
7
 10
9.92425908E+01
 20
3.49977770E+01
 40
6.99402955E+00
 50
1.33797943E+02
 51
1.48982915E+02
  0
ARC
  8
0
 62
7
 10
9.92436118E+01
 20
3.49967560E+01
 40
5.99500000E+00
 50
1.44746704E+02
 51
1.50389902E+02
  0
ARC
  8
0
 62
7
 10
9.92436118E+01
 20
3.49967560E+01
 40
5.99500000E+00
 50
2.88982608E+01
 51
6.03198204E+01
  0
ARC
  8
0
 62
7
 10
9.92551304E+01
 20
3.49832181E+01
 40
7.00111676E+00
 50
4.38594028E+01
 51
5.91179366E+01
  0
LINE
  8
0
 62
7
 10
1.02498612E+02
 20
4.09917560E+01
 11
1.02848612E+02
 21
4.09917560E+01
  0
LINE
  8
0
 62
4
 10
9.77486118E+01
 20
4.72917560E+01
 11
9.80486118E+01
 21
4.69917560E+01
  0
LINE
  8
0
 62
4
 10
1.00748612E+02
 20
4.72917560E+01
 11
1.00448612E+02
 21
4.69917560E+01
  0
LINE
  8
0
 62
4
 10
1.03598159E+02
 20
4.86257104E+01
 11
1.04095807E+02
 21
4.86741525E+01
  0
LINE
  8
0
 62
4
 10
1.04095807E+02
 20
4.86741525E+01
 11
1.05113091E+02
 21
3.82235481E+01
  0
LINE
  8
0
 62
4
 10
1.04615443E+02
 20
3.81751060E+01
 11
1.05113091E+02
 21
3.82235481E+01
  0
LINE
  8
0
 62
4
 10
1.04078612E+02
 20
4.21417560E+01
 11
1.04227906E+02
 21
4.21562886E+01
  0
LINE
  8
0
 62
4
 10
1.03598159E+02
 20
4.86257104E+01
 11
1.04872032E+02
 21
3.55391517E+01
  0
LINE
  8
0
 62
4
 10
1.04078612E+02
 20
4.21417560E+01
 11
1.04597442E+02
 21
3.68117868E+01
  0
LINE
  8
0
 62
4
 10
9.57486118E+01
 20
4.34917560E+01
 11
9.49875897E+01
 21
4.07560475E+01
  0
LINE
  8
0
 62
4
 10
9.58986118E+01
 20
4.34917560E+01
 11
9.51440307E+01
 21
4.07712758E+01
  0
ARC
  8
0
 62
4
 10
9.92486118E+01
 20
3.49917560E+01
 40
5.65000000E+00
 50
2.07753924E+02
 51
2.41265579E+02
  0
CIRCLE
  8
0
 62
4
 10
9.92486118E+01
 20
4.32917560E+01
 40
1.30000000E+00
  0
LINE
  8
0
 62
4
 10
1.02498612E+02
 20
4.69917560E+01
 11
1.02498612E+02
 21
4.04917560E+01
  0
LINE
  8
0
 62
4
 10
9.59986118E+01
 20
4.69917560E+01
 11
9.59986118E+01
 21
4.34917560E+01
  0
LINE
  8
0
 62
4
 10
9.64986118E+01
 20
3.99917560E+01
 11
9.69573239E+01
 21
3.99917560E+01
  0
LINE
  8
0
 62
4
 10
9.59986118E+01
 20
4.69917560E+01
 11
1.02498612E+02
 21
4.69917560E+01
  0
LINE
  8
0
 62
4
 10
9.71986118E+01
 20
4.12917560E+01
 11
1.01298612E+02
 21
4.12917560E+01
  0
LINE
  8
0
 62
4
 10
1.01298612E+02
 20
4.52917560E+01
 11
1.01298612E+02
 21
4.12917560E+01
  0
LINE
  8
0
 62
4
 10
9.71986118E+01
 20
4.52917560E+01
 11
1.01298612E+02
 21
4.52917560E+01
  0
LINE
  8
0
 62
4
 10
1.01879676E+02
 20
3.99917560E+01
 11
1.01998612E+02
 21
3.99917560E+01
  0
LINE
  8
0
 62
4
 10
9.82486118E+01
 20
4.55917560E+01
 11
9.82486118E+01
 21
4.52917560E+01
  0
LINE
  8
0
 62
4
 10
1.00248612E+02
 20
4.55917560E+01
 11
1.00248612E+02
 21
4.52917560E+01
  0
LINE
  8
0
 62
4
 10
9.82486118E+01
 20
4.55917560E+01
 11
1.00248612E+02
 21
4.55917560E+01
  0
LINE
  8
0
 62
4
 10
9.82486118E+01
 20
4.09917560E+01
 11
1.00248612E+02
 21
4.09917560E+01
  0
LINE
  8
0
 62
4
 10
9.82486118E+01
 20
4.12917560E+01
 11
9.82486118E+01
 21
4.09917560E+01
  0
LINE
  8
0
 62
4
 10
1.00248612E+02
 20
4.12917560E+01
 11
1.00248612E+02
 21
4.09917560E+01
  0
LINE
  8
0
 62
4
 10
1.01998612E+02
 20
3.99917560E+01
 11
1.02498612E+02
 21
4.04917560E+01
  0
LINE
  8
0
 62
4
 10
9.64986118E+01
 20
3.99917560E+01
 11
9.62632200E+01
 21
4.02271478E+01
  0
LINE
  8
0
 62
4
 10
9.59986118E+01
 20
4.62917560E+01
 11
1.02498612E+02
 21
4.62917560E+01
  0
LINE
  8
0
 62
4
 10
9.59986118E+01
 20
4.30917560E+01
 11
9.71986118E+01
 21
4.30917560E+01
  0
LINE
  8
0
 62
4
 10
9.59986118E+01
 20
4.34917560E+01
 11
9.71986118E+01
 21
4.34917560E+01
  0
LINE
  8
0
 62
4
 10
9.59986118E+01
 20
4.30917560E+01
 11
9.59986118E+01
 21
4.08544625E+01
  0
LINE
  8
0
 62
4
 10
9.71986118E+01
 20
4.52917560E+01
 11
9.71986118E+01
 21
4.12917560E+01
  0
LINE
  8
0
 62
4
 10
1.02748612E+02
 20
4.86917560E+01
 11
1.02748612E+02
 21
4.27917560E+01
  0
LINE
  8
0
 62
4
 10
9.57486118E+01
 20
4.86917560E+01
 11
9.57486118E+01
 21
4.34917560E+01
  0
LINE
  8
0
 62
4
 10
9.67486118E+01
 20
5.09917560E+01
 11
1.01748612E+02
 21
5.09917560E+01
  0
LINE
  8
0
 62
4
 10
9.57486118E+01
 20
4.99917560E+01
 11
1.02748612E+02
 21
4.99917560E+01
  0
LINE
  8
0
 62
4
 10
9.72486118E+01
 20
4.84917560E+01
 11
1.01248612E+02
 21
4.84917560E+01
  0
LINE
  8
0
 62
4
 10
9.62486118E+01
 20
4.91917560E+01
 11
1.02248612E+02
 21
4.91917560E+01
  0
LINE
  8
0
 62
4
 10
1.03548612E+02
 20
4.91917560E+01
 11
1.03548612E+02
 21
4.27917560E+01
  0
LINE
  8
0
 62
4
 10
9.49486118E+01
 20
4.91917560E+01
 11
9.49486118E+01
 21
4.34917560E+01
  0
LINE
  8
0
 62
4
 10
1.01308612E+02
 20
4.91917560E+01
 11
1.01248612E+02
 21
4.84917560E+01
  0
LINE
  8
0
 62
4
 10
9.71886118E+01
 20
4.91917560E+01
 11
9.72486118E+01
 21
4.84917560E+01
  0
LINE
  8
0
 62
4
 10
9.49486118E+01
 20
4.34917560E+01
 11
9.57486118E+01
 21
4.34917560E+01
  0
LINE
  8
0
 62
4
 10
1.02748612E+02
 20
4.27917560E+01
 11
1.03548612E+02
 21
4.27917560E+01
  0
LINE
  8
0
 62
4
 10
1.03548612E+02
 20
4.49917560E+01
 11
1.03930227E+02
 21
4.52143646E+01
  0
LINE
  8
0
 62
4
 10
1.05148612E+02
 20
4.82917560E+01
 11
1.05148612E+02
 21
4.59217560E+01
  0
LINE
  8
0
 62
4
 10
1.04348612E+02
 20
4.82917560E+01
 11
1.05148612E+02
 21
4.82917560E+01
  0
LINE
  8
0
 62
4
 10
1.04348612E+02
 20
4.82917560E+01
 11
1.04348612E+02
 21
4.63817560E+01
  0
LINE
  8
0
 62
4
 10
1.03548612E+02
 20
4.59217560E+01
 11
1.03845322E+02
 21
4.60865949E+01
  0
LINE
  8
0
 62
4
 10
9.58986118E+01
 20
4.86917560E+01
 11
9.58986118E+01
 21
4.34917560E+01
  0
LINE
  8
0
 62
4
 10
9.57486118E+01
 20
4.86917560E+01
 11
9.58986118E+01
 21
4.86917560E+01
  0
LINE
  8
0
 62
4
 10
1.04320761E+02
 20
4.63631887E+01
 11
1.04348612E+02
 21
4.63817560E+01
  0
LINE
  8
0
 62
4
 10
1.04406504E+02
 20
4.54823498E+01
 11
1.05148612E+02
 21
4.59217560E+01
  0
LINE
  8
0
 62
4
 10
9.77486118E+01
 20
5.09917560E+01
 11
9.77486118E+01
 21
4.99917560E+01
  0
LINE
  8
0
 62
4
 10
1.00748612E+02
 20
5.09917560E+01
 11
1.00748612E+02
 21
4.99917560E+01
  0
LINE
  8
0
 62
6
 10
1.00478612E+02
 20
5.09917560E+01
 11
1.00478612E+02
 21
4.99917560E+01
  0
LINE
  8
0
 62
6
 10
9.80186118E+01
 20
5.09917560E+01
 11
9.80186118E+01
 21
4.99917560E+01
  0
LINE
  8
0
 62
4
 10
1.01748612E+02
 20
5.14917560E+01
 11
1.01748612E+02
 21
5.09917560E+01
  0
LINE
  8
0
 62
4
 10
9.67486118E+01
 20
5.14917560E+01
 11
9.67486118E+01
 21
5.09917560E+01
  0
LINE
  8
0
 62
4
 10
9.77486118E+01
 20
5.24917560E+01
 11
1.00748612E+02
 21
5.24917560E+01
  0
LINE
  8
0
 62
4
 10
9.77486118E+01
 20
4.84917560E+01
 11
9.77486118E+01
 21
4.72917560E+01
  0
LINE
  8
0
 62
6
 10
9.80186118E+01
 20
4.84917560E+01
 11
9.80186118E+01
 21
4.70217560E+01
  0
LINE
  8
0
 62
6
 10
1.00478612E+02
 20
4.84917560E+01
 11
1.00478612E+02
 21
4.70217560E+01
  0
LINE
  8
0
 62
4
 10
1.00748612E+02
 20
4.84917560E+01
 11
1.00748612E+02
 21
4.72917560E+01
  0
LINE
  8
0
 62
4
 10
9.79486118E+01
 20
4.19917560E+01
 11
1.00548612E+02
 21
4.19917560E+01
  0
LINE
  8
0
 62
4
 10
9.79486118E+01
 20
4.45917560E+01
 11
1.00548612E+02
 21
4.45917560E+01
  0
LINE
  8
0
 62
4
 10
1.00548612E+02
 20
4.45917560E+01
 11
1.00548612E+02
 21
4.19917560E+01
  0
LINE
  8
0
 62
4
 10
9.79486118E+01
 20
4.45917560E+01
 11
9.79486118E+01
 21
4.19917560E+01
  0
LINE
  8
0
 62
4
 10
9.71986118E+01
 20
4.52917560E+01
 11
9.79486118E+01
 21
4.45917560E+01
  0
LINE
  8
0
 62
4
 10
1.00548612E+02
 20
4.45917560E+01
 11
1.01298612E+02
 21
4.52917560E+01
  0
LINE
  8
0
 62
4
 10
9.79486118E+01
 20
4.19917560E+01
 11
9.71986118E+01
 21
4.12917560E+01
  0
LINE
  8
0
 62
4
 10
1.00548612E+02
 20
4.19917560E+01
 11
1.01298612E+02
 21
4.12917560E+01
  0
ARC
  8
0
 62
4
 10
9.62487719E+01
 20
4.86915958E+01
 40
5.00160181E-01
 50
9.00000002E+01
 51
1.79981654E+02
  0
ARC
  8
0
 62
4
 10
1.02256237E+02
 20
4.86993812E+01
 40
4.92433852E-01
 50
3.59112757E+02
 51
9.08872431E+01
  0
ARC
  8
0
 62
4
 10
9.57487501E+01
 20
4.91916176E+01
 40
8.00138358E-01
 50
9.00000002E+01
 51
1.79990093E+02
  0
ARC
  8
0
 62
4
 10
1.02756237E+02
 20
4.91993812E+01
 40
7.92411497E-01
 50
3.59448647E+02
 51
9.05513523E+01
  0
ARC
  8
0
 62
4
 10
9.77487414E+01
 20
5.14916264E+01
 40
1.00012957E+00
 50
9.00000002E+01
 51
1.79992578E+02
  0
ARC
  8
0
 62
4
 10
1.00756239E+02
 20
5.14993827E+01
 40
9.92402587E-01
 50
3.59559672E+02
 51
9.04403286E+01
  0
CIRCLE
  8
0
 62
7
 10
9.92486118E+01
 20
3.49917560E+01
 40
5.00000000E-01
  0
CIRCLE
  8
0
 62
4
 10
9.92486118E+01
 20
3.49917560E+01
 40
5.50000000E+00
  0
CIRCLE
  8
0
 62
4
 10
9.92486118E+01
 20
3.49917560E+01
 40
5.00000000E+00
  0
ARC
  8
0
 62
7
 10
9.92436118E+01
 20
3.49967560E+01
 40
5.99500000E+00
 50
1.19610098E+02
 51
1.40903543E+02
  0
CIRCLE
  8
0
 62
4
 10
9.92486118E+01
 20
3.49917560E+01
 40
2.06700000E+00
  0
CIRCLE
  8
0
 62
6
 10
9.92486118E+01
 20
3.49917560E+01
 40
2.50000000E+00
  0
ARC
  8
0
 62
7
 10
9.92425908E+01
 20
3.49977770E+01
 40
6.99402955E+00
 50
1.21017085E+02
 51
1.24112076E+02
  0
ARC
  8
0
 62
7
 10
9.92551304E+01
 20
3.49832181E+01
 40
7.00111676E+00
 50
3.11212937E+01
 51
3.42028638E+01
  0
ARC
  8
0
 62
7
 10
9.92551292E+01
 20
3.50102950E+01
 40
7.00111833E+00
 50
3.00882066E+02
 51
3.28878703E+02
  0
ARC
  8
0
 62
7
 10
9.92425920E+01
 20
3.49957362E+01
 40
6.99403112E+00
 50
2.11017088E+02
 51
2.16376027E+02
  0
LINE
  8
0
 62
4
 10
9.92486118E+01
 20
2.80717560E+01
 11
1.00856681E+02
 21
2.90017560E+01
  0
LINE
  8
0
 62
4
 10
9.76405426E+01
 20
2.90017560E+01
 11
9.92486118E+01
 21
2.80717560E+01
  0
LINE
  8
0
 62
7
 10
9.32486118E+01
 20
3.86017560E+01
 11
9.32486118E+01
 21
3.84517560E+01
  0
LINE
  8
0
 62
7
 10
9.56386118E+01
 20
4.09917560E+01
 11
9.59986118E+01
 21
4.09917560E+01
  0
LINE
  8
0
 62
7
 10
9.56386118E+01
 20
2.90017560E+01
 11
1.02848612E+02
 21
2.90017560E+01
  0
LINE
  8
0
 62
7
 10
1.05248612E+02
 20
3.86017560E+01
 11
1.05248612E+02
 21
3.84517560E+01
  0
LINE
  8
0
  6
CENTER
 62
2
 10
9.92486118E+01
 20
5.35320339E+01
 11
9.92486118E+01
 21
2.70017560E+01
  0
LINE
  8
0
  6
CENTER
 62
2
 10
8.05437741E+01
 20
3.49917560E+01
 11
1.07248612E+02
 21
3.49917560E+01
  0
LINE
  8
0
 62
7
 10
1.05248612E+02
 20
3.84517560E+01
 11
1.05248612E+02
 21
3.15417560E+01
  0
LINE
  8
0
 62
7
 10
1.05248612E+02
 20
3.15417560E+01
 11
1.05248612E+02
 21
3.13917560E+01
  0
LINE
  8
0
 62
7
 10
9.32486118E+01
 20
3.84517560E+01
 11
9.32486118E+01
 21
3.82417560E+01
  0
LINE
  8
0
 62
7
 10
9.32486118E+01
 20
3.15417560E+01
 11
9.32486118E+01
 21
3.13917560E+01
  0
LINE
  8
0
 62
4
 10
-9.29881012E+01
 20
-4.22104135E+01
 11
-9.29881012E+01
 21
-4.38004135E+01
  0
LINE
  8
0
  6
CENTER
 62
6
 10
-1.20088101E+02
 20
-4.58146146E+01
 11
-1.20088101E+02
 21
-4.02569591E+01
  0
LINE
  8
0
  6
CENTER
 62
6
 10
-9.78881012E+01
 20
-4.58146146E+01
 11
-9.78881012E+01
 21
-3.99583900E+01
  0
LINE
  8
0
 62
4
 10
-1.24988101E+02
 20
-4.22104135E+01
 11
-1.24988101E+02
 21
-4.38004135E+01
  0
ARC
  8
0
 62
4
 10
-1.08988101E+02
 20
-3.48054166E+01
 40
6.99410138E+00
 50
4.17254003E+01
 51
1.38274600E+02
  0
LINE
  8
0
 62
4
 10
-1.24988101E+02
 20
-4.22104135E+01
 11
-9.29881012E+01
 21
-4.22104135E+01
  0
LINE
  8
0
  6
CENTER
 62
6
 10
-1.14602046E+02
 20
-3.48104135E+01
 11
-1.03405702E+02
 21
-3.48104135E+01
  0
LINE
  8
0
 62
4
 10
-1.24988101E+02
 20
-4.22104135E+01
 11
-1.14208101E+02
 21
-3.01504135E+01
  0
LINE
  8
0
  6
CENTER
 62
6
 10
-1.08988101E+02
 20
-2.90606154E+01
 11
-1.08988101E+02
 21
-4.08540975E+01
  0
LINE
  8
0
 62
4
 10
-9.29881012E+01
 20
-4.22104135E+01
 11
-1.03768101E+02
 21
-3.01504135E+01
  0
CIRCLE
  8
0
 62
4
 10
-1.08988101E+02
 20
-3.48104135E+01
 40
4.00000000E+00
  0
LINE
  8
0
 62
4
 10
-1.24988101E+02
 20
-4.38004135E+01
 11
-9.29881012E+01
 21
-4.38004135E+01
  0
LINE
  8
0
 62
4
 10
-8.00881012E+01
 20
-4.22004135E+01
 11
-8.00881012E+01
 21
-4.38004135E+01
  0
LINE
  8
0
 62
4
 10
-7.58881012E+01
 20
-4.22004135E+01
 11
-7.58881012E+01
 21
-4.38004135E+01
  0
LINE
  8
0
 62
4
 10
-7.25881012E+01
 20
-2.78004135E+01
 11
-7.09881012E+01
 21
-2.78004135E+01
  0
LINE
  8
0
 62
4
 10
-7.25881012E+01
 20
-2.78004135E+01
 11
-7.25881012E+01
 21
-4.12004135E+01
  0
ARC
  8
0
 62
4
 10
-7.35912725E+01
 20
-4.11972422E+01
 40
1.00317633E+00
 50
2.70181129E+02
 51
3.59818872E+02
  0
LINE
  8
0
 62
4
 10
-8.29881012E+01
 20
-4.22004135E+01
 11
-7.35881012E+01
 21
-4.22004135E+01
  0
LINE
  8
0
 62
4
 10
-8.29881012E+01
 20
-4.22004135E+01
 11
-8.29881012E+01
 21
-4.38004135E+01
  0
LINE
  8
0
 62
4
 10
-8.29881012E+01
 20
-4.38004135E+01
 11
-7.35881012E+01
 21
-4.38004135E+01
  0
ARC
  8
0
 62
4
 10
-7.35912735E+01
 20
-4.11972412E+01
 40
2.60317420E+00
 50
2.70069822E+02
 51
3.59930178E+02
  0
LINE
  8
0
 62
4
 10
-7.09881012E+01
 20
-2.78004135E+01
 11
-7.09881012E+01
 21
-4.12004135E+01
  0
LINE
  8
0
  6
CENTER
 62
6
 10
-7.79881012E+01
 20
-3.99583900E+01
 11
-7.79881012E+01
 21
-4.58146146E+01
  0
LINE
  8
0
  6
CENTER
 62
6
 10
-7.50141479E+01
 20
-3.48104135E+01
 11
-6.90681811E+01
 21
-3.48104135E+01
  0
LINE
  8
0
  6
CENTER
 62
6
 10
-1.08988101E+02
 20
1.58958649E+00
 11
-1.08988101E+02
 21
-1.30404135E+01
  0
ARC
  8
0
 62
4
 10
-1.20095148E+02
 20
-6.80041351E+00
 40
2.10001182E+00
 50
2.70192271E+02
 51
8.98077287E+01
  0
ARC
  8
0
 62
4
 10
-9.78951514E+01
 20
-6.80041351E+00
 40
2.10001183E+00
 50
8.98076456E+01
 51
2.70192355E+02
  0
LINE
  8
0
 62
4
 10
-1.24988101E+02
 20
-8.90041351E+00
 11
-1.24988101E+02
 21
-1.18004135E+01
  0
LINE
  8
0
 62
4
 10
-9.29881012E+01
 20
-8.90041351E+00
 11
-9.29881012E+01
 21
-1.18004135E+01
  0
LINE
  8
0
 62
4
 10
-9.78881012E+01
 20
-8.90041351E+00
 11
-9.29881012E+01
 21
-8.90041351E+00
  0
LINE
  8
0
 62
4
 10
-9.78881012E+01
 20
-4.70041351E+00
 11
-9.29881012E+01
 21
-4.70041351E+00
  0
LINE
  8
0
 62
4
 10
-1.24988101E+02
 20
-8.90041351E+00
 11
-1.20088101E+02
 21
-8.90041351E+00
  0
LINE
  8
0
 62
4
 10
-1.24988101E+02
 20
-4.70041351E+00
 11
-1.20088101E+02
 21
-4.70041351E+00
  0
LINE
  8
0
  6
CENTER
 62
6
 10
-1.22961983E+02
 20
-6.80041351E+00
 11
-9.51950501E+01
 21
-6.80041351E+00
  0
LINE
  8
0
 62
4
 10
-1.24988101E+02
 20
-1.18004135E+01
 11
-9.29881012E+01
 21
-1.18004135E+01
  0
LINE
  8
0
 62
4
 10
-1.24988101E+02
 20
1.99586491E-01
 11
-9.29881012E+01
 21
1.99586491E-01
  0
LINE
  8
0
 62
4
 10
-9.29881012E+01
 20
1.99586491E-01
 11
-9.29881012E+01
 21
-4.70041351E+00
  0
LINE
  8
0
 62
4
 10
-1.24988101E+02
 20
1.99586491E-01
 11
-1.24988101E+02
 21
-4.70041351E+00
  0
LINE
  8
0
 62
4
 10
-1.24988101E+02
 20
-1.40041351E+00
 11
-9.29881012E+01
 21
-1.40041351E+00
  0
LINE
  8
0
  6
CENTER
 62
6
 10
-1.20088101E+02
 20
-1.02671334E+01
 11
-1.20088101E+02
 21
-3.80041351E+00
  0
LINE
  8
0
  6
CENTER
 62
6
 10
-9.78881012E+01
 20
-9.96856425E+00
 11
-9.78881012E+01
 21
-3.69861179E+00
  0
ARC
  8
0
 62
4
 10
-3.00881012E+01
 20
-3.48104135E+01
 40
2.10000000E+00
 50
2.70000000E+02
 51
9.00000002E+01
  0
ARC
  8
0
 62
4
 10
-7.88810119E+00
 20
-3.48104135E+01
 40
2.10000000E+00
 50
9.00000002E+01
 51
2.70000000E+02
  0
LINE
  8
0
 62
4
 10
-3.49881012E+01
 20
-3.69104135E+01
 11
-3.49881012E+01
 21
-4.18104135E+01
  0
LINE
  8
0
 62
4
 10
-2.98810119E+00
 20
-3.69104135E+01
 11
-2.98810119E+00
 21
-4.18104135E+01
  0
LINE
  8
0
 62
4
 10
-3.49881012E+01
 20
-2.78104135E+01
 11
-2.98810119E+00
 21
-2.78104135E+01
  0
LINE
  8
0
 62
4
 10
-3.49881012E+01
 20
-4.18104135E+01
 11
-2.98810119E+00
 21
-4.18104135E+01
  0
LINE
  8
0
 62
4
 10
-7.88810119E+00
 20
-3.27104135E+01
 11
-2.98810119E+00
 21
-3.27104135E+01
  0
LINE
  8
0
 62
4
 10
-7.88810119E+00
 20
-3.69104135E+01
 11
-2.98810119E+00
 21
-3.69104135E+01
  0
LINE
  8
0
 62
4
 10
-3.49881012E+01
 20
-3.27104135E+01
 11
-3.00881012E+01
 21
-3.27104135E+01
  0
LINE
  8
0
 62
4
 10
-3.49881012E+01
 20
-3.69104135E+01
 11
-3.00881012E+01
 21
-3.69104135E+01
  0
LINE
  8
0
  6
CENTER
 62
6
 10
-3.21062609E+01
 20
-3.48104135E+01
 11
-5.48768137E+00
 21
-3.48104135E+01
  0
LINE
  8
0
  6
CENTER
 62
6
 10
-1.89881012E+01
 20
-2.96250908E+01
 11
-1.89881012E+01
 21
-4.04524322E+01
  0
CIRCLE
  8
0
 62
4
 10
-1.89881012E+01
 20
-3.48104135E+01
 40
4.00000000E+00
  0
LINE
  8
0
 62
4
 10
-2.98810119E+00
 20
-2.78104135E+01
 11
-2.98810119E+00
 21
-3.27104135E+01
  0
LINE
  8
0
 62
4
 10
-3.49881012E+01
 20
-2.78104135E+01
 11
-3.49881012E+01
 21
-3.27104135E+01
  0
LINE
  8
0
  6
CENTER
 62
6
 10
-3.00881012E+01
 20
-3.20672643E+01
 11
-3.00881012E+01
 21
-3.78270990E+01
  0
LINE
  8
0
  6
CENTER
 62
6
 10
-7.88810119E+00
 20
-3.20672643E+01
 11
-7.88810119E+00
 21
-3.78270990E+01
  0
LINE
  8
0
  6
CENTER
 62
6
 10
2.01016383E+01
 20
-3.48104135E+01
 11
2.55788726E+01
 21
-3.48104135E+01
  0
LINE
  8
0
 62
4
 10
2.20118988E+01
 20
-2.78104135E+01
 11
2.36118988E+01
 21
-2.78104135E+01
  0
LINE
  8
0
 62
4
 10
2.36118988E+01
 20
-2.78104135E+01
 11
2.36118988E+01
 21
-4.18104135E+01
  0
LINE
  8
0
 62
4
 10
2.20118988E+01
 20
-2.78104135E+01
 11
2.20118988E+01
 21
-4.18104135E+01
  0
LINE
  8
0
 62
4
 10
2.20118988E+01
 20
-3.69104135E+01
 11
2.36118988E+01
 21
-3.69104135E+01
  0
LINE
  8
0
 62
4
 10
2.20118988E+01
 20
-4.18104135E+01
 11
2.36118988E+01
 21
-4.18104135E+01
  0
LINE
  8
0
 62
4
 10
2.20118988E+01
 20
-3.27104135E+01
 11
2.36118988E+01
 21
-3.27104135E+01
  0
LINE
  8
0
  6
CENTER
 62
6
 10
-7.88810119E+00
 20
-1.06338586E+01
 11
-7.88810119E+00
 21
-5.67863831E+00
  0
LINE
  8
0
  6
CENTER
 62
6
 10
-3.00881012E+01
 20
-1.05261364E+01
 11
-3.00881012E+01
 21
-5.57091613E+00
  0
LINE
  8
0
  6
CENTER
 62
6
 10
-7.88810119E+00
 20
-1.05261364E+01
 11
-7.88810119E+00
 21
-5.57091613E+00
  0
LINE
  8
0
  6
CENTER
 62
6
 10
-7.88810119E+00
 20
-1.05261364E+01
 11
-7.88810119E+00
 21
-5.57091613E+00
  0
LINE
  8
0
  6
CENTER
 62
6
 10
-1.89881012E+01
 20
-1.05261364E+01
 11
-1.89881012E+01
 21
-5.57091613E+00
  0
LINE
  8
0
 62
4
 10
-3.49881012E+01
 20
-7.21041351E+00
 11
-3.49881012E+01
 21
-8.81041351E+00
  0
LINE
  8
0
 62
4
 10
-3.49881012E+01
 20
-8.81041351E+00
 11
-2.98810119E+00
 21
-8.81041351E+00
  0
LINE
  8
0
 62
4
 10
-3.49881012E+01
 20
-7.21041351E+00
 11
-2.98810119E+00
 21
-7.21041351E+00
  0
LINE
  8
0
 62
4
 10
-2.98810119E+00
 20
-7.21041351E+00
 11
-2.98810119E+00
 21
-8.81041351E+00
  0
LINE
  8
0
  6
CENTER
 62
6
 10
5.64604514E+01
 20
-1.25913787E+01
 11
8.44604514E+01
 21
-1.25913787E+01
  0
LINE
  8
0
 62
4
 10
7.34604514E+01
 20
-6.59137869E+00
 11
8.24604514E+01
 21
-6.59137869E+00
  0
LINE
  8
0
 62
4
 10
7.34604514E+01
 20
-1.85913787E+01
 11
8.24604514E+01
 21
-1.85913787E+01
  0
CIRCLE
  8
0
 62
4
 10
7.79604514E+01
 20
-1.25913787E+01
 40
2.06700000E+00
  0
LINE
  8
0
 62
4
 10
8.24604514E+01
 20
-6.59137869E+00
 11
8.24604514E+01
 21
-1.85913787E+01
  0
LINE
  8
0
  6
CENTER
 62
6
 10
7.79604514E+01
 20
-8.98137869E+00
 11
7.79604514E+01
 21
-1.61913787E+01
  0
LINE
  8
0
 62
4
 10
8.07304514E+01
 20
-6.59137869E+00
 11
8.07304514E+01
 21
-8.98637869E+00
  0
LINE
  8
0
 62
4
 10
8.07304514E+01
 20
-1.61963787E+01
 11
8.07304514E+01
 21
-1.85913787E+01
  0
CIRCLE
  8
0
 62
6
 10
7.79604514E+01
 20
-1.25913787E+01
 40
2.50000000E+00
  0
LINE
  8
0
 62
4
 10
7.34604514E+01
 20
-6.59137869E+00
 11
7.34604514E+01
 21
-1.85913787E+01
  0
LINE
  8
0
 62
4
 10
7.51904514E+01
 20
-1.61963787E+01
 11
7.51904514E+01
 21
-1.85913787E+01
  0
LINE
  8
0
 62
4
 10
7.51904514E+01
 20
-6.59137869E+00
 11
7.51904514E+01
 21
-8.98637869E+00
  0
LINE
  8
0
 62
4
 10
7.51904514E+01
 20
-8.98637869E+00
 11
8.07304514E+01
 21
-8.98637869E+00
  0
LINE
  8
0
 62
4
 10
7.51904514E+01
 20
-1.61963787E+01
 11
8.07304514E+01
 21
-1.61963787E+01
  0
ARC
  8
0
 62
4
 10
7.80815280E+01
 20
-1.25913787E+01
 40
4.62107659E+00
 50
1.28728323E+02
 51
2.31271678E+02
  0
ARC
  8
0
 62
4
 10
7.78393749E+01
 20
-1.25913787E+01
 40
4.62107659E+00
 50
3.08728322E+02
 51
5.12716774E+01
  0
LINE
  8
0
  6
CENTER
 62
6
 10
1.02110451E+02
 20
-4.59137869E+00
 11
1.02110451E+02
 21
-2.05913787E+01
  0
LINE
  8
0
  6
CENTER
 62
6
 10
9.41104514E+01
 20
-1.25913787E+01
 11
1.10110451E+02
 21
-1.25913787E+01
  0
LINE
  8
0
 62
4
 10
9.61104514E+01
 20
-8.98137869E+00
 11
9.61104514E+01
 21
-1.61913787E+01
  0
LINE
  8
0
 62
4
 10
1.08110451E+02
 20
-8.98137869E+00
 11
1.08110451E+02
 21
-1.61913787E+01
  0
LINE
  8
0
 62
4
 10
9.85004514E+01
 20
-6.59137869E+00
 11
1.05710451E+02
 21
-6.59137869E+00
  0
LINE
  8
0
 62
4
 10
9.85004514E+01
 20
-1.85913787E+01
 11
1.05710451E+02
 21
-1.85913787E+01
  0
ARC
  8
0
 62
4
 10
1.02119110E+02
 20
-1.25977768E+01
 40
7.00128235E+00
 50
2.10882401E+02
 51
2.38878368E+02
  0
CIRCLE
  8
0
 62
4
 10
1.02104425E+02
 20
-1.25830730E+01
 40
6.00000000E+00
  0
ARC
  8
0
 62
4
 10
1.02103285E+02
 20
-1.25842127E+01
 40
7.00697432E+00
 50
3.00983855E+02
 51
3.29016145E+02
  0
ARC
  8
0
 62
4
 10
1.02119124E+02
 20
-1.25977530E+01
 40
6.99815420E+00
 50
3.11152468E+01
 51
5.91239836E+01
  0
ARC
  8
0
 62
4
 10
1.02103286E+02
 20
-1.25842130E+01
 40
6.99245864E+00
 50
1.21013880E+02
 51
1.48986120E+02
  0
TEXT
  8
0
 62
7
 10
-5.71374690E+01
 20
-8.84000011E+01
 40
3.20000005E+00
  1
-5
 41
1.00000000E+00
  7
MONOTXT
  0
TEXT
  8
0
 62
7
 10
-5.71374690E+01
 20
-8.24000031E+01
 40
3.20000005E+00
  1
-5
 41
1.00000000E+00
  7
MONOTXT
  0
TEXT
  8
0
 62
7
 10
-5.71374690E+01
 20
-7.03963805E+01
 40
3.20000005E+00
  1
25
 41
1.00000000E+00
  7
MONOTXT
  0
TEXT
  8
0
 62
7
 10
-7.07374691E+01
 20
-8.84000011E+01
 40
3.20000005E+00
  1
-10
 41
1.00000000E+00
  7
MONOTXT
  0
TEXT
  8
0
 62
7
 10
-7.07374691E+01
 20
-8.24000031E+01
 40
3.20000005E+00
  1
-10
 41
1.00000000E+00
  7
MONOTXT
  0
TEXT
  8
0
 62
7
 10
-6.91374690E+01
 20
-7.03963805E+01
 40
3.20000005E+00
  1
20
 41
1.00000000E+00
  7
MONOTXT
  0
LINE
  8
0
 62
7
 10
-4.83999939E+01
 20
-5.98000031E+01
 11
-4.83999939E+01
 21
-8.98000031E+01
  0
LINE
  8
0
 62
7
 10
-6.03999939E+01
 20
-5.98000031E+01
 11
-6.03999939E+01
 21
-8.98000031E+01
  0
LINE
  8
0
 62
2
 10
5.46158889E+01
 20
-1.80913787E+01
 11
6.09665555E+01
 21
-7.09137869E+00
  0
LINE
  8
0
 62
7
 10
6.09612222E+01
 20
-7.09137869E+00
 11
7.34612222E+01
 21
-7.09137869E+00
  0
LINE
  8
0
 62
7
 10
5.46112222E+01
 20
-1.80913787E+01
 11
7.34612222E+01
 21
-1.80913787E+01
  0
TEXT
  8
0
 62
7
 10
-1.03642994E+02
 20
-5.83963843E+01
 40
3.20000005E+00
  1
STRETCH LIST
 41
1.05263158E+00
  7
MONOTXT
  0
TEXT
  8
0
 62
7
 10
-4.83429940E+01
 20
-5.83963843E+01
 40
3.20000005E+00
  1
(mm)
 41
1.00000000E+00
  7
MONOTXT
  0
TEXT
  8
0
 62
7
 10
-1.06737469E+02
 20
-8.84000011E+01
 40
3.20000005E+00
  1
-30
 41
1.00000000E+00
  7
MONOTXT
  0
TEXT
  8
0
 62
7
 10
-9.47374691E+01
 20
-8.84000011E+01
 40
3.20000005E+00
  1
-25
 41
1.00000000E+00
  7
MONOTXT
  0
TEXT
  8
0
 62
7
 10
-8.27374691E+01
 20
-8.84000011E+01
 40
3.20000005E+00
  1
-20
 41
1.00000000E+00
  7
MONOTXT
  0
TEXT
  8
0
 62
7
 10
-4.35374690E+01
 20
-8.84000011E+01
 40
3.20000005E+00
  1
0
 41
1.00000000E+00
  7
MONOTXT
  0
TEXT
  8
0
 62
7
 10
-1.22037469E+02
 20
-8.84000031E+01
 40
3.20000005E+00
  1
B
 41
1.00000000E+00
  7
MONOTXT
  0
TEXT
  8
0
 62
7
 10
-1.22037469E+02
 20
-8.24000031E+01
 40
3.20000005E+00
  1
A
 41
1.00000000E+00
  7
MONOTXT
  0
TEXT
  8
0
 62
7
 10
-1.32241000E+02
 20
-7.19763780E+01
 40
3.20000005E+00
  1
STRETCH
 41
1.00000000E+00
  7
MONOTXT
  0
TEXT
  8
0
 62
7
 10
-1.32241000E+02
 20
-7.67763782E+01
 40
3.20000005E+00
  1
  PLACE
 41
1.20689655E+00
  7
MONOTXT
  0
TEXT
  8
0
 62
7
 10
-1.06737469E+02
 20
-8.24000031E+01
 40
3.20000005E+00
  1
-25
 41
1.00000000E+00
  7
MONOTXT
  0
TEXT
  8
0
 62
7
 10
-9.47374691E+01
 20
-8.24000031E+01
 40
3.20000005E+00
  1
-20
 41
1.00000000E+00
  7
MONOTXT
  0
TEXT
  8
0
 62
7
 10
-8.27374691E+01
 20
-8.24000031E+01
 40
3.20000005E+00
  1
-15
 41
1.00000000E+00
  7
MONOTXT
  0
TEXT
  8
0
 62
7
 10
-4.35374690E+01
 20
-8.24000031E+01
 40
3.20000005E+00
  1
0
 41
1.00000000E+00
  7
MONOTXT
  0
TEXT
  8
0
 62
7
 10
-1.03537469E+02
 20
-7.03963805E+01
 40
3.20000005E+00
  1
5
 41
1.00000000E+00
  7
MONOTXT
  0
TEXT
  8
0
 62
7
 10
-9.31374690E+01
 20
-7.03963805E+01
 40
3.20000005E+00
  1
10
 41
1.00000000E+00
  7
MONOTXT
  0
TEXT
  8
0
 62
7
 10
-8.11374690E+01
 20
-7.03963805E+01
 40
3.20000005E+00
  1
15
 41
1.00000000E+00
  7
MONOTXT
  0
TEXT
  8
0
 62
7
 10
-4.51374690E+01
 20
-7.03963805E+01
 40
3.20000005E+00
  1
30
 41
1.00000000E+00
  7
MONOTXT
  0
TEXT
  8
0
 62
7
 10
-1.29037469E+02
 20
-6.43963843E+01
 40
3.20000005E+00
  1
STROKE
 41
1.00000000E+00
  7
MONOTXT
  0
LINE
  8
0
 62
7
 10
-1.33399994E+02
 20
-5.98000031E+01
 11
-1.33399994E+02
 21
-8.98000031E+01
  0
LINE
  8
0
 62
7
 10
-1.33399994E+02
 20
-6.58000031E+01
 11
-1.10509994E+02
 21
-6.58000031E+01
  0
LINE
  8
0
 62
7
 10
-1.08399994E+02
 20
-7.78000031E+01
 11
-1.10509994E+02
 21
-6.58000031E+01
  0
LINE
  8
0
 62
7
 10
-1.33399994E+02
 20
-7.78000031E+01
 11
-3.63999939E+01
 21
-7.78000031E+01
  0
LINE
  8
0
 62
7
 10
-1.33399994E+02
 20
-5.98000031E+01
 11
-3.63999939E+01
 21
-5.98000031E+01
  0
LINE
  8
0
 62
7
 10
-3.63999939E+01
 20
-5.98000031E+01
 11
-3.63999939E+01
 21
-8.98000031E+01
  0
LINE
  8
0
 62
7
 10
-7.23999939E+01
 20
-5.98000031E+01
 11
-7.23999939E+01
 21
-8.98000031E+01
  0
LINE
  8
0
 62
7
 10
-8.43999939E+01
 20
-5.98000031E+01
 11
-8.43999939E+01
 21
-8.98000031E+01
  0
LINE
  8
0
 62
7
 10
-9.63999939E+01
 20
-5.98000031E+01
 11
-9.63999939E+01
 21
-8.98000031E+01
  0
LINE
  8
0
 62
7
 10
-1.08399994E+02
 20
-5.98000031E+01
 11
-1.08399994E+02
 21
-8.98000031E+01
  0
LINE
  8
0
 62
7
 10
-1.33399994E+02
 20
-8.38000031E+01
 11
-3.63999939E+01
 21
-8.38000031E+01
  0
LINE
  8
0
 62
7
 10
-1.33399994E+02
 20
-8.98000031E+01
 11
-3.63999939E+01
 21
-8.98000031E+01
  0
TEXT
  8
0
 10
-6.92610803E+01
 20
6.60639124E+01
 40
3.20000005E+00
  1
STRETCH LINE A
 41
1.09375000E+00
  7
MONOTXT
  0
TEXT
  8
0
 10
1.07389197E+01
 20
6.60639124E+01
 40
3.20000005E+00
  1
STRETCH LINE B
 41
1.09375000E+00
  7
MONOTXT
  0
LINE
  8
0
 62
7
 10
-1.38399994E+02
 20
9.45000000E+01
 11
1.38350006E+02
 21
9.45000000E+01
  0
LINE
  8
0
 62
7
 10
1.38350006E+02
 20
9.45000000E+01
 11
1.38350006E+02
 21
-9.48000031E+01
  0
LINE
  8
0
 62
7
 10
-1.38399994E+02
 20
-9.48000031E+01
 11
1.38350006E+02
 21
-9.48000031E+01
  0
LINE
  8
0
 62
7
 10
-1.38399994E+02
 20
9.45000000E+01
 11
-1.38399994E+02
 21
-9.48000031E+01
  0
LINE
  8
0
 62
7
 10
7.33500061E+01
 20
-8.48000031E+01
 11
1.38350006E+02
 21
-8.48000031E+01
  0
LINE
  8
0
 62
7
 10
-1.38399994E+02
 20
8.45000000E+01
 11
-7.33999939E+01
 21
8.45000000E+01
  0
LINE
  8
0
 62
7
 10
7.33500061E+01
 20
8.45000000E+01
 11
1.38350006E+02
 21
8.45000000E+01
  0
LINE
  8
0
 62
7
 10
7.33500061E+01
 20
-8.48000031E+01
 11
7.33500061E+01
 21
-9.48000031E+01
  0
LINE
  8
0
 62
7
 10
7.33500061E+01
 20
9.45000000E+01
 11
7.33500061E+01
 21
8.45000000E+01
  0
LINE
  8
0
 62
7
 10
-7.33999939E+01
 20
9.45000000E+01
 11
-7.33999939E+01
 21
8.45000000E+01
  0
TEXT
  8
0
 62
7
 10
7.72426624E+01
 20
-9.20500031E+01
 40
4.50000000E+00
  1
KOGANEI CORP.
 41
1.04838710E+00
  7
MONOTXT
  0
TEXT
  8
0
 62
7
 10
9.35071483E+01
 20
8.79000000E+01
 40
3.20000005E+00
  1
Ver. 1.1
 41
1.08108108E+00
  7
MONOTXT
  0
TEXT
  8
0
 62
7
 10
-1.31042852E+02
 20
8.79000000E+01
 40
3.20000005E+00
  1
NEW PEN CYLINDER
 41
1.08108108E+00
  7
MONOTXT
  0
TEXT
  8
0
 62
7
 10
-1.29085994E+02
 20
7.29000000E+01
 40
3.20000005E+00
  1
MODEL:PBTAS10*ST(30)-ZC230
 41
1.00000000E+00
  7
MONOTXT
  0
ENDSEC
  0
EOF
