  0
SECTION
  2
HEADER
  9
$ACADVER
  1
AC1003
  9
$EXTMIN
 10
-1.38399994E+02
 20
-9.48000031E+01
  9
$EXTMAX
 10
1.38350006E+02
 20
9.45000000E+01
  9
$LIMMIN
 10
-1.38400994E+02
 20
-9.48010031E+01
  9
$LIMMAX
 10
1.38351006E+02
 20
9.45010000E+01
  9
$SNAPUNIT
 10
1
 20
1
  9
$SNAPBASE
 10
0
 20
0
  9
$GRIDMODE
 70
0
  9
$GRIDUNIT
 10
0
 20
0
  9
$LTSCALE
 40
4.61250000E+00
  9
$TEXTSIZE
 40
3.2
  9
$DIMTAD
 70
0
  9
$LUNITS
 70
2
  9
$LUPREC
 70
4
  9
$FILLETRAD
 40
0
  9
$AUNITS
 70
0
  9
$AUPREC
 70
0
  0
ENDSEC
  0
SECTION
  2
TABLES
  0
TABLE
  2
LTYPE
 70
2
  0
LTYPE
  2
CONTINUOUS
 70
64
  3
Solid-Line
 72
65
 73
0
 40
0
  0
LTYPE
  2
DASHED
 70
64
  3
DASHED
 72
65
 73
2
 40
.75
 49
.5
 49
-.25
  0
LTYPE
  2
HIDDEN
 70
64
  3
HIDDEN
 72
65
 73
2
 40
.375
 49
.25
 49
-.125
  0
LTYPE
  2
CENTER
 70
64
  3
CENTER
 72
65
 73
4
 40
2
 49
1.25
 49
-.25
 49
.25
 49
-.25
  0
LTYPE
  2
PHANTOM
 70
64
  3
PHANTOM
 72
65
 73
6
 40
2.5
 49
1.25
 49
-.25
 49
.25
 49
-.25
 49
.25
 49
-.25
  0
ENDTAB
  0
TABLE
  2
LAYER
 70
1
  0
LAYER
  2
1
 70
0
 62
7
  6
CONTINUOUS
 0
ENDTAB
  0
TABLE
  2
STYLE
 70
2
  0
STYLE
  2
MONOTXT
 70
0
 40
0
 41
1
 50
0
 71
0
 42
.2
  3
monotxt
  0
STYLE
  2
BIGFONT
 70
0
 40
0
 41
1
 50
0
 71
0
 42
.2
  3
txt
  4
bigfont
  0
ENDTAB
  0
ENDSEC
  0
SECTION
  2
ENTITIES
  0
LINE
  8
0
  6
CENTER
 62
2
 10
-5.28777162E+01
 20
4.37949137E+01
 11
5.59131818E+01
 21
4.37949137E+01
  0
LINE
  8
0
 62
2
 10
-5.00426802E+01
 20
4.21449137E+01
 11
-4.58159913E+01
 21
4.21449137E+01
  0
LINE
  8
0
 62
2
 10
-4.26159867E+01
 20
4.21449137E+01
 11
-3.53926591E+01
 21
4.21449137E+01
  0
LINE
  8
0
 62
2
 10
-4.26159867E+01
 20
4.54449137E+01
 11
-3.53926591E+01
 21
4.54449137E+01
  0
LINE
  8
0
 62
2
 10
-5.00426802E+01
 20
4.54449137E+01
 11
-4.58159913E+01
 21
4.54449137E+01
  0
TEXT
  8
0
 62
7
 10
-1.52286004E+01
 20
3.95449137E+01
 40
1.50000000E+00
  1
PBSALS10
 41
1.00000000E+00
  7
MONOTXT
  0
LINE
  8
0
  6
PHANTOM
 10
2.64941271E+01
 20
4.81699132E+01
 11
2.64941271E+01
 21
6.48308995E+01
  0
LINE
  8
0
  6
PHANTOM
 10
1.71206776E+01
 20
4.81699132E+01
 11
2.64941271E+01
 21
4.81699132E+01
  0
LINE
  8
0
 62
4
 10
5.01073371E+01
 20
4.50949137E+01
 11
5.01073371E+01
 21
4.92949128E+01
  0
LINE
  8
0
 62
4
 10
5.06073371E+01
 20
4.31579146E+01
 11
5.06073371E+01
 21
3.87949137E+01
  0
LINE
  8
0
 62
7
 10
3.66073371E+01
 20
3.82949137E+01
 11
4.46073371E+01
 21
3.82949137E+01
  0
LINE
  8
0
 62
7
 10
3.66073371E+01
 20
4.92949128E+01
 11
4.46073371E+01
 21
4.92949128E+01
  0
LINE
  8
0
 62
4
 10
4.76073371E+01
 20
4.50949137E+01
 11
4.76073371E+01
 21
4.24949137E+01
  0
LINE
  8
0
 62
4
 10
4.76073371E+01
 20
4.50949137E+01
 11
5.25443362E+01
 21
4.50949137E+01
  0
LINE
  8
0
 62
6
 10
5.25443362E+01
 20
4.50949137E+01
 11
4.99443362E+01
 21
4.24949137E+01
  0
LINE
  8
0
 62
4
 10
4.76073371E+01
 20
4.24949137E+01
 11
4.99443362E+01
 21
4.24949137E+01
  0
LINE
  8
0
 62
4
 10
4.46073371E+01
 20
4.17949137E+01
 11
4.76073371E+01
 21
4.24949137E+01
  0
LINE
  8
0
 62
4
 10
4.46073371E+01
 20
4.57949137E+01
 11
4.76073371E+01
 21
4.50949137E+01
  0
LINE
  8
0
 62
4
 10
3.91073371E+01
 20
4.57949137E+01
 11
4.46073371E+01
 21
4.57949137E+01
  0
LINE
  8
0
 62
4
 10
3.66073371E+01
 20
4.70449137E+01
 11
3.91073371E+01
 21
4.70449137E+01
  0
LINE
  8
0
 62
4
 10
2.06073371E+01
 20
4.57949137E+01
 11
2.51073371E+01
 21
4.57949137E+01
  0
LINE
  8
0
 62
4
 10
2.51073371E+01
 20
4.70449137E+01
 11
2.76073371E+01
 21
4.70449137E+01
  0
LINE
  8
0
 62
4
 10
3.01073371E+01
 20
4.86421087E+01
 11
3.01073371E+01
 21
4.96593926E+01
  0
LINE
  8
0
 62
4
 10
3.01073371E+01
 20
4.88949137E+01
 11
3.41073371E+01
 21
4.88949137E+01
  0
LINE
  8
0
 62
4
 10
3.41073371E+01
 20
4.96593926E+01
 11
3.41073371E+01
 21
4.86421087E+01
  0
LINE
  8
0
 62
4
 10
2.76073371E+01
 20
4.96593926E+01
 11
3.66073371E+01
 21
4.96593926E+01
  0
LINE
  8
0
 62
4
 10
2.76073371E+01
 20
4.80949504E+01
 11
3.66073371E+01
 21
4.80949504E+01
  0
LINE
  8
0
 62
4
 10
2.76073371E+01
 20
4.86421087E+01
 11
3.66073371E+01
 21
4.86421087E+01
  0
LINE
  8
0
 62
4
 10
2.76073371E+01
 20
3.81449137E+01
 11
3.66073371E+01
 21
3.81449137E+01
  0
LINE
  8
0
 62
4
 10
2.76073371E+01
 20
3.94949137E+01
 11
3.66073371E+01
 21
3.94949137E+01
  0
LINE
  8
0
 62
4
 10
2.76073371E+01
 20
3.81488601E+01
 11
3.66073371E+01
 21
3.81488601E+01
  0
LINE
  8
0
 62
4
 10
3.31173371E+01
 20
4.27949137E+01
 11
3.10473371E+01
 21
4.48549137E+01
  0
LINE
  8
0
 62
4
 10
3.10473371E+01
 20
4.27349137E+01
 11
3.31673371E+01
 21
4.48549137E+01
  0
LINE
  8
0
 62
4
 10
3.32173371E+01
 20
4.26949137E+01
 11
3.31673371E+01
 21
4.27349137E+01
  0
LINE
  8
0
 62
4
 10
1.96073371E+01
 20
4.47949137E+01
 11
1.96073371E+01
 21
4.27949137E+01
  0
LINE
  8
0
 62
4
 10
1.96073371E+01
 20
4.27949137E+01
 11
2.06073371E+01
 21
4.17949137E+01
  0
LINE
  8
0
 62
4
 10
2.06073371E+01
 20
4.17949137E+01
 11
2.51073371E+01
 21
4.17949137E+01
  0
LINE
  8
0
 62
4
 10
2.51073371E+01
 20
4.05449137E+01
 11
2.76073371E+01
 21
4.05449137E+01
  0
LINE
  8
0
 62
4
 10
3.66073371E+01
 20
4.05449137E+01
 11
3.91073371E+01
 21
4.05449137E+01
  0
LINE
  8
0
 62
4
 10
3.91073371E+01
 20
4.17949137E+01
 11
4.46073371E+01
 21
4.17949137E+01
  0
LINE
  8
0
 62
4
 10
3.91073371E+01
 20
4.05449137E+01
 11
3.91073371E+01
 21
4.70449137E+01
  0
LINE
  8
0
 62
4
 10
3.66073371E+01
 20
3.81449137E+01
 11
3.66073371E+01
 21
4.96593926E+01
  0
LINE
  8
0
 62
4
 10
1.96073371E+01
 20
4.47949137E+01
 11
2.06073371E+01
 21
4.57949137E+01
  0
LINE
  8
0
 62
4
 10
2.06073371E+01
 20
4.57949137E+01
 11
2.06073371E+01
 21
4.17949137E+01
  0
LINE
  8
0
 62
4
 10
2.51073371E+01
 20
4.05449137E+01
 11
2.51073371E+01
 21
4.70449137E+01
  0
LINE
  8
0
 62
4
 10
2.76073371E+01
 20
3.81449137E+01
 11
2.76073371E+01
 21
4.96593926E+01
  0
CIRCLE
  8
0
 62
4
 10
3.21064618E+01
 20
4.37924552E+01
 40
2.50000000E+00
  0
LINE
  8
0
  6
CENTER
 62
6
 10
3.21073371E+01
 20
5.10949137E+01
 11
3.21073371E+01
 21
3.56149137E+01
  0
CIRCLE
  8
0
 62
7
 10
-2.08926629E+01
 20
4.37949137E+01
 40
5.00000000E-01
  0
ARC
  8
0
 62
7
 10
-2.78926629E+01
 20
4.37949137E+01
 40
8.50000000E+00
 50
3.25439676E+02
 51
3.45603166E+01
  0
ARC
  8
0
 62
7
 10
-3.37750138E+01
 20
4.19762601E+01
 40
6.17644012E-01
 50
7.89619728E+01
 51
1.98961976E+02
  0
ARC
  8
0
 62
7
 10
-3.37750138E+01
 20
4.56135673E+01
 40
6.17644012E-01
 50
1.61038020E+02
 51
2.81038023E+02
  0
ARC
  8
0
 62
7
 10
-1.38926629E+01
 20
4.37949137E+01
 40
8.50000000E+00
 50
1.45439685E+02
 51
2.14560325E+02
  0
ARC
  8
0
 62
4
 10
-3.88998574E+01
 20
4.37949137E+01
 40
1.39111109E+01
 50
3.43110928E+02
 51
1.68890719E+01
  0
ARC
  8
0
 62
4
 10
-2.86915254E+01
 20
4.98570914E+01
 40
3.70277786E+00
 50
3.26925270E+02
 51
3.30747300E+01
  0
ARC
  8
0
 62
4
 10
-2.86915254E+01
 20
3.77327360E+01
 40
3.70277786E+00
 50
3.26925270E+02
 51
3.30747300E+01
  0
ARC
  8
0
 62
4
 10
-2.52859658E+01
 20
3.77327360E+01
 40
3.70277786E+00
 50
1.46925265E+02
 51
2.13074732E+02
  0
ARC
  8
0
 62
4
 10
-1.50776319E+01
 20
4.37949137E+01
 40
1.39111109E+01
 50
1.63110928E+02
 51
1.96889071E+02
  0
ARC
  8
0
 62
4
 10
-2.52859658E+01
 20
4.98570914E+01
 40
3.70277786E+00
 50
1.46925265E+02
 51
2.13074732E+02
  0
ARC
  8
0
 62
7
 10
-3.30259294E+01
 20
4.37949137E+01
 40
1.36672843E+00
 50
1.17487955E+02
 51
2.42512041E+02
  0
ARC
  8
0
 62
4
 10
-4.41793870E+01
 20
4.68260025E+01
 40
1.56340027E+00
 50
3.19739791E+02
 51
4.02602086E+01
  0
ARC
  8
0
 62
4
 10
-4.42525910E+01
 20
4.07638249E+01
 40
1.56340027E+00
 50
1.39739796E+02
 51
2.20260214E+02
  0
ARC
  8
0
 62
4
 10
-4.41793870E+01
 20
4.07638249E+01
 40
1.56340027E+00
 50
3.19739791E+02
 51
4.02602086E+01
  0
ARC
  8
0
 62
4
 10
-4.42525910E+01
 20
4.68260025E+01
 40
1.56340027E+00
 50
1.39739796E+02
 51
2.20260214E+02
  0
ARC
  8
0
 62
4
 10
-4.83140763E+01
 20
4.37949137E+01
 40
5.69808722E+00
 50
3.39229087E+02
 51
2.07709126E+01
  0
ARC
  8
0
 62
4
 10
-4.01179017E+01
 20
4.37949137E+01
 40
5.69808722E+00
 50
1.59229086E+02
 51
2.00770911E+02
  0
LINE
  8
0
  6
CENTER
 62
2
 10
-2.08926629E+01
 20
5.07949137E+01
 11
-2.08926629E+01
 21
3.67949137E+01
  0
LINE
  8
0
 62
7
 10
-1.93926629E+01
 20
5.07949137E+01
 11
-1.93926629E+01
 21
3.67949137E+01
  0
LINE
  8
0
 62
7
 10
-4.96926622E+01
 20
4.57949137E+01
 11
-4.58159913E+01
 21
4.57949137E+01
  0
LINE
  8
0
 62
7
 10
-2.08926629E+01
 20
3.89730887E+01
 11
-2.08926629E+01
 21
3.67949137E+01
  0
LINE
  8
0
 62
7
 10
-2.08926629E+01
 20
5.07949137E+01
 11
-2.08926629E+01
 21
4.86167392E+01
  0
LINE
  8
0
 62
4
 10
-2.83887433E+01
 20
3.57120098E+01
 11
-2.55887479E+01
 21
3.57120098E+01
  0
LINE
  8
0
 62
4
 10
-2.83887433E+01
 20
3.97534623E+01
 11
-2.55887460E+01
 21
3.97534623E+01
  0
LINE
  8
0
 62
4
 10
-2.83887433E+01
 20
4.78363656E+01
 11
-2.55887460E+01
 21
4.78363656E+01
  0
LINE
  8
0
 62
4
 10
-2.83887433E+01
 20
5.18778176E+01
 11
-2.55887479E+01
 21
5.18778176E+01
  0
LINE
  8
0
 62
7
 10
-3.36567620E+01
 20
4.13700423E+01
 11
-3.03926591E+01
 21
4.13700423E+01
  0
LINE
  8
0
 62
7
 10
-3.43926567E+01
 20
4.17949142E+01
 11
-3.36567595E+01
 21
4.13700438E+01
  0
LINE
  8
0
 62
7
 10
-3.43926571E+01
 20
4.57949158E+01
 11
-3.36567615E+01
 21
4.62197853E+01
  0
LINE
  8
0
 62
7
 10
-3.43926591E+01
 20
4.57949137E+01
 11
-3.43926591E+01
 21
4.17949137E+01
  0
LINE
  8
0
 62
7
 10
-3.36567620E+01
 20
4.25824780E+01
 11
-3.03926591E+01
 21
4.25824780E+01
  0
LINE
  8
0
 62
7
 10
-3.36567620E+01
 20
4.50073494E+01
 11
-3.03926591E+01
 21
4.50073494E+01
  0
LINE
  8
0
 62
7
 10
-3.36567620E+01
 20
4.62197849E+01
 11
-3.03926591E+01
 21
4.62197849E+01
  0
LINE
  8
0
 62
7
 10
-2.23926629E+01
 20
3.67949137E+01
 11
-1.93926629E+01
 21
3.67949137E+01
  0
LINE
  8
0
 62
7
 10
-2.95926637E+01
 20
3.87949147E+01
 11
-2.89887437E+01
 21
3.87949147E+01
  0
LINE
  8
0
 62
7
 10
-3.00926637E+01
 20
3.92949147E+01
 11
-2.89887437E+01
 21
3.92949147E+01
  0
LINE
  8
0
 62
7
 10
-2.49887475E+01
 20
3.87949147E+01
 11
-2.23926629E+01
 21
3.87949147E+01
  0
LINE
  8
0
 62
2
 10
-2.49887475E+01
 20
3.92949147E+01
 11
-2.38926629E+01
 21
3.92949147E+01
  0
LINE
  8
0
 62
7
 10
-2.95926628E+01
 20
3.87949125E+01
 11
-3.03926626E+01
 21
3.95949123E+01
  0
LINE
  8
0
 62
2
 10
-3.00926637E+01
 20
4.82949128E+01
 11
-2.89887437E+01
 21
4.82949128E+01
  0
LINE
  8
0
 62
2
 10
-2.49887475E+01
 20
4.82949128E+01
 11
-2.38926629E+01
 21
4.82949128E+01
  0
LINE
  8
0
 62
7
 10
-2.95926637E+01
 20
4.87949128E+01
 11
-2.89887437E+01
 21
4.87949128E+01
  0
LINE
  8
0
 62
7
 10
-2.23926629E+01
 20
5.07949137E+01
 11
-1.93926629E+01
 21
5.07949137E+01
  0
LINE
  8
0
 62
7
 10
-2.49887475E+01
 20
4.87949128E+01
 11
-2.23926629E+01
 21
4.87949128E+01
  0
LINE
  8
0
 62
7
 10
-1.93926629E+01
 20
4.92949128E+01
 11
-1.89266292E+00
 21
4.92949128E+01
  0
LINE
  8
0
 62
7
 10
-1.93926629E+01
 20
3.82949137E+01
 11
6.07337084E-01
 21
3.82949137E+01
  0
LINE
  8
0
 62
4
 10
-2.49887475E+01
 20
4.97949128E+01
 11
-2.49887475E+01
 21
3.77949137E+01
  0
LINE
  8
0
 62
4
 10
-2.89887437E+01
 20
4.97949128E+01
 11
-2.89887437E+01
 21
3.77949137E+01
  0
LINE
  8
0
 62
4
 10
-4.29863222E+01
 20
3.97534611E+01
 11
-4.26159799E+01
 21
4.03949127E+01
  0
LINE
  8
0
 62
4
 10
-4.58159905E+01
 20
4.03949113E+01
 11
-4.54456482E+01
 21
3.97534597E+01
  0
LINE
  8
0
 62
4
 10
-4.29863304E+01
 20
4.78363710E+01
 11
-4.26159881E+01
 21
4.71949194E+01
  0
LINE
  8
0
 62
4
 10
-4.58159795E+01
 20
4.71949104E+01
 11
-4.54456373E+01
 21
4.78363620E+01
  0
LINE
  8
0
 62
7
 10
-4.26159867E+01
 20
4.17949137E+01
 11
-3.43926591E+01
 21
4.17949137E+01
  0
LINE
  8
0
 62
4
 10
-4.54456452E+01
 20
3.97534613E+01
 11
-4.29863328E+01
 21
3.97534613E+01
  0
LINE
  8
0
 62
4
 10
-4.54456452E+01
 20
4.78363652E+01
 11
-4.29863328E+01
 21
4.78363652E+01
  0
LINE
  8
0
 62
4
 10
-4.54456452E+01
 20
4.17741875E+01
 11
-4.29863328E+01
 21
4.17741875E+01
  0
LINE
  8
0
 62
4
 10
-4.54456452E+01
 20
4.58156399E+01
 11
-4.29863328E+01
 21
4.58156399E+01
  0
LINE
  8
0
 62
7
 10
-4.26159867E+01
 20
4.57949137E+01
 11
-3.43926591E+01
 21
4.57949137E+01
  0
LINE
  8
0
 62
4
 10
-4.58159913E+01
 20
4.71949143E+01
 11
-4.58159913E+01
 21
4.03949131E+01
  0
LINE
  8
0
 62
4
 10
-4.26159867E+01
 20
4.71949143E+01
 11
-4.26159867E+01
 21
4.03949131E+01
  0
LINE
  8
0
 62
7
 10
-5.03926591E+01
 20
4.50949139E+01
 11
-5.03926591E+01
 21
4.24949135E+01
  0
LINE
  8
0
 62
7
 10
-5.03926654E+01
 20
4.24949114E+01
 11
-4.96926636E+01
 21
4.17949096E+01
  0
LINE
  8
0
 62
7
 10
-4.96926622E+01
 20
4.57949137E+01
 11
-4.96926622E+01
 21
4.17949137E+01
  0
LINE
  8
0
 62
7
 10
-3.53926591E+01
 20
4.57949137E+01
 11
-3.53926591E+01
 21
4.17949137E+01
  0
LINE
  8
0
 62
7
 10
-4.96926622E+01
 20
4.17949137E+01
 11
-4.58159913E+01
 21
4.17949137E+01
  0
LINE
  8
0
 62
7
 10
-4.96926718E+01
 20
4.57949221E+01
 11
-5.03926737E+01
 21
4.50949202E+01
  0
LINE
  8
0
 62
7
 10
-2.95926627E+01
 20
4.87949127E+01
 11
-3.03926625E+01
 21
4.79949129E+01
  0
LINE
  8
0
 62
7
 10
-2.38926629E+01
 20
4.87949128E+01
 11
-2.38926629E+01
 21
3.87949147E+01
  0
LINE
  8
0
 62
7
 10
-2.95926637E+01
 20
4.87949128E+01
 11
-2.95926637E+01
 21
3.87949147E+01
  0
LINE
  8
0
 62
4
 10
4.46073371E+01
 20
4.92949128E+01
 11
5.01073371E+01
 21
4.92949128E+01
  0
LINE
  8
0
 62
4
 10
4.46073371E+01
 20
3.82949137E+01
 11
5.01073371E+01
 21
3.82949137E+01
  0
LINE
  8
0
 62
7
 10
-2.23926629E+01
 20
5.07949137E+01
 11
-2.23926629E+01
 21
3.67949137E+01
  0
LINE
  8
0
 62
4
 10
5.06073371E+01
 20
4.87949128E+01
 11
5.06073371E+01
 21
4.50949137E+01
  0
LINE
  8
0
 62
7
 10
-3.03926591E+01
 20
4.79949154E+01
 11
-3.03926591E+01
 21
3.95949120E+01
  0
LINE
  8
0
 62
4
 10
5.01073371E+01
 20
3.82949137E+01
 11
5.01073371E+01
 21
4.24949137E+01
  0
LINE
  8
0
 62
4
 10
5.01073415E+01
 20
4.92949144E+01
 11
5.06073420E+01
 21
4.87949138E+01
  0
LINE
  8
0
 62
4
 10
5.06073389E+01
 20
3.87949135E+01
 11
5.01073383E+01
 21
3.82949130E+01
  0
LINE
  8
0
 62
4
 10
4.46073371E+01
 20
4.92949128E+01
 11
4.46073371E+01
 21
3.82949137E+01
  0
ARC
  8
0
 62
4
 10
6.60567143E+00
 20
6.02932481E+01
 40
1.00166704E+00
 50
9.52762946E-02
 51
8.99047236E+01
  0
ARC
  8
0
 62
4
 10
3.60812857E+00
 20
6.02941222E+01
 40
1.00079180E+00
 50
9.00000002E+01
 51
1.79954687E+02
  0
LINE
  8
0
 62
4
 10
3.60733708E+00
 20
6.12949137E+01
 11
6.60733708E+00
 21
6.12949137E+01
  0
LINE
  8
0
 62
6
 10
2.55443362E+01
 20
5.33949137E+01
 11
2.29443362E+01
 21
5.07949137E+01
  0
LINE
  8
0
 62
4
 10
2.06073371E+01
 20
5.33949137E+01
 11
2.06073371E+01
 21
5.07949137E+01
  0
LINE
  8
0
 62
4
 10
1.76073371E+01
 20
5.40949137E+01
 11
1.76073371E+01
 21
5.00949137E+01
  0
LINE
  8
0
 62
4
 10
1.76073371E+01
 20
5.40949137E+01
 11
2.06073371E+01
 21
5.33949137E+01
  0
LINE
  8
0
 62
4
 10
1.76073371E+01
 20
5.00949137E+01
 11
2.06073371E+01
 21
5.07949137E+01
  0
LINE
  8
0
 62
4
 10
2.06073371E+01
 20
5.07949137E+01
 11
2.29443362E+01
 21
5.07949137E+01
  0
LINE
  8
0
 62
4
 10
2.06073371E+01
 20
5.33949137E+01
 11
2.55443362E+01
 21
5.33949137E+01
  0
LINE
  8
0
 62
4
 10
9.60733708E+00
 20
4.87949137E+01
 11
1.21073371E+01
 21
4.87949137E+01
  0
LINE
  8
0
 62
4
 10
-1.89266292E+00
 20
4.87949137E+01
 11
6.07337084E-01
 21
4.87949137E+01
  0
LINE
  8
0
 62
4
 10
-1.89266292E+00
 20
5.50949137E+01
 11
-1.89266292E+00
 21
5.22949137E+01
  0
LINE
  8
0
 62
4
 10
1.21073371E+01
 20
5.50949137E+01
 11
1.21073371E+01
 21
5.22949137E+01
  0
LINE
  8
0
 62
4
 10
-7.39266292E+00
 20
5.10949137E+01
 11
-6.39266292E+00
 21
5.00949137E+01
  0
LINE
  8
0
 62
4
 10
-7.39266292E+00
 20
5.30949137E+01
 11
-6.39266292E+00
 21
5.40949137E+01
  0
LINE
  8
0
 62
4
 10
-6.39266292E+00
 20
5.40949137E+01
 11
-6.39266292E+00
 21
5.00949137E+01
  0
LINE
  8
0
 62
4
 10
2.60733708E+00
 20
5.97949137E+01
 11
7.60733708E+00
 21
5.97949137E+01
  0
LINE
  8
0
 62
4
 10
-6.39266292E+00
 20
5.00949137E+01
 11
-1.89266292E+00
 21
5.00949137E+01
  0
LINE
  8
0
 62
4
 10
-7.39266292E+00
 20
5.30949137E+01
 11
-7.39266292E+00
 21
5.10949137E+01
  0
LINE
  8
0
 62
4
 10
6.07337084E-01
 20
3.81449137E+01
 11
9.60733708E+00
 21
3.81449137E+01
  0
LINE
  8
0
 62
4
 10
9.60733708E+00
 20
5.22949137E+01
 11
1.21073371E+01
 21
5.22949137E+01
  0
LINE
  8
0
 62
4
 10
6.07337084E-01
 20
5.87949137E+01
 11
9.60733708E+00
 21
5.87949137E+01
  0
LINE
  8
0
 62
4
 10
6.07337084E-01
 20
5.22949137E+01
 11
6.07337084E-01
 21
3.81449137E+01
  0
LINE
  8
0
 62
4
 10
9.60733708E+00
 20
5.22949137E+01
 11
9.60733708E+00
 21
3.81449137E+01
  0
LINE
  8
0
 62
4
 10
-1.89266292E+00
 20
5.40949137E+01
 11
-6.39266292E+00
 21
5.40949137E+01
  0
LINE
  8
0
 62
4
 10
6.60733708E+00
 20
5.97949137E+01
 11
6.60733708E+00
 21
5.87949137E+01
  0
LINE
  8
0
 62
4
 10
3.60733708E+00
 20
5.97949137E+01
 11
3.60733708E+00
 21
5.87949137E+01
  0
LINE
  8
0
 62
6
 10
6.33733708E+00
 20
5.97949137E+01
 11
6.33733708E+00
 21
5.87949137E+01
  0
LINE
  8
0
 62
6
 10
3.87733708E+00
 20
5.97949137E+01
 11
3.87733708E+00
 21
5.87949137E+01
  0
LINE
  8
0
 62
4
 10
6.07337075E-01
 20
3.81488610E+01
 11
9.60733707E+00
 21
3.81488610E+01
  0
LINE
  8
0
 62
4
 10
-1.89266293E+00
 20
5.18949137E+01
 11
6.07337084E-01
 21
5.18949137E+01
  0
LINE
  8
0
 62
4
 10
-1.89266293E+00
 20
5.22949137E+01
 11
6.07337084E-01
 21
5.22949137E+01
  0
LINE
  8
0
 62
4
 10
-1.89266293E+00
 20
5.50949137E+01
 11
6.07337084E-01
 21
5.50949137E+01
  0
LINE
  8
0
 62
4
 10
9.60733708E+00
 20
5.50949137E+01
 11
1.21073371E+01
 21
5.50949137E+01
  0
LINE
  8
0
 62
4
 10
9.60733708E+00
 20
5.18949137E+01
 11
1.21073371E+01
 21
5.18949137E+01
  0
LINE
  8
0
 62
4
 10
9.60733708E+00
 20
5.22949137E+01
 11
9.60733708E+00
 21
5.87949137E+01
  0
LINE
  8
0
 62
4
 10
6.07337084E-01
 20
5.22949137E+01
 11
6.07337084E-01
 21
5.87949137E+01
  0
LINE
  8
0
 62
4
 10
6.07337084E-01
 20
5.22949137E+01
 11
9.60733708E+00
 21
5.22949137E+01
  0
LINE
  8
0
 62
4
 10
1.21073371E+01
 20
5.18949137E+01
 11
1.21073371E+01
 21
4.87949137E+01
  0
LINE
  8
0
 62
4
 10
-1.89266292E+00
 20
5.18949137E+01
 11
-1.89266292E+00
 21
4.87949137E+01
  0
LINE
  8
0
 62
4
 10
1.21073371E+01
 20
5.00949137E+01
 11
1.76073371E+01
 21
5.00949137E+01
  0
LINE
  8
0
 62
4
 10
1.21073371E+01
 20
5.40949137E+01
 11
1.76073371E+01
 21
5.40949137E+01
  0
LINE
  8
0
  6
CENTER
 62
6
 10
5.10733708E+00
 20
6.38049137E+01
 11
5.10733708E+00
 21
3.63749137E+01
  0
LINE
  8
0
 62
4
 10
7.60733708E+00
 20
6.02949137E+01
 11
7.60733708E+00
 21
5.97949137E+01
  0
LINE
  8
0
 62
4
 10
2.60733708E+00
 20
6.02949137E+01
 11
2.60733708E+00
 21
5.97949137E+01
  0
LINE
  8
0
 62
7
 10
1.21073371E+01
 20
4.92949128E+01
 11
2.76073371E+01
 21
4.92949128E+01
  0
LINE
  8
0
 62
7
 10
9.60733708E+00
 20
3.82949137E+01
 11
2.76073371E+01
 21
3.82949137E+01
  0
LINE
  8
0
  6
PHANTOM
 10
1.71206776E+01
 20
4.81699132E+01
 11
1.71206776E+01
 21
3.15601851E+01
  0
LINE
  8
0
 62
4
 10
-8.68062984E+01
 20
5.60949128E+01
 11
-8.38062984E+01
 21
5.60949128E+01
  0
LINE
  8
0
 62
4
 10
-7.30062994E+01
 20
4.52949137E+01
 11
-7.30062994E+01
 21
4.22949137E+01
  0
CIRCLE
  8
0
 62
2
 10
-8.53062984E+01
 20
4.37949137E+01
 40
1.65000000E+00
  0
CIRCLE
  8
0
 62
2
 10
-8.53062984E+01
 20
4.37949137E+01
 40
4.49999905E+00
  0
LINE
  8
0
 62
4
 10
-7.81062994E+01
 20
4.27449137E+01
 11
-7.83062984E+01
 21
4.25449147E+01
  0
LINE
  8
0
 62
4
 10
-7.81062994E+01
 20
4.48449137E+01
 11
-7.83062984E+01
 21
4.50449128E+01
  0
LINE
  8
0
 62
4
 10
-7.81062994E+01
 20
4.27449137E+01
 11
-7.81062994E+01
 21
4.48449137E+01
  0
LINE
  8
0
 62
4
 10
-7.81562994E+01
 20
4.86249137E+01
 11
-7.81417667E+01
 21
4.87742081E+01
  0
LINE
  8
0
 62
4
 10
-7.81562994E+01
 20
4.86249137E+01
 11
-7.83231822E+01
 21
4.86411584E+01
  0
LINE
  8
0
 62
4
 10
-7.75062994E+01
 20
4.72949137E+01
 11
-7.75062994E+01
 21
4.80949137E+01
  0
LINE
  8
0
 62
4
 10
-7.72062994E+01
 20
4.05449137E+01
 11
-7.72062994E+01
 21
4.17449137E+01
  0
LINE
  8
0
 62
4
 10
-7.72062994E+01
 20
4.05449137E+01
 11
-7.83062982E+01
 21
4.05449137E+01
  0
ARC
  8
0
 62
4
 10
-6.87986726E+01
 20
4.53025404E+01
 40
9.92402587E-01
 50
3.59559672E+02
 51
9.04403286E+01
  0
ARC
  8
0
 62
4
 10
-6.88064289E+01
 20
4.22950433E+01
 40
1.00012957E+00
 50
2.70000000E+02
 51
3.59992577E+02
  0
ARC
  8
0
 62
4
 10
-7.10986742E+01
 20
4.73025389E+01
 40
7.92411497E-01
 50
3.59448647E+02
 51
9.05513523E+01
  0
ARC
  8
0
 62
4
 10
-7.11064377E+01
 20
4.02950521E+01
 40
8.00138358E-01
 50
2.70000000E+02
 51
3.59990093E+02
  0
ARC
  8
0
 62
4
 10
-7.15986742E+01
 20
4.68025389E+01
 40
4.92433852E-01
 50
3.59112757E+02
 51
9.08872431E+01
  0
ARC
  8
0
 62
4
 10
-7.16064595E+01
 20
4.07950739E+01
 40
5.00160181E-01
 50
2.70000000E+02
 51
3.59981653E+02
  0
LINE
  8
0
 62
4
 10
-7.18062994E+01
 20
4.52949137E+01
 11
-7.30062994E+01
 21
4.52949137E+01
  0
LINE
  8
0
 62
6
 10
-7.18062994E+01
 20
4.50249137E+01
 11
-7.32762994E+01
 21
4.50249137E+01
  0
LINE
  8
0
 62
6
 10
-7.18062994E+01
 20
4.25649137E+01
 11
-7.32762994E+01
 21
4.25649137E+01
  0
LINE
  8
0
 62
4
 10
-7.18062994E+01
 20
4.22949137E+01
 11
-7.30062994E+01
 21
4.22949137E+01
  0
LINE
  8
0
 62
4
 10
-6.78062994E+01
 20
4.22949137E+01
 11
-6.78062994E+01
 21
4.52949137E+01
  0
LINE
  8
0
 62
4
 10
-6.88062994E+01
 20
4.12949137E+01
 11
-6.93062994E+01
 21
4.12949137E+01
  0
LINE
  8
0
 62
4
 10
-6.88062994E+01
 20
4.62949137E+01
 11
-6.93062994E+01
 21
4.62949137E+01
  0
LINE
  8
0
 62
6
 10
-6.93062994E+01
 20
4.25649137E+01
 11
-7.03062994E+01
 21
4.25649137E+01
  0
LINE
  8
0
 62
6
 10
-6.93062994E+01
 20
4.50249137E+01
 11
-7.03062994E+01
 21
4.50249137E+01
  0
LINE
  8
0
 62
4
 10
-6.93062994E+01
 20
4.52949137E+01
 11
-7.03062994E+01
 21
4.52949137E+01
  0
LINE
  8
0
 62
4
 10
-6.93062994E+01
 20
4.22949137E+01
 11
-7.03062994E+01
 21
4.22949137E+01
  0
LINE
  8
0
 62
4
 10
-7.48157055E+01
 20
4.89528055E+01
 11
-7.43762994E+01
 21
4.96949137E+01
  0
LINE
  8
0
 62
4
 10
-7.39348667E+01
 20
4.88670628E+01
 11
-7.39162994E+01
 21
4.88949137E+01
  0
LINE
  8
0
 62
4
 10
-7.16062994E+01
 20
4.02949137E+01
 11
-7.16062994E+01
 21
4.04449137E+01
  0
LINE
  8
0
 62
4
 10
-7.16062994E+01
 20
4.04449137E+01
 11
-7.68062994E+01
 21
4.04449137E+01
  0
LINE
  8
0
 62
4
 10
-7.43762994E+01
 20
4.80949137E+01
 11
-7.42114605E+01
 21
4.83916237E+01
  0
LINE
  8
0
 62
4
 10
-7.20062994E+01
 20
4.88949137E+01
 11
-7.39162994E+01
 21
4.88949137E+01
  0
LINE
  8
0
 62
4
 10
-7.20062994E+01
 20
4.88949137E+01
 11
-7.20062994E+01
 21
4.96949137E+01
  0
LINE
  8
0
 62
4
 10
-7.20062994E+01
 20
4.96949137E+01
 11
-7.43762994E+01
 21
4.96949137E+01
  0
LINE
  8
0
 62
4
 10
-7.53062994E+01
 20
4.80949137E+01
 11
-7.50836908E+01
 21
4.84765285E+01
  0
LINE
  8
0
 62
4
 10
-7.68062994E+01
 20
3.94949137E+01
 11
-7.68062994E+01
 21
4.02949137E+01
  0
LINE
  8
0
 62
4
 10
-7.11062994E+01
 20
4.17349137E+01
 11
-7.18062994E+01
 21
4.17949137E+01
  0
LINE
  8
0
 62
4
 10
-7.11062994E+01
 20
4.58549137E+01
 11
-7.18062994E+01
 21
4.57949137E+01
  0
LINE
  8
0
 62
4
 10
-7.11062994E+01
 20
3.94949137E+01
 11
-7.68062994E+01
 21
3.94949137E+01
  0
LINE
  8
0
 62
4
 10
-7.11062994E+01
 20
4.07949137E+01
 11
-7.11062994E+01
 21
4.67949137E+01
  0
LINE
  8
0
 62
4
 10
-7.18062994E+01
 20
4.17949137E+01
 11
-7.18062994E+01
 21
4.57949137E+01
  0
LINE
  8
0
 62
4
 10
-7.03062994E+01
 20
4.02949137E+01
 11
-7.03062994E+01
 21
4.72949137E+01
  0
LINE
  8
0
 62
4
 10
-6.93062994E+01
 20
4.12949137E+01
 11
-6.93062994E+01
 21
4.62949137E+01
  0
LINE
  8
0
 62
4
 10
-7.16062994E+01
 20
4.02949137E+01
 11
-7.68062994E+01
 21
4.02949137E+01
  0
LINE
  8
0
 62
4
 10
-7.68062994E+01
 20
4.05449137E+01
 11
-7.68062994E+01
 21
4.17449137E+01
  0
LINE
  8
0
 62
4
 10
-7.40062994E+01
 20
4.05449137E+01
 11
-7.40062994E+01
 21
4.70449137E+01
  0
LINE
  8
0
 62
4
 10
-7.47062994E+01
 20
4.27949137E+01
 11
-7.47062994E+01
 21
4.47949137E+01
  0
LINE
  8
0
 62
4
 10
-7.47062994E+01
 20
4.47949137E+01
 11
-7.50062994E+01
 21
4.47949137E+01
  0
LINE
  8
0
 62
4
 10
-7.47062994E+01
 20
4.27949137E+01
 11
-7.50062994E+01
 21
4.27949137E+01
  0
LINE
  8
0
 62
4
 10
-7.50062994E+01
 20
4.17449137E+01
 11
-7.50062994E+01
 21
4.58449137E+01
  0
LINE
  8
0
 62
4
 10
-7.33062994E+01
 20
4.05449137E+01
 11
-7.33062994E+01
 21
4.70449137E+01
  0
LINE
  8
0
 62
4
 10
-7.33062994E+01
 20
4.05449137E+01
 11
-7.68062994E+01
 21
4.05449137E+01
  0
LINE
  8
0
 62
4
 10
-7.16723449E+01
 20
4.81444608E+01
 11
-7.16239028E+01
 21
4.86421087E+01
  0
LINE
  8
0
 62
4
 10
-7.30062994E+01
 20
4.52949137E+01
 11
-7.33062994E+01
 21
4.49949137E+01
  0
LINE
  8
0
 62
4
 10
-7.30062994E+01
 20
4.22949137E+01
 11
-7.33062994E+01
 21
4.25949137E+01
  0
LINE
  8
0
 62
4
 10
-7.60062994E+01
 20
4.27449137E+01
 11
-7.60062994E+01
 21
4.48449137E+01
  0
LINE
  8
0
 62
4
 10
-7.60062994E+01
 20
4.48449137E+01
 11
-7.50062994E+01
 21
4.58449137E+01
  0
LINE
  8
0
 62
4
 10
-7.60062994E+01
 20
4.27449137E+01
 11
-7.50062994E+01
 21
4.17449137E+01
  0
LINE
  8
0
 62
4
 10
-7.60062994E+01
 20
4.48449137E+01
 11
-7.81062994E+01
 21
4.48449137E+01
  0
LINE
  8
0
 62
4
 10
-7.60062994E+01
 20
4.27449137E+01
 11
-7.81062994E+01
 21
4.27449137E+01
  0
LINE
  8
0
 62
4
 10
-7.16239028E+01
 20
4.86421087E+01
 11
-7.88705680E+01
 21
4.93475144E+01
  0
LINE
  8
0
 62
4
 10
-7.16723449E+01
 20
4.81444608E+01
 11
-7.84383834E+01
 21
4.88030813E+01
  0
LINE
  8
0
 62
4
 10
-7.68062994E+01
 20
4.02949137E+01
 11
-7.83062982E+01
 21
3.98776425E+01
  0
LINE
  8
0
 62
4
 10
-7.68062994E+01
 20
4.04449137E+01
 11
-7.83062982E+01
 21
4.00288582E+01
  0
LINE
  8
0
 62
4
 10
-7.33062994E+01
 20
4.70449137E+01
 11
-7.83062982E+01
 21
4.70449137E+01
  0
LINE
  8
0
 62
4
 10
-7.50062994E+01
 20
4.58449137E+01
 11
-7.83062982E+01
 21
4.58449137E+01
  0
LINE
  8
0
 62
4
 10
-7.50062994E+01
 20
4.17449137E+01
 11
-7.83062982E+01
 21
4.17449137E+01
  0
LINE
  8
0
 62
4
 10
-7.16062994E+01
 20
4.72949137E+01
 11
-7.75062994E+01
 21
4.72949137E+01
  0
LINE
  8
0
 62
4
 10
-7.11062994E+01
 20
4.80949137E+01
 11
-7.75062994E+01
 21
4.80949137E+01
  0
LINE
  8
0
 62
4
 10
-8.42562984E+01
 20
5.30949128E+01
 11
-8.32562984E+01
 21
5.40949128E+01
  0
LINE
  8
0
 62
4
 10
-8.63562984E+01
 20
5.30949128E+01
 11
-8.73562984E+01
 21
5.40949128E+01
  0
LINE
  8
0
 62
4
 10
-8.63562984E+01
 20
5.30949128E+01
 11
-8.63562984E+01
 21
5.12716000E+01
  0
LINE
  8
0
 62
4
 10
-8.42562984E+01
 20
5.30949128E+01
 11
-8.63562984E+01
 21
5.30949128E+01
  0
LINE
  8
0
 62
4
 10
-8.42562984E+01
 20
5.30949128E+01
 11
-8.42562984E+01
 21
5.12715980E+01
  0
LINE
  8
0
 62
4
 10
-8.38062984E+01
 20
5.60949128E+01
 11
-8.41062984E+01
 21
5.57949128E+01
  0
LINE
  8
0
 62
4
 10
-8.68062984E+01
 20
5.60949128E+01
 11
-8.65062984E+01
 21
5.57949128E+01
  0
LINE
  8
0
 62
4
 10
-8.96558455E+01
 20
5.74288672E+01
 11
-9.01534934E+01
 21
5.74773093E+01
  0
LINE
  8
0
 62
4
 10
-9.01534934E+01
 20
5.74773093E+01
 11
-9.08588991E+01
 21
5.02306441E+01
  0
LINE
  8
0
 62
4
 10
-9.01362984E+01
 20
5.09449128E+01
 11
-9.02855928E+01
 21
5.09594454E+01
  0
LINE
  8
0
 62
4
 10
-8.96558455E+01
 20
5.74288672E+01
 11
-9.03144661E+01
 21
5.06628287E+01
  0
LINE
  8
0
 62
4
 10
-9.01362984E+01
 20
5.09449128E+01
 11
-9.01525431E+01
 21
5.07780299E+01
  0
LINE
  8
0
 62
4
 10
-8.18062984E+01
 20
5.22949128E+01
 11
-8.13890272E+01
 21
5.07949139E+01
  0
LINE
  8
0
 62
4
 10
-8.19562984E+01
 20
5.22949128E+01
 11
-8.15402429E+01
 21
5.07949139E+01
  0
LINE
  8
0
 62
4
 10
-8.85562984E+01
 20
5.57949128E+01
 11
-8.85562984E+01
 21
5.07949139E+01
  0
LINE
  8
0
 62
4
 10
-8.20562984E+01
 20
5.57949128E+01
 11
-8.20562984E+01
 21
5.22949128E+01
  0
LINE
  8
0
 62
4
 10
-8.20562984E+01
 20
5.57949128E+01
 11
-8.85562984E+01
 21
5.57949128E+01
  0
LINE
  8
0
 62
4
 10
-8.73562984E+01
 20
5.40949128E+01
 11
-8.73562984E+01
 21
5.07949139E+01
  0
LINE
  8
0
 62
4
 10
-8.32562984E+01
 20
5.40949128E+01
 11
-8.73562984E+01
 21
5.40949128E+01
  0
LINE
  8
0
 62
4
 10
-8.43062984E+01
 20
5.43949128E+01
 11
-8.43062984E+01
 21
5.40949128E+01
  0
LINE
  8
0
 62
4
 10
-8.63062984E+01
 20
5.43949128E+01
 11
-8.63062984E+01
 21
5.40949128E+01
  0
LINE
  8
0
 62
4
 10
-8.43062984E+01
 20
5.43949128E+01
 11
-8.63062984E+01
 21
5.43949128E+01
  0
LINE
  8
0
 62
4
 10
-8.20562984E+01
 20
5.50949128E+01
 11
-8.85562984E+01
 21
5.50949128E+01
  0
LINE
  8
0
 62
4
 10
-8.20562984E+01
 20
5.18949128E+01
 11
-8.32562984E+01
 21
5.18949128E+01
  0
LINE
  8
0
 62
4
 10
-8.20562984E+01
 20
5.22949128E+01
 11
-8.32562984E+01
 21
5.22949128E+01
  0
LINE
  8
0
 62
4
 10
-8.20562984E+01
 20
5.18949128E+01
 11
-8.20562984E+01
 21
5.07949139E+01
  0
LINE
  8
0
 62
4
 10
-8.32562984E+01
 20
5.40949128E+01
 11
-8.32562984E+01
 21
5.07949139E+01
  0
LINE
  8
0
 62
4
 10
-8.88062984E+01
 20
5.74949128E+01
 11
-8.88062984E+01
 21
5.15949128E+01
  0
LINE
  8
0
 62
4
 10
-8.18062984E+01
 20
5.74949128E+01
 11
-8.18062984E+01
 21
5.22949128E+01
  0
LINE
  8
0
 62
4
 10
-8.28062984E+01
 20
5.97949128E+01
 11
-8.78062984E+01
 21
5.97949128E+01
  0
LINE
  8
0
 62
4
 10
-8.18062984E+01
 20
5.87949128E+01
 11
-8.88062984E+01
 21
5.87949128E+01
  0
LINE
  8
0
 62
4
 10
-8.33062984E+01
 20
5.72949128E+01
 11
-8.73062984E+01
 21
5.72949128E+01
  0
LINE
  8
0
 62
4
 10
-8.23062984E+01
 20
5.79949128E+01
 11
-8.83062984E+01
 21
5.79949128E+01
  0
LINE
  8
0
 62
4
 10
-8.96062984E+01
 20
5.79949128E+01
 11
-8.96062984E+01
 21
5.15949128E+01
  0
LINE
  8
0
 62
4
 10
-8.10062984E+01
 20
5.79949128E+01
 11
-8.10062984E+01
 21
5.22949128E+01
  0
LINE
  8
0
 62
4
 10
-8.73662984E+01
 20
5.79949128E+01
 11
-8.73062984E+01
 21
5.72949128E+01
  0
LINE
  8
0
 62
4
 10
-8.32462984E+01
 20
5.79949128E+01
 11
-8.33062984E+01
 21
5.72949128E+01
  0
LINE
  8
0
 62
4
 10
-8.10062984E+01
 20
5.22949128E+01
 11
-8.18062984E+01
 21
5.22949128E+01
  0
LINE
  8
0
 62
4
 10
-8.88062984E+01
 20
5.15949128E+01
 11
-8.96062984E+01
 21
5.15949128E+01
  0
LINE
  8
0
 62
4
 10
-8.96062984E+01
 20
5.37949128E+01
 11
-8.99879132E+01
 21
5.40175214E+01
  0
LINE
  8
0
 62
4
 10
-9.12062984E+01
 20
5.70949128E+01
 11
-9.12062984E+01
 21
5.47249128E+01
  0
LINE
  8
0
 62
4
 10
-9.04062984E+01
 20
5.70949128E+01
 11
-9.12062984E+01
 21
5.70949128E+01
  0
LINE
  8
0
 62
4
 10
-9.04062984E+01
 20
5.70949128E+01
 11
-9.04062984E+01
 21
5.51849128E+01
  0
LINE
  8
0
 62
4
 10
-8.96062984E+01
 20
5.47249128E+01
 11
-8.99030084E+01
 21
5.48897516E+01
  0
LINE
  8
0
 62
4
 10
-8.19562984E+01
 20
5.74949128E+01
 11
-8.19562984E+01
 21
5.22949128E+01
  0
LINE
  8
0
 62
4
 10
-8.18062984E+01
 20
5.74949128E+01
 11
-8.19562984E+01
 21
5.74949128E+01
  0
LINE
  8
0
 62
4
 10
-9.03784475E+01
 20
5.51663455E+01
 11
-9.04062984E+01
 21
5.51849128E+01
  0
LINE
  8
0
 62
4
 10
-9.04641902E+01
 20
5.42855066E+01
 11
-9.12062984E+01
 21
5.47249128E+01
  0
LINE
  8
0
 62
4
 10
-8.38062984E+01
 20
5.97949128E+01
 11
-8.38062984E+01
 21
5.87949128E+01
  0
LINE
  8
0
 62
4
 10
-8.68062984E+01
 20
5.97949128E+01
 11
-8.68062984E+01
 21
5.87949128E+01
  0
LINE
  8
0
 62
6
 10
-8.65362984E+01
 20
5.97949128E+01
 11
-8.65362984E+01
 21
5.87949128E+01
  0
LINE
  8
0
 62
6
 10
-8.40762984E+01
 20
5.97949128E+01
 11
-8.40762984E+01
 21
5.87949128E+01
  0
LINE
  8
0
 62
4
 10
-8.78062984E+01
 20
6.02949128E+01
 11
-8.78062984E+01
 21
5.97949128E+01
  0
LINE
  8
0
 62
4
 10
-8.28062984E+01
 20
6.02949128E+01
 11
-8.28062984E+01
 21
5.97949128E+01
  0
LINE
  8
0
 62
4
 10
-8.38062984E+01
 20
6.12949128E+01
 11
-8.68062984E+01
 21
6.12949128E+01
  0
LINE
  8
0
 62
4
 10
-8.38062984E+01
 20
5.72949128E+01
 11
-8.38062984E+01
 21
5.60949128E+01
  0
LINE
  8
0
 62
6
 10
-8.40762984E+01
 20
5.72949128E+01
 11
-8.40762984E+01
 21
5.58249128E+01
  0
LINE
  8
0
 62
6
 10
-8.65362984E+01
 20
5.72949128E+01
 11
-8.65362984E+01
 21
5.58249128E+01
  0
LINE
  8
0
 62
4
 10
-8.68062984E+01
 20
5.72949128E+01
 11
-8.68062984E+01
 21
5.60949128E+01
  0
ARC
  8
0
 62
4
 10
-8.23064586E+01
 20
5.74947526E+01
 40
5.00160181E-01
 50
1.83465799E-02
 51
9.00000002E+01
  0
ARC
  8
0
 62
4
 10
-8.83139236E+01
 20
5.75025379E+01
 40
4.92433852E-01
 50
8.91127567E+01
 51
1.80887243E+02
  0
ARC
  8
0
 62
4
 10
-8.18064368E+01
 20
5.79947744E+01
 40
8.00138358E-01
 50
9.90662024E-03
 51
9.00000002E+01
  0
ARC
  8
0
 62
4
 10
-8.88139236E+01
 20
5.80025379E+01
 40
7.92411497E-01
 50
8.94486475E+01
 51
1.80551352E+02
  0
ARC
  8
0
 62
4
 10
-8.38064280E+01
 20
6.02947832E+01
 40
1.00012957E+00
 50
7.42247612E-03
 51
9.00000002E+01
  0
ARC
  8
0
 62
4
 10
-8.68139251E+01
 20
6.03025395E+01
 40
9.92402587E-01
 50
8.95596718E+01
 51
1.80440329E+02
  0
LINE
  8
0
 62
4
 10
-7.83062984E+01
 20
4.78363638E+01
 11
-7.83062984E+01
 21
3.97534615E+01
  0
LINE
  8
0
 62
7
 10
-7.83062984E+01
 20
3.97534615E+01
 11
-7.83062984E+01
 21
3.89730887E+01
  0
LINE
  8
0
 62
7
 10
-9.23062984E+01
 20
3.97534630E+01
 11
-9.23062984E+01
 21
3.89730887E+01
  0
LINE
  8
0
 62
4
 10
-9.23062984E+01
 20
4.78363665E+01
 11
-9.23062984E+01
 21
3.97534630E+01
  0
LINE
  8
0
  6
CENTER
 62
2
 10
-9.33062984E+01
 20
4.37949137E+01
 11
-6.70647986E+01
 21
4.37949137E+01
  0
LINE
  8
0
 62
4
 10
-8.18062984E+01
 20
4.17741875E+01
 11
-8.18062984E+01
 21
4.58156399E+01
  0
LINE
  8
0
  6
CENTER
 62
2
 10
-8.53062984E+01
 20
6.21589179E+01
 11
-8.53062984E+01
 21
3.57949137E+01
  0
LINE
  8
0
 62
4
 10
-8.88063018E+01
 20
4.17741926E+01
 11
-8.53062964E+01
 21
3.97534635E+01
  0
LINE
  8
0
 62
4
 10
-8.88062984E+01
 20
4.58156399E+01
 11
-8.88062984E+01
 21
4.17741875E+01
  0
LINE
  8
0
 62
4
 10
-8.53062994E+01
 20
3.97534573E+01
 11
-8.18063006E+01
 21
4.17741825E+01
  0
LINE
  8
0
 62
4
 10
-8.53062987E+01
 20
4.78363570E+01
 11
-8.88062975E+01
 21
4.58156317E+01
  0
LINE
  8
0
 62
4
 10
-8.18062964E+01
 20
4.58156412E+01
 11
-8.53063018E+01
 21
4.78363703E+01
  0
LINE
  8
0
 62
7
 10
-9.01281215E+01
 20
5.07949139E+01
 11
-8.71819393E+01
 21
5.07949139E+01
  0
LINE
  8
0
 62
7
 10
-9.01281215E+01
 20
3.67949137E+01
 11
-8.71819393E+01
 21
3.67949137E+01
  0
LINE
  8
0
 62
7
 10
-7.83062984E+01
 20
4.86167392E+01
 11
-7.83062984E+01
 21
4.78363638E+01
  0
LINE
  8
0
 62
7
 10
-9.23062984E+01
 20
4.86167392E+01
 11
-9.23062984E+01
 21
4.78363665E+01
  0
LINE
  8
0
 62
4
 10
-9.23063031E+01
 20
3.97534630E+01
 11
-8.53062990E+01
 21
3.57120087E+01
  0
LINE
  8
0
 62
4
 10
-8.53063031E+01
 20
5.18778185E+01
 11
-7.83062990E+01
 21
4.78363642E+01
  0
LINE
  8
0
 62
4
 10
-8.53062973E+01
 20
3.57120110E+01
 11
-7.83062999E+01
 21
3.97534615E+01
  0
LINE
  8
0
 62
4
 10
-9.23062973E+01
 20
4.78363665E+01
 11
-8.53062999E+01
 21
5.18778170E+01
  0
LINE
  8
0
 62
7
 10
-8.34306575E+01
 20
3.67949137E+01
 11
-8.04844753E+01
 21
3.67949137E+01
  0
LINE
  8
0
 62
7
 10
-8.34306575E+01
 20
5.07949139E+01
 11
-8.04844753E+01
 21
5.07949139E+01
  0
CIRCLE
  8
0
 62
7
 10
-8.53062984E+01
 20
4.37949137E+01
 40
2.00000000E+00
  0
CIRCLE
  8
0
 62
4
 10
-8.53062984E+01
 20
4.37949137E+01
 40
3.50000000E+00
  0
ARC
  8
0
 62
7
 10
-8.53062984E+01
 20
4.37949137E+01
 40
8.50000000E+00
 50
3.45603235E+01
 51
5.54396790E+01
  0
ARC
  8
0
 62
7
 10
-8.53062984E+01
 20
4.37949137E+01
 40
8.50000000E+00
 50
1.24560316E+02
 51
1.45439685E+02
  0
ARC
  8
0
 62
7
 10
-8.53062984E+01
 20
4.37949137E+01
 40
8.50000000E+00
 50
2.14560315E+02
 51
2.35439684E+02
  0
ARC
  8
0
 62
7
 10
-8.53062984E+01
 20
4.37949137E+01
 40
8.50000000E+00
 50
3.04560321E+02
 51
3.25439676E+02
  0
CIRCLE
  8
0
 62
4
 10
-8.53062984E+01
 20
4.37949137E+01
 40
7.00000000E+00
  0
CIRCLE
  8
0
 62
7
 10
-8.53062984E+01
 20
4.37949137E+01
 40
5.00000000E+00
  0
LINE
  8
0
 62
4
 10
7.83937025E+01
 20
4.22949137E+01
 11
7.83937025E+01
 21
4.52949137E+01
  0
LINE
  8
0
 62
4
 10
8.91937016E+01
 20
5.60949137E+01
 11
9.21937016E+01
 21
5.60949137E+01
  0
ARC
  8
0
 62
4
 10
9.06937016E+01
 20
4.37949137E+01
 40
7.00000000E+00
 50
4.37729870E+01
 51
5.99999999E+01
  0
ARC
  8
0
 62
4
 10
9.06937016E+01
 20
4.37949137E+01
 40
7.00000000E+00
 50
2.07664005E+02
 51
2.40000000E+02
  0
ARC
  8
0
 62
4
 10
9.06937016E+01
 20
4.37949137E+01
 40
7.00000000E+00
 50
2.40000000E+02
 51
3.40892633E+01
  0
ARC
  8
0
 62
4
 10
9.06937016E+01
 20
4.37949137E+01
 40
7.00000000E+00
 50
1.33772988E+02
 51
1.52335995E+02
  0
LINE
  8
0
 62
4
 10
8.53669010E+01
 20
4.88023877E+01
 11
8.36937016E+01
 21
4.78363656E+01
  0
LINE
  8
0
 62
4
 10
8.36937016E+01
 20
4.00288581E+01
 11
8.36937016E+01
 21
4.05449137E+01
  0
LINE
  8
0
 62
4
 10
8.36937016E+01
 20
4.70449137E+01
 11
8.36937016E+01
 21
4.78363656E+01
  0
LINE
  8
0
 62
4
 10
9.76937015E+01
 20
3.97534618E+01
 11
9.06937016E+01
 21
3.57120099E+01
  0
LINE
  8
0
 62
4
 10
8.74437016E+01
 20
5.00014291E+01
 11
8.67274451E+01
 21
4.95878982E+01
  0
LINE
  8
0
 62
4
 10
9.06937016E+01
 20
3.57120099E+01
 11
8.36937016E+01
 21
3.97534618E+01
  0
LINE
  8
0
 62
4
 10
9.76937016E+01
 20
4.78363656E+01
 11
9.39437016E+01
 21
5.00014291E+01
  0
LINE
  8
0
 62
4
 10
9.76937016E+01
 20
3.97534618E+01
 11
9.76937016E+01
 21
4.78363656E+01
  0
LINE
  8
0
 62
4
 10
8.36937016E+01
 20
3.97534618E+01
 11
8.36937016E+01
 21
3.98776425E+01
  0
ARC
  8
0
 62
4
 10
9.06937016E+01
 20
4.37949137E+01
 40
6.00000000E+00
 50
2.09623246E+02
 51
2.30941081E+02
  0
ARC
  8
0
 62
4
 10
9.06937016E+01
 20
4.37949137E+01
 40
6.00000000E+00
 50
2.34787798E+02
 51
2.52264145E+01
  0
ARC
  8
0
 62
4
 10
9.06876818E+01
 20
4.37988939E+01
 40
6.99403112E+00
 50
2.18369943E+02
 51
2.38982912E+02
  0
LINE
  8
0
 62
4
 10
8.46937016E+01
 20
4.05449137E+01
 11
8.46937016E+01
 21
4.03449137E+01
  0
LINE
  8
0
 62
4
 10
8.64029509E+01
 20
4.89032390E+01
 11
8.56937025E+01
 21
4.63461966E+01
  0
LINE
  8
0
 62
4
 10
8.62459508E+01
 20
4.88879563E+01
 11
8.56158249E+01
 21
4.66227913E+01
  0
ARC
  8
0
 62
4
 10
9.06876806E+01
 20
4.38009347E+01
 40
6.99402955E+00
 50
1.33797944E+02
 51
1.48982915E+02
  0
LINE
  8
0
 62
4
 10
9.39437016E+01
 20
4.97949137E+01
 11
9.42937016E+01
 21
4.97949137E+01
  0
ARC
  8
0
 62
4
 10
9.07002202E+01
 20
4.37863759E+01
 40
7.00111676E+00
 50
4.38594028E+01
 51
6.24009991E+01
  0
LINE
  8
0
 62
4
 10
8.91937016E+01
 20
5.60949137E+01
 11
8.94937016E+01
 21
5.57949137E+01
  0
LINE
  8
0
 62
4
 10
9.21937016E+01
 20
5.60949137E+01
 11
9.18937016E+01
 21
5.57949137E+01
  0
LINE
  8
0
 62
4
 10
9.50432487E+01
 20
5.74288681E+01
 11
9.55408965E+01
 21
5.74773102E+01
  0
LINE
  8
0
 62
4
 10
9.55408965E+01
 20
5.74773102E+01
 11
9.65581805E+01
 21
4.70267058E+01
  0
LINE
  8
0
 62
4
 10
9.60605327E+01
 20
4.69782637E+01
 11
9.65581805E+01
 21
4.70267058E+01
  0
LINE
  8
0
 62
4
 10
9.55237016E+01
 20
5.09449137E+01
 11
9.56729959E+01
 21
5.09594463E+01
  0
LINE
  8
0
 62
4
 10
9.50432487E+01
 20
5.74288681E+01
 11
9.63171221E+01
 21
4.43423094E+01
  0
LINE
  8
0
 62
4
 10
9.55237016E+01
 20
5.09449137E+01
 11
9.60316725E+01
 21
4.57265055E+01
  0
LINE
  8
0
 62
4
 10
8.71937016E+01
 20
5.22949137E+01
 11
8.64326794E+01
 21
4.95592051E+01
  0
LINE
  8
0
 62
4
 10
8.73437016E+01
 20
5.22949137E+01
 11
8.65891204E+01
 21
4.95744334E+01
  0
ARC
  8
0
 62
4
 10
9.06937016E+01
 20
4.37949137E+01
 40
5.65000000E+00
 50
2.07753944E+02
 51
2.41265568E+02
  0
CIRCLE
  8
0
 62
4
 10
9.06937016E+01
 20
5.20949137E+01
 40
1.30000000E+00
  0
LINE
  8
0
 62
4
 10
9.39437016E+01
 20
5.57949137E+01
 11
9.39437016E+01
 21
4.92949137E+01
  0
LINE
  8
0
 62
4
 10
8.74437016E+01
 20
5.57949137E+01
 11
8.74437016E+01
 21
5.22949137E+01
  0
LINE
  8
0
 62
4
 10
8.79437016E+01
 20
4.87949137E+01
 11
8.84024137E+01
 21
4.87949137E+01
  0
LINE
  8
0
 62
4
 10
8.74437016E+01
 20
5.57949137E+01
 11
9.39437016E+01
 21
5.57949137E+01
  0
LINE
  8
0
 62
4
 10
8.86437016E+01
 20
5.00949137E+01
 11
9.27437016E+01
 21
5.00949137E+01
  0
LINE
  8
0
 62
4
 10
9.27437016E+01
 20
5.40949137E+01
 11
9.27437016E+01
 21
5.00949137E+01
  0
LINE
  8
0
 62
4
 10
8.86437016E+01
 20
5.40949137E+01
 11
9.27437016E+01
 21
5.40949137E+01
  0
LINE
  8
0
 62
4
 10
8.96937016E+01
 20
5.43949137E+01
 11
8.96937016E+01
 21
5.40949137E+01
  0
LINE
  8
0
 62
4
 10
9.16937016E+01
 20
5.43949137E+01
 11
9.16937016E+01
 21
5.40949137E+01
  0
LINE
  8
0
 62
4
 10
8.96937016E+01
 20
5.43949137E+01
 11
9.16937016E+01
 21
5.43949137E+01
  0
LINE
  8
0
 62
4
 10
8.96937016E+01
 20
4.97949137E+01
 11
9.16937016E+01
 21
4.97949137E+01
  0
LINE
  8
0
 62
4
 10
8.96937016E+01
 20
5.00949137E+01
 11
8.96937016E+01
 21
4.97949137E+01
  0
LINE
  8
0
 62
4
 10
9.16937016E+01
 20
5.00949137E+01
 11
9.16937016E+01
 21
4.97949137E+01
  0
LINE
  8
0
 62
4
 10
9.34437016E+01
 20
4.87949137E+01
 11
9.39437016E+01
 21
4.92949137E+01
  0
LINE
  8
0
 62
4
 10
8.79437016E+01
 20
4.87949137E+01
 11
8.77083099E+01
 21
4.90303054E+01
  0
LINE
  8
0
 62
4
 10
8.74437016E+01
 20
5.50949137E+01
 11
9.39437016E+01
 21
5.50949137E+01
  0
LINE
  8
0
 62
4
 10
8.74437016E+01
 20
5.18949137E+01
 11
8.86437016E+01
 21
5.18949137E+01
  0
LINE
  8
0
 62
4
 10
8.74437016E+01
 20
5.22949137E+01
 11
8.86437016E+01
 21
5.22949137E+01
  0
LINE
  8
0
 62
4
 10
8.74437016E+01
 20
5.18949137E+01
 11
8.74437016E+01
 21
4.96576202E+01
  0
LINE
  8
0
 62
4
 10
8.86437016E+01
 20
5.40949137E+01
 11
8.86437016E+01
 21
5.00949137E+01
  0
LINE
  8
0
 62
4
 10
9.41937016E+01
 20
5.74949137E+01
 11
9.41937016E+01
 21
5.15949137E+01
  0
LINE
  8
0
 62
4
 10
8.71937016E+01
 20
5.74949137E+01
 11
8.71937016E+01
 21
5.22949137E+01
  0
LINE
  8
0
 62
4
 10
8.81937016E+01
 20
5.97949137E+01
 11
9.31937016E+01
 21
5.97949137E+01
  0
LINE
  8
0
 62
4
 10
8.71937016E+01
 20
5.87949137E+01
 11
9.41937016E+01
 21
5.87949137E+01
  0
LINE
  8
0
 62
4
 10
8.86937016E+01
 20
5.72949137E+01
 11
9.26937016E+01
 21
5.72949137E+01
  0
LINE
  8
0
 62
4
 10
8.76937016E+01
 20
5.79949137E+01
 11
9.36937016E+01
 21
5.79949137E+01
  0
LINE
  8
0
 62
4
 10
9.49937016E+01
 20
5.79949137E+01
 11
9.49937016E+01
 21
5.15949137E+01
  0
LINE
  8
0
 62
4
 10
8.63937016E+01
 20
5.79949137E+01
 11
8.63937016E+01
 21
5.22949137E+01
  0
LINE
  8
0
 62
4
 10
9.27537016E+01
 20
5.79949137E+01
 11
9.26937016E+01
 21
5.72949137E+01
  0
LINE
  8
0
 62
4
 10
8.86337016E+01
 20
5.79949137E+01
 11
8.86937016E+01
 21
5.72949137E+01
  0
LINE
  8
0
 62
4
 10
8.63937016E+01
 20
5.22949137E+01
 11
8.71937016E+01
 21
5.22949137E+01
  0
LINE
  8
0
 62
4
 10
9.41937016E+01
 20
5.15949137E+01
 11
9.49937016E+01
 21
5.15949137E+01
  0
LINE
  8
0
 62
4
 10
9.49937016E+01
 20
5.37949137E+01
 11
9.53753163E+01
 21
5.40175223E+01
  0
LINE
  8
0
 62
4
 10
9.65937016E+01
 20
5.70949137E+01
 11
9.65937016E+01
 21
5.47249137E+01
  0
LINE
  8
0
 62
4
 10
9.57937016E+01
 20
5.70949137E+01
 11
9.65937016E+01
 21
5.70949137E+01
  0
LINE
  8
0
 62
4
 10
9.57937016E+01
 20
5.70949137E+01
 11
9.57937016E+01
 21
5.51849137E+01
  0
LINE
  8
0
 62
4
 10
9.49937016E+01
 20
5.47249137E+01
 11
9.52904116E+01
 21
5.48897526E+01
  0
LINE
  8
0
 62
4
 10
8.73437016E+01
 20
5.74949137E+01
 11
8.73437016E+01
 21
5.22949137E+01
  0
LINE
  8
0
 62
4
 10
8.71937016E+01
 20
5.74949137E+01
 11
8.73437016E+01
 21
5.74949137E+01
  0
LINE
  8
0
 62
4
 10
9.57658507E+01
 20
5.51663464E+01
 11
9.57937016E+01
 21
5.51849137E+01
  0
LINE
  8
0
 62
4
 10
9.58515934E+01
 20
5.42855075E+01
 11
9.65937016E+01
 21
5.47249137E+01
  0
LINE
  8
0
 62
4
 10
8.91937016E+01
 20
5.97949137E+01
 11
8.91937016E+01
 21
5.87949137E+01
  0
LINE
  8
0
 62
4
 10
9.21937016E+01
 20
5.97949137E+01
 11
9.21937016E+01
 21
5.87949137E+01
  0
LINE
  8
0
 62
6
 10
9.19237016E+01
 20
5.97949137E+01
 11
9.19237016E+01
 21
5.87949137E+01
  0
LINE
  8
0
 62
6
 10
8.94637016E+01
 20
5.97949137E+01
 11
8.94637016E+01
 21
5.87949137E+01
  0
LINE
  8
0
 62
4
 10
9.31937016E+01
 20
6.02949137E+01
 11
9.31937016E+01
 21
5.97949137E+01
  0
LINE
  8
0
 62
4
 10
8.81937016E+01
 20
6.02949137E+01
 11
8.81937016E+01
 21
5.97949137E+01
  0
LINE
  8
0
 62
4
 10
8.91937016E+01
 20
6.12949137E+01
 11
9.21937016E+01
 21
6.12949137E+01
  0
LINE
  8
0
 62
4
 10
8.91937016E+01
 20
5.72949137E+01
 11
8.91937016E+01
 21
5.60949137E+01
  0
LINE
  8
0
 62
6
 10
8.94637016E+01
 20
5.72949137E+01
 11
8.94637016E+01
 21
5.58249137E+01
  0
LINE
  8
0
 62
6
 10
9.19237016E+01
 20
5.72949137E+01
 11
9.19237016E+01
 21
5.58249137E+01
  0
LINE
  8
0
 62
4
 10
9.21937016E+01
 20
5.72949137E+01
 11
9.21937016E+01
 21
5.60949137E+01
  0
LINE
  8
0
 62
4
 10
8.93937016E+01
 20
5.07949137E+01
 11
9.19937016E+01
 21
5.07949137E+01
  0
LINE
  8
0
 62
4
 10
8.93937016E+01
 20
5.33949137E+01
 11
9.19937016E+01
 21
5.33949137E+01
  0
LINE
  8
0
 62
4
 10
9.19937016E+01
 20
5.33949137E+01
 11
9.19937016E+01
 21
5.07949137E+01
  0
LINE
  8
0
 62
4
 10
8.93937016E+01
 20
5.33949137E+01
 11
8.93937016E+01
 21
5.07949137E+01
  0
LINE
  8
0
 62
4
 10
8.86437016E+01
 20
5.40949137E+01
 11
8.93937016E+01
 21
5.33949137E+01
  0
LINE
  8
0
 62
4
 10
9.19937016E+01
 20
5.33949137E+01
 11
9.27437016E+01
 21
5.40949137E+01
  0
LINE
  8
0
 62
4
 10
8.93937016E+01
 20
5.07949137E+01
 11
8.86437016E+01
 21
5.00949137E+01
  0
LINE
  8
0
 62
4
 10
9.19937016E+01
 20
5.07949137E+01
 11
9.27437016E+01
 21
5.00949137E+01
  0
ARC
  8
0
 62
4
 10
8.76938617E+01
 20
5.74947536E+01
 40
5.00160181E-01
 50
9.00000002E+01
 51
1.79981654E+02
  0
ARC
  8
0
 62
4
 10
9.37013268E+01
 20
5.75025389E+01
 40
4.92433852E-01
 50
3.59112757E+02
 51
9.08872431E+01
  0
ARC
  8
0
 62
4
 10
8.71938399E+01
 20
5.79947754E+01
 40
8.00138358E-01
 50
9.00000002E+01
 51
1.79990093E+02
  0
ARC
  8
0
 62
4
 10
9.42013268E+01
 20
5.80025389E+01
 40
7.92411497E-01
 50
3.59448647E+02
 51
9.05513523E+01
  0
ARC
  8
0
 62
4
 10
8.91938312E+01
 20
6.02947841E+01
 40
1.00012957E+00
 50
9.00000002E+01
 51
1.79992578E+02
  0
ARC
  8
0
 62
4
 10
9.22013283E+01
 20
6.03025404E+01
 40
9.92402587E-01
 50
3.59559672E+02
 51
9.04403286E+01
  0
ARC
  8
0
 62
7
 10
9.06876806E+01
 20
4.38009347E+01
 40
6.99402955E+00
 50
1.21017085E+02
 51
1.24112078E+02
  0
ARC
  8
0
 62
4
 10
9.07002202E+01
 20
4.37863759E+01
 40
7.00111676E+00
 50
3.11212937E+01
 51
3.42028638E+01
  0
ARC
  8
0
 62
4
 10
9.07002190E+01
 20
4.38134527E+01
 40
7.00111833E+00
 50
3.00882066E+02
 51
3.28878703E+02
  0
ARC
  8
0
 62
4
 10
9.06876818E+01
 20
4.37988939E+01
 40
6.99403112E+00
 50
2.11017088E+02
 51
2.16376023E+02
  0
LINE
  8
0
 62
4
 10
8.70837016E+01
 20
4.97949137E+01
 11
8.74437016E+01
 21
4.97949137E+01
  0
LINE
  8
0
 62
4
 10
8.70837016E+01
 20
3.78049137E+01
 11
9.42937016E+01
 21
3.78049137E+01
  0
LINE
  8
0
 62
4
 10
9.66937016E+01
 20
4.74049137E+01
 11
9.66937016E+01
 21
4.03449137E+01
  0
LINE
  8
0
 62
7
 10
9.66937016E+01
 20
4.03449137E+01
 11
9.66937016E+01
 21
4.01949137E+01
  0
LINE
  8
0
 62
4
 10
8.46937016E+01
 20
4.74049137E+01
 11
8.46937016E+01
 21
4.70449137E+01
  0
LINE
  8
0
 62
4
 10
8.46937016E+01
 20
4.03449137E+01
 11
8.46937016E+01
 21
4.01949137E+01
  0
ARC
  8
0
 62
7
 10
9.06937016E+01
 20
4.37949137E+01
 40
6.00000000E+00
 50
1.44787805E+02
 51
1.50376753E+02
  0
ARC
  8
0
 62
4
 10
9.06937016E+01
 20
4.37949137E+01
 40
6.00000000E+00
 50
1.19623240E+02
 51
1.40941087E+02
  0
ARC
  8
0
 62
4
 10
9.06937016E+01
 20
4.37949137E+01
 40
6.00000000E+00
 50
2.91162406E+01
 51
6.03767598E+01
  0
ARC
  8
0
 62
4
 10
9.06937016E+01
 20
4.37949137E+01
 40
5.67670505E+00
 50
2.60014237E+02
 51
1.01119553E+02
  0
LINE
  8
0
 62
4
 10
8.10937025E+01
 20
4.50949137E+01
 11
8.10937025E+01
 21
4.24949137E+01
  0
LINE
  8
0
 62
4
 10
8.36937025E+01
 20
4.24949137E+01
 11
8.11437025E+01
 21
4.24949137E+01
  0
LINE
  8
0
 62
4
 10
8.36937025E+01
 20
4.50949137E+01
 11
8.10937025E+01
 21
4.50949137E+01
  0
LINE
  8
0
 62
4
 10
8.03937025E+01
 20
4.58449137E+01
 11
8.43937025E+01
 21
4.58449137E+01
  0
LINE
  8
0
 62
4
 10
8.10937025E+01
 20
4.50949137E+01
 11
8.03937025E+01
 21
4.58449137E+01
  0
LINE
  8
0
 62
4
 10
8.75103526E+01
 20
4.91617448E+01
 11
8.74619105E+01
 21
4.96593926E+01
  0
LINE
  8
0
 62
4
 10
7.70113060E+01
 20
4.86421087E+01
 11
8.74619105E+01
 21
4.96593926E+01
  0
LINE
  8
0
 62
4
 10
8.35437025E+01
 20
4.86249137E+01
 11
8.35291699E+01
 21
4.87742081E+01
  0
LINE
  8
0
 62
4
 10
8.35437025E+01
 20
4.86249137E+01
 11
9.01608395E+01
 21
4.92690398E+01
  0
LINE
  8
0
 62
4
 10
8.43937025E+01
 20
4.27949137E+01
 11
8.46937025E+01
 21
4.27949137E+01
  0
LINE
  8
0
 62
4
 10
8.36937025E+01
 20
4.24949137E+01
 11
8.36937025E+01
 21
4.50949137E+01
  0
CIRCLE
  8
0
 62
4
 10
8.23937025E+01
 20
4.37949137E+01
 40
1.30000000E+00
  0
LINE
  8
0
 62
4
 10
8.36937025E+01
 20
4.24949137E+01
 11
8.43937025E+01
 21
4.17449137E+01
  0
LINE
  8
0
 62
4
 10
8.43937025E+01
 20
4.47949137E+01
 11
8.46937025E+01
 21
4.47949137E+01
  0
LINE
  8
0
 62
4
 10
8.36937025E+01
 20
4.50949137E+01
 11
8.43937025E+01
 21
4.58449137E+01
  0
LINE
  8
0
 62
4
 10
8.46937025E+01
 20
4.27949137E+01
 11
8.46937025E+01
 21
4.47949137E+01
  0
LINE
  8
0
 62
4
 10
8.43937025E+01
 20
4.17449137E+01
 11
8.43937025E+01
 21
4.58449137E+01
  0
LINE
  8
0
 62
4
 10
8.56937025E+01
 20
4.60862016E+01
 11
8.56937025E+01
 21
4.65449137E+01
  0
LINE
  8
0
 62
4
 10
8.56937025E+01
 20
4.65449137E+01
 11
8.51937025E+01
 21
4.70449137E+01
  0
LINE
  8
0
 62
4
 10
8.56937025E+01
 20
4.10449137E+01
 11
8.56937025E+01
 21
4.15036259E+01
  0
LINE
  8
0
 62
4
 10
8.56937025E+01
 20
4.10449137E+01
 11
8.51937025E+01
 21
4.05449137E+01
  0
CIRCLE
  8
0
 62
4
 10
9.06937016E+01
 20
4.37949137E+01
 40
5.00000000E+00
  0
CIRCLE
  8
0
 62
4
 10
9.06937016E+01
 20
4.37949137E+01
 40
2.10000000E+00
  0
CIRCLE
  8
0
 62
6
 10
9.06937016E+01
 20
4.37949137E+01
 40
2.50000000E+00
  0
CIRCLE
  8
0
 62
4
 10
9.06937016E+01
 20
4.37949137E+01
 40
5.50000000E+00
  0
LINE
  8
0
  6
CENTER
 62
2
 10
9.06937016E+01
 20
6.24987769E+01
 11
9.06937016E+01
 21
3.53806297E+01
  0
LINE
  8
0
  6
CENTER
 62
2
 10
7.21356412E+01
 20
4.37949137E+01
 11
9.82096895E+01
 21
4.37949137E+01
  0
ARC
  8
0
 62
4
 10
7.41860758E+01
 20
4.53025404E+01
 40
9.92402587E-01
 50
8.95596718E+01
 51
1.80440329E+02
  0
ARC
  8
0
 62
4
 10
7.41938321E+01
 20
4.22950433E+01
 40
1.00012957E+00
 50
1.80007422E+02
 51
2.70000000E+02
  0
ARC
  8
0
 62
4
 10
7.64860774E+01
 20
4.73025389E+01
 40
7.92411497E-01
 50
8.94486475E+01
 51
1.80551352E+02
  0
ARC
  8
0
 62
4
 10
7.64938409E+01
 20
4.02950521E+01
 40
8.00138358E-01
 50
1.80009907E+02
 51
2.70000000E+02
  0
ARC
  8
0
 62
4
 10
7.69860774E+01
 20
4.68025389E+01
 40
4.92433852E-01
 50
8.91127567E+01
 51
1.80887243E+02
  0
ARC
  8
0
 62
4
 10
7.69938627E+01
 20
4.07950739E+01
 40
5.00160181E-01
 50
1.80018346E+02
 51
2.70000000E+02
  0
LINE
  8
0
 62
4
 10
7.71937025E+01
 20
4.52949137E+01
 11
7.83937025E+01
 21
4.52949137E+01
  0
LINE
  8
0
 62
6
 10
7.71937025E+01
 20
4.50249137E+01
 11
7.86637025E+01
 21
4.50249137E+01
  0
LINE
  8
0
 62
6
 10
7.71937025E+01
 20
4.25649137E+01
 11
7.86637025E+01
 21
4.25649137E+01
  0
LINE
  8
0
 62
4
 10
7.71937025E+01
 20
4.22949137E+01
 11
7.83937025E+01
 21
4.22949137E+01
  0
LINE
  8
0
 62
4
 10
7.31937025E+01
 20
4.22949137E+01
 11
7.31937025E+01
 21
4.52949137E+01
  0
LINE
  8
0
 62
4
 10
7.41937025E+01
 20
4.12949137E+01
 11
7.46937025E+01
 21
4.12949137E+01
  0
LINE
  8
0
 62
4
 10
7.41937025E+01
 20
4.62949137E+01
 11
7.46937025E+01
 21
4.62949137E+01
  0
LINE
  8
0
 62
6
 10
7.46937025E+01
 20
4.25649137E+01
 11
7.56937025E+01
 21
4.25649137E+01
  0
LINE
  8
0
 62
6
 10
7.46937025E+01
 20
4.50249137E+01
 11
7.56937025E+01
 21
4.50249137E+01
  0
LINE
  8
0
 62
4
 10
7.46937025E+01
 20
4.52949137E+01
 11
7.56937025E+01
 21
4.52949137E+01
  0
LINE
  8
0
 62
4
 10
7.46937025E+01
 20
4.22949137E+01
 11
7.56937025E+01
 21
4.22949137E+01
  0
LINE
  8
0
 62
4
 10
8.02031087E+01
 20
4.89528055E+01
 11
7.97637025E+01
 21
4.96949137E+01
  0
LINE
  8
0
 62
4
 10
7.93222698E+01
 20
4.88670628E+01
 11
7.93037025E+01
 21
4.88949137E+01
  0
LINE
  8
0
 62
4
 10
7.69937025E+01
 20
4.02949137E+01
 11
7.69937025E+01
 21
4.04449137E+01
  0
LINE
  8
0
 62
4
 10
7.69937025E+01
 20
4.04449137E+01
 11
8.21937025E+01
 21
4.04449137E+01
  0
LINE
  8
0
 62
4
 10
7.97637025E+01
 20
4.80949137E+01
 11
7.95988637E+01
 21
4.83916237E+01
  0
LINE
  8
0
 62
4
 10
7.73937025E+01
 20
4.88949137E+01
 11
7.93037025E+01
 21
4.88949137E+01
  0
LINE
  8
0
 62
4
 10
7.73937025E+01
 20
4.88949137E+01
 11
7.73937025E+01
 21
4.96949137E+01
  0
LINE
  8
0
 62
4
 10
7.73937025E+01
 20
4.96949137E+01
 11
7.97637025E+01
 21
4.96949137E+01
  0
LINE
  8
0
 62
4
 10
8.06937025E+01
 20
4.80949137E+01
 11
8.04710939E+01
 21
4.84765285E+01
  0
LINE
  8
0
 62
4
 10
8.28937025E+01
 20
4.72949137E+01
 11
8.28937025E+01
 21
4.80949137E+01
  0
LINE
  8
0
 62
4
 10
8.21937025E+01
 20
3.94949137E+01
 11
8.21937025E+01
 21
4.02949137E+01
  0
LINE
  8
0
 62
4
 10
7.64937025E+01
 20
4.17349137E+01
 11
7.71937025E+01
 21
4.17949137E+01
  0
LINE
  8
0
 62
4
 10
7.64937025E+01
 20
4.58549137E+01
 11
7.71937025E+01
 21
4.57949137E+01
  0
LINE
  8
0
 62
4
 10
7.64937025E+01
 20
3.94949137E+01
 11
8.21937025E+01
 21
3.94949137E+01
  0
LINE
  8
0
 62
4
 10
7.64937025E+01
 20
4.80949137E+01
 11
8.28937025E+01
 21
4.80949137E+01
  0
LINE
  8
0
 62
4
 10
7.64937025E+01
 20
4.07949137E+01
 11
7.64937025E+01
 21
4.67949137E+01
  0
LINE
  8
0
 62
4
 10
7.71937025E+01
 20
4.17949137E+01
 11
7.71937025E+01
 21
4.57949137E+01
  0
LINE
  8
0
 62
4
 10
7.56937025E+01
 20
4.02949137E+01
 11
7.56937025E+01
 21
4.72949137E+01
  0
LINE
  8
0
 62
4
 10
7.46937025E+01
 20
4.12949137E+01
 11
7.46937025E+01
 21
4.62949137E+01
  0
LINE
  8
0
 62
4
 10
7.69937025E+01
 20
4.02949137E+01
 11
8.21937025E+01
 21
4.02949137E+01
  0
LINE
  8
0
 62
4
 10
7.69937025E+01
 20
4.72949137E+01
 11
8.28937025E+01
 21
4.72949137E+01
  0
LINE
  8
0
 62
4
 10
8.03937025E+01
 20
4.17449137E+01
 11
8.43937025E+01
 21
4.17449137E+01
  0
LINE
  8
0
 62
4
 10
8.25937025E+01
 20
4.05449137E+01
 11
8.51937025E+01
 21
4.05449137E+01
  0
LINE
  8
0
 62
4
 10
8.21937025E+01
 20
4.05449137E+01
 11
8.21937025E+01
 21
4.17449137E+01
  0
LINE
  8
0
 62
4
 10
8.25937025E+01
 20
4.05449137E+01
 11
8.25937025E+01
 21
4.17449137E+01
  0
LINE
  8
0
 62
4
 10
7.93937025E+01
 20
4.05449137E+01
 11
7.93937025E+01
 21
4.70449137E+01
  0
LINE
  8
0
 62
4
 10
8.00937025E+01
 20
4.27949137E+01
 11
8.00937025E+01
 21
4.47949137E+01
  0
LINE
  8
0
 62
4
 10
8.00937025E+01
 20
4.47949137E+01
 11
8.03937025E+01
 21
4.47949137E+01
  0
LINE
  8
0
 62
4
 10
8.00937025E+01
 20
4.27949137E+01
 11
8.03937025E+01
 21
4.27949137E+01
  0
LINE
  8
0
 62
4
 10
8.03937025E+01
 20
4.17449137E+01
 11
8.03937025E+01
 21
4.58449137E+01
  0
LINE
  8
0
 62
4
 10
7.86937025E+01
 20
4.05449137E+01
 11
7.86937025E+01
 21
4.70449137E+01
  0
LINE
  8
0
 62
4
 10
7.86937025E+01
 20
4.05449137E+01
 11
8.21937025E+01
 21
4.05449137E+01
  0
LINE
  8
0
 62
4
 10
7.86937025E+01
 20
4.70449137E+01
 11
8.51937025E+01
 21
4.70449137E+01
  0
LINE
  8
0
 62
4
 10
8.21937025E+01
 20
4.04449137E+01
 11
8.92236641E+01
 21
3.84950093E+01
  0
LINE
  8
0
 62
4
 10
8.21937025E+01
 20
4.02949137E+01
 11
8.97093412E+01
 21
3.82042058E+01
  0
LINE
  8
0
 62
4
 10
7.70597481E+01
 20
4.81444608E+01
 11
9.06937016E+01
 21
4.94716188E+01
  0
LINE
  8
0
 62
4
 10
7.70597481E+01
 20
4.81444608E+01
 11
7.70113060E+01
 21
4.86421087E+01
  0
LINE
  8
0
 62
4
 10
7.83937025E+01
 20
4.52949137E+01
 11
7.86937025E+01
 21
4.49949137E+01
  0
LINE
  8
0
 62
4
 10
7.83937025E+01
 20
4.22949137E+01
 11
7.86937025E+01
 21
4.25949137E+01
  0
LINE
  8
0
 62
4
 10
8.11437025E+01
 20
4.24949137E+01
 11
8.03937025E+01
 21
4.17449137E+01
  0
LINE
  8
0
  6
CENTER
 62
6
 10
-1.27076312E+02
 20
-5.05748853E+01
 11
-1.27076312E+02
 21
-5.68890238E+01
  0
LINE
  8
0
  6
CENTER
 62
6
 10
-9.78763117E+01
 20
-5.05748853E+01
 11
-9.78763117E+01
 21
-5.68890238E+01
  0
LINE
  8
0
 62
4
 10
-1.33476312E+02
 20
-5.51294654E+01
 11
-9.14763117E+01
 21
-5.51294654E+01
  0
LINE
  8
0
 62
4
 10
-9.14763117E+01
 20
-5.28294654E+01
 11
-9.14763117E+01
 21
-5.51294654E+01
  0
LINE
  8
0
 62
4
 10
-1.33476312E+02
 20
-5.28294654E+01
 11
-1.33476312E+02
 21
-5.51294654E+01
  0
LINE
  8
0
  6
CENTER
 62
6
 10
-1.12476312E+02
 20
-3.27307565E+01
 11
-1.12476312E+02
 21
-4.94052023E+01
  0
LINE
  8
0
  6
CENTER
 62
6
 10
-1.19976312E+02
 20
-4.11294654E+01
 11
-1.04976312E+02
 21
-4.11294654E+01
  0
CIRCLE
  8
0
 62
4
 10
-1.12476312E+02
 20
-4.11294654E+01
 40
5.00000000E+00
  0
LINE
  8
0
 62
4
 10
-1.33476312E+02
 20
-5.28294654E+01
 11
-9.14763117E+01
 21
-5.28294654E+01
  0
ARC
  8
0
 62
4
 10
-1.12476312E+02
 20
-4.11294654E+01
 40
1.00000000E+01
 50
3.62946002E+01
 51
1.43705400E+02
  0
LINE
  8
0
 62
4
 10
-9.14763117E+01
 20
-5.28294654E+01
 11
-1.04416471E+02
 21
-3.52100932E+01
  0
LINE
  8
0
 62
4
 10
-1.33476312E+02
 20
-5.28294654E+01
 11
-1.20536152E+02
 21
-3.52100932E+01
  0
LINE
  8
0
  6
CENTER
 62
6
 10
-7.95763117E+01
 20
-5.05748853E+01
 11
-7.95763117E+01
 21
-5.68890238E+01
  0
LINE
  8
0
 62
4
 10
-8.55763117E+01
 20
-5.28294654E+01
 11
-8.55763117E+01
 21
-5.51294654E+01
  0
LINE
  8
0
 62
4
 10
-7.69763117E+01
 20
-5.28294654E+01
 11
-7.69763117E+01
 21
-5.51294654E+01
  0
LINE
  8
0
 62
4
 10
-8.21763117E+01
 20
-5.28294654E+01
 11
-8.21763117E+01
 21
-5.51294654E+01
  0
LINE
  8
0
 62
4
 10
-7.05763117E+01
 20
-3.11294654E+01
 11
-7.05763117E+01
 21
-5.16794654E+01
  0
LINE
  8
0
 62
4
 10
-7.28763117E+01
 20
-3.11294654E+01
 11
-7.05763117E+01
 21
-3.11294654E+01
  0
LINE
  8
0
  6
CENTER
 62
6
 10
-7.54244785E+01
 20
-4.11294654E+01
 11
-6.80763117E+01
 21
-4.11294654E+01
  0
LINE
  8
0
 62
4
 10
-8.55763117E+01
 20
-5.51294654E+01
 11
-7.40263117E+01
 21
-5.51294654E+01
  0
LINE
  8
0
 62
4
 10
-7.28763117E+01
 20
-3.11294654E+01
 11
-7.28763117E+01
 21
-5.16794654E+01
  0
LINE
  8
0
 62
4
 10
-8.55763117E+01
 20
-5.28294654E+01
 11
-7.40263117E+01
 21
-5.28294654E+01
  0
ARC
  8
0
 62
4
 10
-7.40263117E+01
 20
-5.16794654E+01
 40
1.15000000E+00
 50
2.70000000E+02
 51
0.00000000E+00
  0
ARC
  8
0
 62
4
 10
-7.40263117E+01
 20
-5.16794654E+01
 40
3.45000000E+00
 50
2.70000000E+02
 51
0.00000000E+00
  0
LINE
  8
0
 62
4
 10
-1.33476312E+02
 20
-3.52946544E+00
 11
-9.14763117E+01
 21
-3.52946544E+00
  0
LINE
  8
0
 62
4
 10
-9.14763117E+01
 20
-1.22946544E+00
 11
-9.14763117E+01
 21
-7.62946544E+00
  0
LINE
  8
0
 62
4
 10
-1.33476312E+02
 20
-1.22946544E+00
 11
-9.14763117E+01
 21
-1.22946544E+00
  0
LINE
  8
0
 62
4
 10
-1.33476312E+02
 20
-1.62294654E+01
 11
-9.14763117E+01
 21
-1.62294654E+01
  0
LINE
  8
0
  6
CENTER
 62
6
 10
-1.12476312E+02
 20
1.60534561E-01
 11
-1.12476312E+02
 21
-1.74694654E+01
  0
LINE
  8
0
  6
CENTER
 62
6
 10
-1.30379276E+02
 20
-1.02294654E+01
 11
-9.50416887E+01
 21
-1.02294654E+01
  0
LINE
  8
0
 62
4
 10
-9.14763117E+01
 20
-1.28294654E+01
 11
-9.14763117E+01
 21
-1.62294654E+01
  0
ARC
  8
0
 62
4
 10
-9.78763117E+01
 20
-1.02294654E+01
 40
2.60000000E+00
 50
9.00000002E+01
 51
2.70000000E+02
  0
LINE
  8
0
  6
CENTER
 62
6
 10
-9.78763117E+01
 20
-1.39024351E+01
 11
-9.78763117E+01
 21
-6.68292106E+00
  0
LINE
  8
0
 62
4
 10
-9.78763117E+01
 20
-1.28294654E+01
 11
-9.14763117E+01
 21
-1.28294654E+01
  0
LINE
  8
0
 62
4
 10
-9.78763117E+01
 20
-7.62946544E+00
 11
-9.14763117E+01
 21
-7.62946544E+00
  0
ARC
  8
0
 62
4
 10
-1.27076312E+02
 20
-1.02294654E+01
 40
2.60000000E+00
 50
2.70000000E+02
 51
9.00000002E+01
  0
LINE
  8
0
  6
CENTER
 62
6
 10
-1.27076312E+02
 20
-1.40628688E+01
 11
-1.27076312E+02
 21
-6.57596529E+00
  0
LINE
  8
0
 62
4
 10
-1.27076312E+02
 20
-1.28294654E+01
 11
-1.33476312E+02
 21
-1.28294654E+01
  0
LINE
  8
0
 62
4
 10
-1.27076312E+02
 20
-7.62946544E+00
 11
-1.33476312E+02
 21
-7.62946544E+00
  0
LINE
  8
0
 62
4
 10
-1.33476312E+02
 20
-1.28294654E+01
 11
-1.33476312E+02
 21
-1.62294654E+01
  0
LINE
  8
0
 62
4
 10
-1.33476312E+02
 20
-1.22946544E+00
 11
-1.33476312E+02
 21
-7.62946544E+00
  0
LINE
  8
0
  6
CENTER
 62
6
 10
-7.47631170E+00
 20
-3.39294654E+01
 11
-7.47631170E+00
 21
-4.84394654E+01
  0
ARC
  8
0
 62
4
 10
7.12368830E+00
 20
-4.11294654E+01
 40
2.60000000E+00
 50
9.00000002E+01
 51
2.70000000E+02
  0
ARC
  8
0
 62
4
 10
-2.20763117E+01
 20
-4.11294654E+01
 40
2.60000000E+00
 50
2.70000000E+02
 51
9.00000002E+01
  0
CIRCLE
  8
0
 62
4
 10
-7.47631170E+00
 20
-4.11294654E+01
 40
5.00000000E+00
  0
LINE
  8
0
  6
CENTER
 62
6
 10
-2.20763117E+01
 20
-3.73694202E+01
 11
-2.20763117E+01
 21
-4.50723884E+01
  0
LINE
  8
0
  6
CENTER
 62
6
 10
7.12368830E+00
 20
-3.73694202E+01
 11
7.12368830E+00
 21
-4.50723884E+01
  0
LINE
  8
0
  6
CENTER
 62
6
 10
-2.99430997E+01
 20
-4.11294654E+01
 11
1.62296330E+01
 21
-4.11294654E+01
  0
LINE
  8
0
 62
4
 10
-2.84763117E+01
 20
-4.37294654E+01
 11
-2.20763117E+01
 21
-4.37294654E+01
  0
LINE
  8
0
 62
4
 10
7.12368830E+00
 20
-4.37294654E+01
 11
1.35236883E+01
 21
-4.37294654E+01
  0
LINE
  8
0
 62
4
 10
-2.84763117E+01
 20
-5.11294654E+01
 11
1.35236883E+01
 21
-5.11294654E+01
  0
LINE
  8
0
 62
4
 10
1.35236883E+01
 20
-4.37294654E+01
 11
1.35236883E+01
 21
-5.11294654E+01
  0
LINE
  8
0
 62
4
 10
-2.84763117E+01
 20
-4.37294654E+01
 11
-2.84763117E+01
 21
-5.11294654E+01
  0
LINE
  8
0
 62
4
 10
1.35236883E+01
 20
-3.11294654E+01
 11
1.35236883E+01
 21
-3.85294654E+01
  0
LINE
  8
0
 62
4
 10
-2.84763117E+01
 20
-3.11294654E+01
 11
-2.84763117E+01
 21
-3.85294654E+01
  0
LINE
  8
0
 62
4
 10
-2.84763117E+01
 20
-3.85294654E+01
 11
-2.20763117E+01
 21
-3.85294654E+01
  0
LINE
  8
0
 62
4
 10
7.12368830E+00
 20
-3.85294654E+01
 11
1.35236883E+01
 21
-3.85294654E+01
  0
LINE
  8
0
 62
4
 10
-2.84763117E+01
 20
-3.11294654E+01
 11
1.35236883E+01
 21
-3.11294654E+01
  0
LINE
  8
0
  6
CENTER
 62
6
 10
2.11209590E+01
 20
-4.11294654E+01
 11
2.80600080E+01
 21
-4.11294654E+01
  0
LINE
  8
0
 62
4
 10
2.35236883E+01
 20
-3.11294654E+01
 11
2.35236883E+01
 21
-5.11294654E+01
  0
LINE
  8
0
 62
4
 10
2.58236883E+01
 20
-3.11294654E+01
 11
2.58236883E+01
 21
-5.11294654E+01
  0
LINE
  8
0
 62
4
 10
2.35236883E+01
 20
-4.37294654E+01
 11
2.58236883E+01
 21
-4.37294654E+01
  0
LINE
  8
0
 62
4
 10
2.35236883E+01
 20
-5.11294654E+01
 11
2.58236883E+01
 21
-5.11294654E+01
  0
LINE
  8
0
 62
4
 10
2.35236883E+01
 20
-3.85294654E+01
 11
2.58236883E+01
 21
-3.85294654E+01
  0
LINE
  8
0
 62
4
 10
2.35236883E+01
 20
-3.11294654E+01
 11
2.58236883E+01
 21
-3.11294654E+01
  0
LINE
  8
0
  6
CENTER
 62
6
 10
7.12368833E+00
 20
-5.69305128E+00
 11
7.12368833E+00
 21
-1.18945288E+01
  0
LINE
  8
0
  6
CENTER
 62
6
 10
-2.20763117E+01
 20
-5.69305128E+00
 11
-2.20763117E+01
 21
-1.18945288E+01
  0
LINE
  8
0
 62
4
 10
-2.84763117E+01
 20
-9.92946544E+00
 11
1.35236883E+01
 21
-9.92946544E+00
  0
LINE
  8
0
 62
4
 10
-2.84763117E+01
 20
-7.62946544E+00
 11
1.35236883E+01
 21
-7.62946544E+00
  0
LINE
  8
0
 62
4
 10
-2.84763117E+01
 20
-7.62946544E+00
 11
-2.84763117E+01
 21
-9.92946544E+00
  0
LINE
  8
0
 62
4
 10
1.35236883E+01
 20
-7.62946544E+00
 11
1.35236883E+01
 21
-9.92946544E+00
  0
LINE
  8
0
  6
CENTER
 62
6
 10
-7.47631167E+00
 20
-5.69305128E+00
 11
-7.47631167E+00
 21
-1.18945288E+01
  0
LINE
  8
0
  6
CENTER
 62
6
 10
6.04612222E+01
 20
-1.35963787E+01
 11
8.84612222E+01
 21
-1.35963787E+01
  0
ARC
  8
0
 62
4
 10
8.18401456E+01
 20
-1.35913787E+01
 40
4.62107659E+00
 50
3.08728322E+02
 51
5.12716774E+01
  0
ARC
  8
0
 62
4
 10
8.20822988E+01
 20
-1.35913787E+01
 40
4.62107659E+00
 50
1.28728323E+02
 51
2.31271678E+02
  0
LINE
  8
0
 62
4
 10
7.74612222E+01
 20
-1.95963787E+01
 11
8.64612222E+01
 21
-1.95963787E+01
  0
LINE
  8
0
 62
4
 10
7.74612222E+01
 20
-7.59637869E+00
 11
8.64612222E+01
 21
-7.59637869E+00
  0
CIRCLE
  8
0
 62
4
 10
8.19612222E+01
 20
-1.35963787E+01
 40
2.10000000E+00
  0
LINE
  8
0
 62
4
 10
8.64612222E+01
 20
-7.59637869E+00
 11
8.64612222E+01
 21
-1.95963787E+01
  0
LINE
  8
0
  6
CENTER
 62
6
 10
8.19612222E+01
 20
-9.98637869E+00
 11
8.19612222E+01
 21
-1.71963787E+01
  0
LINE
  8
0
 62
4
 10
7.91912222E+01
 20
-1.71963787E+01
 11
8.47312222E+01
 21
-1.71963787E+01
  0
LINE
  8
0
 62
4
 10
7.91912222E+01
 20
-9.98637869E+00
 11
8.47312222E+01
 21
-9.98637869E+00
  0
LINE
  8
0
 62
4
 10
7.91912222E+01
 20
-7.59637869E+00
 11
7.91912222E+01
 21
-9.98637869E+00
  0
LINE
  8
0
 62
4
 10
8.47312222E+01
 20
-7.59637869E+00
 11
8.47312222E+01
 21
-9.98637869E+00
  0
LINE
  8
0
 62
4
 10
8.47312222E+01
 20
-1.71963787E+01
 11
8.47312222E+01
 21
-1.95963787E+01
  0
LINE
  8
0
 62
4
 10
7.91912222E+01
 20
-1.71963787E+01
 11
7.91912222E+01
 21
-1.95963787E+01
  0
CIRCLE
  8
0
 62
6
 10
8.19580557E+01
 20
-1.35880730E+01
 40
2.50000000E+00
  0
LINE
  8
0
 62
4
 10
7.74612222E+01
 20
-7.59637869E+00
 11
7.74612222E+01
 21
-1.95963787E+01
  0
LINE
  8
0
  6
CENTER
 62
6
 10
1.06110451E+02
 20
-5.59137869E+00
 11
1.06110451E+02
 21
-2.15913787E+01
  0
LINE
  8
0
  6
CENTER
 62
6
 10
9.81104514E+01
 20
-1.35913787E+01
 11
1.14110451E+02
 21
-1.35913787E+01
  0
LINE
  8
0
 62
4
 10
1.00110451E+02
 20
-9.98137869E+00
 11
1.00110451E+02
 21
-1.71913787E+01
  0
LINE
  8
0
 62
4
 10
1.12110451E+02
 20
-9.98137869E+00
 11
1.12110451E+02
 21
-1.71913787E+01
  0
LINE
  8
0
 62
4
 10
1.02500451E+02
 20
-7.59137869E+00
 11
1.09710451E+02
 21
-7.59137869E+00
  0
LINE
  8
0
 62
4
 10
1.02500451E+02
 20
-1.95913787E+01
 11
1.09710451E+02
 21
-1.95913787E+01
  0
ARC
  8
0
 62
4
 10
1.06119110E+02
 20
-1.35977768E+01
 40
7.00128235E+00
 50
2.10882401E+02
 51
2.38878368E+02
  0
ARC
  8
0
 62
4
 10
1.06103285E+02
 20
-1.35842127E+01
 40
7.00697432E+00
 50
3.00983855E+02
 51
3.29016145E+02
  0
ARC
  8
0
 62
4
 10
1.06119124E+02
 20
-1.35977530E+01
 40
6.99815420E+00
 50
3.11152468E+01
 51
5.91239836E+01
  0
ARC
  8
0
 62
4
 10
1.06103286E+02
 20
-1.35842130E+01
 40
6.99245864E+00
 50
1.21013880E+02
 51
1.48986120E+02
  0
CIRCLE
  8
0
 62
4
 10
1.06110451E+02
 20
-1.35913787E+01
 40
6.00000000E+00
  0
LINE
  8
0
  6
CENTER
 62
6
 10
6.04704514E+01
 20
-4.65913787E+01
 11
9.56704514E+01
 21
-4.65913787E+01
  0
ARC
  8
0
 62
4
 10
8.18493749E+01
 20
-4.65863787E+01
 40
4.62107659E+00
 50
3.08728322E+02
 51
5.12716774E+01
  0
ARC
  8
0
 62
4
 10
8.20915208E+01
 20
-4.65863787E+01
 40
4.62107207E+00
 50
1.28728253E+02
 51
2.31271747E+02
  0
ARC
  8
0
 62
4
 10
1.02974190E+02
 20
-4.65913787E+01
 40
1.39111109E+01
 50
1.63110928E+02
 51
1.96889072E+02
  0
ARC
  8
0
 62
4
 10
9.27658577E+01
 20
-5.26535564E+01
 40
3.70277786E+00
 50
1.46925270E+02
 51
2.13074730E+02
  0
ARC
  8
0
 62
4
 10
9.27658577E+01
 20
-4.05292010E+01
 40
3.70277786E+00
 50
1.46925270E+02
 51
2.13074730E+02
  0
ARC
  8
0
 62
4
 10
8.93602982E+01
 20
-4.05292010E+01
 40
3.70277786E+00
 50
3.26925265E+02
 51
3.30747316E+01
  0
ARC
  8
0
 62
4
 10
7.91519642E+01
 20
-4.65913787E+01
 40
1.39111109E+01
 50
3.43110928E+02
 51
1.68890710E+01
  0
ARC
  8
0
 62
4
 10
8.93602982E+01
 20
-5.26535564E+01
 40
3.70277786E+00
 50
3.26925265E+02
 51
3.30747316E+01
  0
LINE
  8
0
 62
4
 10
9.24630757E+01
 20
-3.85084748E+01
 11
8.96630803E+01
 21
-3.85084748E+01
  0
LINE
  8
0
 62
4
 10
9.24630757E+01
 20
-4.25499272E+01
 11
8.96630783E+01
 21
-4.25499272E+01
  0
LINE
  8
0
 62
4
 10
9.24630757E+01
 20
-5.06328306E+01
 11
8.96630783E+01
 21
-5.06328306E+01
  0
LINE
  8
0
 62
4
 10
9.24630757E+01
 20
-5.46742826E+01
 11
8.96630803E+01
 21
-5.46742826E+01
  0
LINE
  8
0
 62
4
 10
9.36669960E+01
 20
-4.15913796E+01
 11
9.30630761E+01
 21
-4.15913796E+01
  0
LINE
  8
0
 62
6
 10
9.41669960E+01
 20
-4.20913796E+01
 11
9.30630761E+01
 21
-4.20913796E+01
  0
LINE
  8
0
 62
4
 10
8.90630799E+01
 20
-4.15913796E+01
 11
8.64669953E+01
 21
-4.15913796E+01
  0
LINE
  8
0
 62
6
 10
8.90630799E+01
 20
-4.20913796E+01
 11
8.79669953E+01
 21
-4.20913796E+01
  0
LINE
  8
0
 62
4
 10
9.36669952E+01
 20
-4.15913774E+01
 11
9.44669949E+01
 21
-4.23913773E+01
  0
LINE
  8
0
 62
6
 10
9.41669960E+01
 20
-5.10913777E+01
 11
9.30630761E+01
 21
-5.10913777E+01
  0
LINE
  8
0
 62
6
 10
8.90630799E+01
 20
-5.10913777E+01
 11
8.79669953E+01
 21
-5.10913777E+01
  0
LINE
  8
0
 62
4
 10
9.36669960E+01
 20
-5.15913777E+01
 11
9.30630761E+01
 21
-5.15913777E+01
  0
LINE
  8
0
 62
4
 10
8.90630799E+01
 20
-5.15913777E+01
 11
8.64669953E+01
 21
-5.15913777E+01
  0
LINE
  8
0
 62
4
 10
8.90630799E+01
 20
-5.25913777E+01
 11
8.90630799E+01
 21
-4.05913787E+01
  0
LINE
  8
0
 62
4
 10
9.30630761E+01
 20
-5.25913777E+01
 11
9.30630761E+01
 21
-4.05913787E+01
  0
LINE
  8
0
 62
4
 10
9.36669951E+01
 20
-5.15913777E+01
 11
9.44669949E+01
 21
-5.07913779E+01
  0
LINE
  8
0
 62
4
 10
8.79669953E+01
 20
-5.15913777E+01
 11
8.79669953E+01
 21
-4.15913796E+01
  0
LINE
  8
0
 62
4
 10
9.36669960E+01
 20
-5.15913777E+01
 11
9.36669960E+01
 21
-4.15913796E+01
  0
LINE
  8
0
 62
4
 10
9.44669915E+01
 20
-5.07913804E+01
 11
9.44669915E+01
 21
-4.23913770E+01
  0
LINE
  8
0
 62
4
 10
7.74704514E+01
 20
-5.25913787E+01
 11
8.64704514E+01
 21
-5.25913787E+01
  0
LINE
  8
0
 62
4
 10
7.74704514E+01
 20
-4.05913787E+01
 11
8.64704514E+01
 21
-4.05913787E+01
  0
CIRCLE
  8
0
 62
4
 10
8.19704514E+01
 20
-4.65913787E+01
 40
2.10000000E+00
  0
LINE
  8
0
 62
4
 10
8.64704514E+01
 20
-4.05913787E+01
 11
8.64704514E+01
 21
-5.25913787E+01
  0
LINE
  8
0
  6
CENTER
 62
6
 10
8.19704514E+01
 20
-4.29813787E+01
 11
8.19704514E+01
 21
-5.01913787E+01
  0
LINE
  8
0
 62
4
 10
7.92004514E+01
 20
-4.05913787E+01
 11
7.92004514E+01
 21
-4.29813787E+01
  0
LINE
  8
0
 62
4
 10
8.47404514E+01
 20
-4.05913787E+01
 11
8.47404514E+01
 21
-4.29813787E+01
  0
LINE
  8
0
 62
4
 10
7.92004514E+01
 20
-4.29813787E+01
 11
8.47404514E+01
 21
-4.29813787E+01
  0
LINE
  8
0
 62
4
 10
7.92004514E+01
 20
-5.01913787E+01
 11
7.92004514E+01
 21
-5.25913787E+01
  0
LINE
  8
0
 62
4
 10
7.92004514E+01
 20
-5.01913787E+01
 11
8.47404514E+01
 21
-5.01913787E+01
  0
LINE
  8
0
 62
4
 10
8.47404514E+01
 20
-5.01913787E+01
 11
8.47404514E+01
 21
-5.25913787E+01
  0
CIRCLE
  8
0
 62
6
 10
8.19623435E+01
 20
-4.65830730E+01
 40
2.50000000E+00
  0
LINE
  8
0
 62
4
 10
7.74704514E+01
 20
-4.05913787E+01
 11
7.74704514E+01
 21
-5.25913787E+01
  0
CIRCLE
  8
0
 62
6
 10
1.06100451E+02
 20
-4.65913787E+01
 40
4.50000000E+00
  0
LINE
  8
0
 62
4
 10
1.06100447E+02
 20
-3.85084739E+01
 11
1.13100451E+02
 21
-4.25499282E+01
  0
LINE
  8
0
 62
4
 10
1.13100451E+02
 20
-4.25499286E+01
 11
1.13100451E+02
 21
-5.06328309E+01
  0
LINE
  8
0
 62
4
 10
9.91004525E+01
 20
-4.25499259E+01
 11
1.06100450E+02
 21
-3.85084754E+01
  0
LINE
  8
0
 62
4
 10
9.91004514E+01
 20
-4.25499259E+01
 11
9.91004514E+01
 21
-5.06328294E+01
  0
LINE
  8
0
 62
4
 10
9.91004468E+01
 20
-5.06328294E+01
 11
1.06100451E+02
 21
-5.46742837E+01
  0
LINE
  8
0
 62
4
 10
1.06100453E+02
 20
-5.46742814E+01
 11
1.13100450E+02
 21
-5.06328309E+01
  0
CIRCLE
  8
0
 62
4
 10
1.06100451E+02
 20
-4.65913787E+01
 40
5.00000000E+00
  0
LINE
  8
0
  6
CENTER
 62
6
 10
9.81104514E+01
 20
-4.65913787E+01
 11
1.14100451E+02
 21
-4.65913787E+01
  0
LINE
  8
0
  6
CENTER
 62
6
 10
1.06100451E+02
 20
-3.65167472E+01
 11
1.06100451E+02
 21
-5.72167429E+01
  0
CIRCLE
  8
0
 62
4
 10
1.06100451E+02
 20
-4.65913787E+01
 40
7.00000000E+00
  0
TEXT
  8
0
 10
9.18471704E+00
 20
6.66138623E+01
 40
3.20000005E+00
  1
STRETCH LINE
 41
1.05263158E+00
  7
MONOTXT
  0
LINE
  8
0
 62
6
 10
5.86158889E+01
 20
-1.90913787E+01
 11
6.49665555E+01
 21
-8.09137869E+00
  0
LINE
  8
0
 62
7
 10
6.49612222E+01
 20
-8.09137869E+00
 11
7.74612222E+01
 21
-8.09137869E+00
  0
LINE
  8
0
 62
7
 10
5.86112222E+01
 20
-1.90913787E+01
 11
7.74612222E+01
 21
-1.90913787E+01
  0
LINE
  8
0
 62
6
 10
5.86151181E+01
 20
-5.20913787E+01
 11
6.49657848E+01
 21
-4.10913787E+01
  0
LINE
  8
0
 62
7
 10
6.49704514E+01
 20
-4.10913787E+01
 11
7.74704514E+01
 21
-4.10913787E+01
  0
LINE
  8
0
 62
7
 10
5.86204514E+01
 20
-5.20913787E+01
 11
7.74704514E+01
 21
-5.20913787E+01
  0
TEXT
  8
0
 62
7
 10
-1.03849994E+02
 20
-8.24000031E+01
 40
3.20000005E+00
  1
5
 41
1.00000000E+00
  7
MONOTXT
  0
TEXT
  8
0
 62
7
 10
-1.07049994E+02
 20
-8.84000031E+01
 40
3.20000005E+00
  1
-30
 41
1.00000000E+00
  7
MONOTXT
  0
TEXT
  8
0
 62
7
 10
-9.58499939E+01
 20
-8.24000031E+01
 40
3.20000005E+00
  1
10
 41
1.00000000E+00
  7
MONOTXT
  0
TEXT
  8
0
 62
7
 10
-9.74499940E+01
 20
-8.84000031E+01
 40
3.20000005E+00
  1
-25
 41
1.00000000E+00
  7
MONOTXT
  0
TEXT
  8
0
 62
7
 10
-8.62499939E+01
 20
-8.24000031E+01
 40
3.20000005E+00
  1
15
 41
1.00000000E+00
  7
MONOTXT
  0
TEXT
  8
0
 62
7
 10
-8.78499940E+01
 20
-8.84000031E+01
 40
3.20000005E+00
  1
-20
 41
1.00000000E+00
  7
MONOTXT
  0
TEXT
  8
0
 62
7
 10
-7.50499939E+01
 20
-8.84000031E+01
 40
3.20000005E+00
  1
0
 41
1.00000000E+00
  7
MONOTXT
  0
TEXT
  8
0
 62
7
 10
-6.70499939E+01
 20
-8.84000031E+01
 40
3.20000005E+00
  1
25
 41
1.00000000E+00
  7
MONOTXT
  0
TEXT
  8
0
 62
7
 10
-5.74499939E+01
 20
-8.84000031E+01
 40
3.20000005E+00
  1
40
 41
1.00000000E+00
  7
MONOTXT
  0
TEXT
  8
0
 62
7
 10
-1.09833072E+02
 20
-7.56559887E+01
 40
3.20000005E+00
  1
STRETCH LIST
 41
1.05263158E+00
  7
MONOTXT
  0
TEXT
  8
0
 62
7
 10
-6.09219613E+01
 20
-7.56559887E+01
 40
3.20000005E+00
  1
(mm)
 41
1.00000000E+00
  7
MONOTXT
  0
TEXT
  8
0
 62
7
 10
-1.31249994E+02
 20
-8.84000031E+01
 40
3.20000005E+00
  1
STRETCH
 41
1.00000000E+00
  7
MONOTXT
  0
TEXT
  8
0
 62
7
 10
-1.29649994E+02
 20
-8.24000031E+01
 40
3.20000005E+00
  1
STROKE
 41
1.00000000E+00
  7
MONOTXT
  0
TEXT
  8
0
 62
7
 10
-5.74499939E+01
 20
-8.24000031E+01
 40
3.20000005E+00
  1
60
 41
1.00000000E+00
  7
MONOTXT
  0
LINE
  8
0
 62
7
 10
-4.97999939E+01
 20
-8.98000031E+01
 11
-4.97999939E+01
 21
-7.78000031E+01
  0
TEXT
  8
0
 62
7
 10
-6.70499939E+01
 20
-8.24000031E+01
 40
3.20000005E+00
  1
45
 41
1.00000000E+00
  7
MONOTXT
  0
LINE
  8
0
 62
7
 10
-5.93999939E+01
 20
-8.98000031E+01
 11
-5.93999939E+01
 21
-7.78000031E+01
  0
TEXT
  8
0
 62
7
 10
-7.66499939E+01
 20
-8.24000031E+01
 40
3.20000005E+00
  1
30
 41
1.00000000E+00
  7
MONOTXT
  0
LINE
  8
0
 62
7
 10
-6.89999939E+01
 20
-8.98000031E+01
 11
-6.89999939E+01
 21
-7.78000031E+01
  0
TEXT
  8
0
 62
7
 10
-8.62499939E+01
 20
-8.24000031E+01
 40
3.20000005E+00
  1
15
 41
1.00000000E+00
  7
MONOTXT
  0
LINE
  8
0
 62
7
 10
-7.85999939E+01
 20
-8.98000031E+01
 11
-7.85999939E+01
 21
-7.78000031E+01
  0
TEXT
  8
0
 62
7
 10
-9.58499939E+01
 20
-8.24000031E+01
 40
3.20000005E+00
  1
10
 41
1.00000000E+00
  7
MONOTXT
  0
LINE
  8
0
 62
7
 10
-8.81999939E+01
 20
-8.98000031E+01
 11
-8.81999939E+01
 21
-7.78000031E+01
  0
TEXT
  8
0
 62
7
 10
-1.03849994E+02
 20
-8.24000031E+01
 40
3.20000005E+00
  1
5
 41
1.00000000E+00
  7
MONOTXT
  0
LINE
  8
0
 62
7
 10
-1.33399994E+02
 20
-7.78000031E+01
 11
-4.97999939E+01
 21
-7.78000031E+01
  0
LINE
  8
0
 62
7
 10
-9.77999939E+01
 20
-8.98000031E+01
 11
-9.77999939E+01
 21
-7.78000031E+01
  0
LINE
  8
0
 62
7
 10
-1.07399994E+02
 20
-8.98000031E+01
 11
-1.07399994E+02
 21
-7.78000031E+01
  0
LINE
  8
0
 62
7
 10
-1.33399994E+02
 20
-8.38000031E+01
 11
-4.97999939E+01
 21
-8.38000031E+01
  0
LINE
  8
0
 62
7
 10
-1.33399994E+02
 20
-8.98000031E+01
 11
-1.33399994E+02
 21
-7.78000031E+01
  0
LINE
  8
0
 62
7
 10
-1.33399994E+02
 20
-8.98000031E+01
 11
-4.97999939E+01
 21
-8.98000031E+01
  0
LINE
  8
0
 62
7
 10
-1.38399994E+02
 20
9.45000000E+01
 11
1.38350006E+02
 21
9.45000000E+01
  0
LINE
  8
0
 62
7
 10
1.38350006E+02
 20
9.45000000E+01
 11
1.38350006E+02
 21
-9.48000031E+01
  0
LINE
  8
0
 62
7
 10
-1.38399994E+02
 20
-9.48000031E+01
 11
1.38350006E+02
 21
-9.48000031E+01
  0
LINE
  8
0
 62
7
 10
-1.38399994E+02
 20
9.45000000E+01
 11
-1.38399994E+02
 21
-9.48000031E+01
  0
LINE
  8
0
 62
7
 10
7.33500061E+01
 20
-8.48000031E+01
 11
1.38350006E+02
 21
-8.48000031E+01
  0
LINE
  8
0
 62
7
 10
-1.38399994E+02
 20
8.45000000E+01
 11
-7.33999939E+01
 21
8.45000000E+01
  0
LINE
  8
0
 62
7
 10
7.33500061E+01
 20
8.45000000E+01
 11
1.38350006E+02
 21
8.45000000E+01
  0
LINE
  8
0
 62
7
 10
7.33500061E+01
 20
-8.48000031E+01
 11
7.33500061E+01
 21
-9.48000031E+01
  0
LINE
  8
0
 62
7
 10
7.33500061E+01
 20
9.45000000E+01
 11
7.33500061E+01
 21
8.45000000E+01
  0
LINE
  8
0
 62
7
 10
-7.33999939E+01
 20
9.45000000E+01
 11
-7.33999939E+01
 21
8.45000000E+01
  0
TEXT
  8
0
 62
7
 10
7.72426624E+01
 20
-9.20500031E+01
 40
4.50000000E+00
  1
KOGANEI CORP.
 41
1.04838710E+00
  7
MONOTXT
  0
TEXT
  8
0
 62
7
 10
9.35071493E+01
 20
8.79000001E+01
 40
3.19999981E+00
  1
Ver. 1.0
 41
1.08108108E+00
  7
MONOTXT
  0
TEXT
  8
0
 62
7
 10
-1.31042850E+02
 20
8.79000001E+01
 40
3.19999981E+00
  1
NEW PEN CYLINDER
 41
1.08108108E+00
  7
MONOTXT
  0
TEXT
  8
0
 62
7
 10
-1.29085994E+02
 20
7.29000001E+01
 40
3.19999981E+00
  1
MODEL:PBSALS10*ST(30)-ZC230
 41
1.00000000E+00
  7
MONOTXT
  0
ENDSEC
  0
EOF
