  0
SECTION
  2
HEADER
  9
$ACADVER
  1
AC1003
  9
$EXTMIN
 10
-1.38399994E+02
 20
-9.48000031E+01
  9
$EXTMAX
 10
1.38350006E+02
 20
9.45000000E+01
  9
$LIMMIN
 10
-1.38400994E+02
 20
-9.48010031E+01
  9
$LIMMAX
 10
1.38351006E+02
 20
9.45010000E+01
  9
$SNAPUNIT
 10
1
 20
1
  9
$SNAPBASE
 10
0
 20
0
  9
$GRIDMODE
 70
0
  9
$GRIDUNIT
 10
0
 20
0
  9
$LTSCALE
 40
4.61250000E+00
  9
$TEXTSIZE
 40
3.2
  9
$DIMTAD
 70
0
  9
$LUNITS
 70
2
  9
$LUPREC
 70
4
  9
$FILLETRAD
 40
0
  9
$AUNITS
 70
0
  9
$AUPREC
 70
0
  0
ENDSEC
  0
SECTION
  2
TABLES
  0
TABLE
  2
LTYPE
 70
2
  0
LTYPE
  2
CONTINUOUS
 70
64
  3
Solid-Line
 72
65
 73
0
 40
0
  0
LTYPE
  2
DASHED
 70
64
  3
DASHED
 72
65
 73
2
 40
.75
 49
.5
 49
-.25
  0
LTYPE
  2
HIDDEN
 70
64
  3
HIDDEN
 72
65
 73
2
 40
.375
 49
.25
 49
-.125
  0
LTYPE
  2
CENTER
 70
64
  3
CENTER
 72
65
 73
4
 40
2
 49
1.25
 49
-.25
 49
.25
 49
-.25
  0
LTYPE
  2
PHANTOM
 70
64
  3
PHANTOM
 72
65
 73
6
 40
2.5
 49
1.25
 49
-.25
 49
.25
 49
-.25
 49
.25
 49
-.25
  0
ENDTAB
  0
TABLE
  2
LAYER
 70
1
  0
LAYER
  2
0
 70
0
 62
3
  6
CONTINUOUS
 0
ENDTAB
  0
TABLE
  2
STYLE
 70
2
  0
STYLE
  2
MONOTXT
 70
0
 40
0
 41
1
 50
0
 71
0
 42
.2
  3
monotxt
  0
STYLE
  2
BIGFONT
 70
0
 40
0
 41
1
 50
0
 71
0
 42
.2
  3
txt
  4
bigfont
  0
ENDTAB
  0
ENDSEC
  0
SECTION
  2
ENTITIES
  0
LINE
  8
0
  6
PHANTOM
 10
1.06319997E+00
 20
3.42508832E+01
 11
1.06319997E+00
 21
4.63262501E+00
  0
LINE
  8
0
 62
2
 10
-1.70699939E+01
 20
1.27200000E+01
 11
-1.47699939E+01
 21
1.27200000E+01
  0
LINE
  8
0
 62
7
 10
-1.70699939E+01
 20
1.25000000E+01
 11
-1.37699939E+01
 21
1.25000000E+01
  0
LINE
  8
0
 62
7
 10
-1.70699939E+01
 20
1.45000000E+01
 11
-1.37699939E+01
 21
1.45000000E+01
  0
LINE
  8
0
 62
2
 10
-1.70699939E+01
 20
1.42800000E+01
 11
-1.47699939E+01
 21
1.42800000E+01
  0
LINE
  8
0
 62
7
 10
-9.46999390E+00
 20
1.15000000E+01
 11
-7.76999390E+00
 21
1.15000000E+01
  0
LINE
  8
0
 62
2
 10
-9.46999390E+00
 20
1.18800000E+01
 11
-8.76999390E+00
 21
1.18800000E+01
  0
LINE
  8
0
 62
2
 10
-9.46999390E+00
 20
1.51200000E+01
 11
-8.76999390E+00
 21
1.51200000E+01
  0
LINE
  8
0
 62
7
 10
-9.46999390E+00
 20
1.55000000E+01
 11
-7.76999390E+00
 21
1.55000000E+01
  0
LINE
  8
0
  6
CENTER
 62
2
 10
-2.16199939E+01
 20
1.35000000E+01
 11
1.71100061E+01
 21
1.35000000E+01
  0
LINE
  8
0
 62
7
 10
1.12300061E+01
 20
1.60000000E+01
 11
1.12300061E+01
 21
1.10000000E+01
  0
LINE
  8
0
 62
7
 10
1.32300061E+01
 20
1.51000000E+01
 11
1.32300061E+01
 21
1.19000000E+01
  0
LINE
  8
0
 62
7
 10
1.47300061E+01
 20
1.24000000E+01
 11
1.32300061E+01
 21
1.19000000E+01
  0
LINE
  8
0
 62
7
 10
1.47300061E+01
 20
1.46000000E+01
 11
1.32300061E+01
 21
1.51000000E+01
  0
LINE
  8
0
 62
7
 10
1.47300061E+01
 20
1.51000000E+01
 11
1.47300061E+01
 21
1.19000000E+01
  0
LINE
  8
0
 62
7
 10
1.62300061E+01
 20
1.46000000E+01
 11
1.47300061E+01
 21
1.51000000E+01
  0
LINE
  8
0
 62
7
 10
1.62300061E+01
 20
1.46000000E+01
 11
1.62300061E+01
 21
1.24000000E+01
  0
LINE
  8
0
 62
7
 10
1.62300061E+01
 20
1.24000000E+01
 11
1.47300061E+01
 21
1.19000000E+01
  0
LINE
  8
0
 62
7
 10
-2.07699939E+01
 20
1.42000000E+01
 11
-2.07699939E+01
 21
1.28000000E+01
  0
LINE
  8
0
 62
7
 10
-1.47699939E+01
 20
1.45000000E+01
 11
-1.47699939E+01
 21
1.25000000E+01
  0
LINE
  8
0
 62
7
 10
-1.37699939E+01
 20
1.51000000E+01
 11
-1.37699939E+01
 21
1.19000000E+01
  0
LINE
  8
0
 62
7
 10
-7.76999390E+00
 20
1.60000000E+01
 11
-7.76999390E+00
 21
1.10000000E+01
  0
LINE
  8
0
 62
7
 10
-7.76999390E+00
 20
1.60000000E+01
 11
9.43000610E+00
 21
1.60000000E+01
  0
LINE
  8
0
 62
7
 10
-7.76999390E+00
 20
1.10000000E+01
 11
9.43000610E+00
 21
1.10000000E+01
  0
LINE
  8
0
 62
7
 10
-2.04699939E+01
 20
1.45000000E+01
 11
-1.86699939E+01
 21
1.45000000E+01
  0
LINE
  8
0
 62
2
 10
-2.06799939E+01
 20
1.42800000E+01
 11
-1.86699939E+01
 21
1.42800000E+01
  0
LINE
  8
0
 62
7
 10
-2.04699939E+01
 20
1.45000000E+01
 11
-2.07699939E+01
 21
1.42000000E+01
  0
LINE
  8
0
 62
2
 10
-1.47699939E+01
 20
1.42800000E+01
 11
-1.43899939E+01
 21
1.45000000E+01
  0
LINE
  8
0
 62
2
 10
-2.06799939E+01
 20
1.27200000E+01
 11
-1.86699939E+01
 21
1.27200000E+01
  0
LINE
  8
0
 62
7
 10
-2.04699939E+01
 20
1.25000000E+01
 11
-2.07699939E+01
 21
1.28000000E+01
  0
LINE
  8
0
 62
2
 10
-1.47699939E+01
 20
1.27200000E+01
 11
-1.43899939E+01
 21
1.25000000E+01
  0
LINE
  8
0
 62
7
 10
-2.04699939E+01
 20
1.25000000E+01
 11
-1.86699939E+01
 21
1.25000000E+01
  0
LINE
  8
0
 62
7
 10
-1.33699939E+01
 20
1.15000000E+01
 11
-1.24699939E+01
 21
1.15000000E+01
  0
LINE
  8
0
 62
2
 10
-1.37399939E+01
 20
1.18800000E+01
 11
-1.24699939E+01
 21
1.18800000E+01
  0
LINE
  8
0
 62
2
 10
-1.37399939E+01
 20
1.51200000E+01
 11
-1.24699939E+01
 21
1.51200000E+01
  0
LINE
  8
0
 62
7
 10
-1.33699939E+01
 20
1.55000000E+01
 11
-1.24699939E+01
 21
1.55000000E+01
  0
LINE
  8
0
 62
2
 10
-8.10999390E+00
 20
1.55000000E+01
 11
-8.76999390E+00
 21
1.51200000E+01
  0
LINE
  8
0
 62
2
 10
-8.10999390E+00
 20
1.15000000E+01
 11
-8.76999390E+00
 21
1.18800000E+01
  0
LINE
  8
0
 62
7
 10
-2.04699939E+01
 20
1.45000000E+01
 11
-2.04699939E+01
 21
1.25000000E+01
  0
LINE
  8
0
 62
7
 10
1.12300061E+01
 20
1.48000000E+01
 11
1.32300061E+01
 21
1.48000000E+01
  0
LINE
  8
0
 62
7
 10
1.12300061E+01
 20
1.22000000E+01
 11
1.32300061E+01
 21
1.22000000E+01
  0
LINE
  8
0
 62
7
 10
1.02300061E+01
 20
1.60000000E+01
 11
1.02300061E+01
 21
1.10000000E+01
  0
LINE
  8
0
 62
7
 10
9.93000610E+00
 20
1.55000000E+01
 11
1.02300061E+01
 21
1.55000000E+01
  0
LINE
  8
0
 62
7
 10
1.02300061E+01
 20
1.60000000E+01
 11
1.12300061E+01
 21
1.60000000E+01
  0
LINE
  8
0
 62
7
 10
9.93000610E+00
 20
1.55000000E+01
 11
9.93000610E+00
 21
1.15000000E+01
  0
LINE
  8
0
 62
7
 10
9.93000610E+00
 20
1.15000000E+01
 11
1.02300061E+01
 21
1.15000000E+01
  0
LINE
  8
0
 62
7
 10
1.02300061E+01
 20
1.10000000E+01
 11
1.12300061E+01
 21
1.10000000E+01
  0
LINE
  8
0
 62
7
 10
-1.33699939E+01
 20
1.55000000E+01
 11
-1.37699939E+01
 21
1.51000000E+01
  0
LINE
  8
0
 62
7
 10
-1.37699939E+01
 20
1.19000000E+01
 11
-1.33699939E+01
 21
1.15000000E+01
  0
LINE
  8
0
 62
7
 10
-1.33699939E+01
 20
1.55000000E+01
 11
-1.33699939E+01
 21
1.15000000E+01
  0
LINE
  8
0
 62
7
 10
-8.76999390E+00
 20
1.55000000E+01
 11
-8.76999390E+00
 21
1.15000000E+01
  0
ARC
  8
0
 62
7
 10
9.43000458E+00
 20
1.54999985E+01
 40
5.00001526E-01
 50
1.74852576E-04
 51
9.00000002E+01
  0
ARC
  8
0
 62
7
 10
9.43000458E+00
 20
1.15000015E+01
 40
5.00001526E-01
 50
2.70000000E+02
 51
3.59999825E+02
  0
LINE
  8
0
 62
7
 10
-1.70699939E+01
 20
1.55000000E+01
 11
-1.70699939E+01
 21
1.15000000E+01
  0
LINE
  8
0
 62
7
 10
-1.86699939E+01
 20
1.55000000E+01
 11
-1.86699939E+01
 21
1.15000000E+01
  0
LINE
  8
0
 62
7
 10
-1.84999939E+01
 20
1.46500000E+01
 11
-1.72499939E+01
 21
1.46500000E+01
  0
LINE
  8
0
 62
7
 10
-1.84999939E+01
 20
1.23500000E+01
 11
-1.72499939E+01
 21
1.23500000E+01
  0
LINE
  8
0
 62
7
 10
-1.84999939E+01
 20
1.58000000E+01
 11
-1.72499939E+01
 21
1.58000000E+01
  0
LINE
  8
0
 62
7
 10
-1.86699939E+01
 20
1.55000000E+01
 11
-1.84999939E+01
 21
1.58000000E+01
  0
LINE
  8
0
 62
7
 10
-1.86699939E+01
 20
1.15000000E+01
 11
-1.84999939E+01
 21
1.12000000E+01
  0
LINE
  8
0
 62
7
 10
-1.70699939E+01
 20
1.55000000E+01
 11
-1.72499939E+01
 21
1.58000000E+01
  0
LINE
  8
0
 62
7
 10
-1.70699939E+01
 20
1.15000000E+01
 11
-1.72499939E+01
 21
1.12000000E+01
  0
LINE
  8
0
 62
7
 10
-1.84999939E+01
 20
1.12000000E+01
 11
-1.72499939E+01
 21
1.12000000E+01
  0
ARC
  8
0
 62
7
 10
-1.76428682E+01
 20
1.52161403E+01
 40
1.02721921E+00
 50
1.79226916E+02
 51
2.13445170E+02
  0
ARC
  8
0
 62
7
 10
-1.48486457E+01
 20
1.35000000E+01
 40
3.82816452E+00
 50
1.62518066E+02
 51
1.97481934E+02
  0
ARC
  8
0
 62
7
 10
-1.76428682E+01
 20
1.17838597E+01
 40
1.02721921E+00
 50
1.46554830E+02
 51
1.80773084E+02
  0
ARC
  8
0
 62
7
 10
-1.80930922E+01
 20
1.52295822E+01
 40
1.02309843E+00
 50
3.25493686E+02
 51
2.33951405E-02
  0
ARC
  8
0
 62
7
 10
-1.80930922E+01
 20
1.17704178E+01
 40
1.02309843E+00
 50
3.59976605E+02
 51
3.45063139E+01
  0
ARC
  8
0
 62
7
 10
-2.08913427E+01
 20
1.35000000E+01
 40
3.81862813E+00
 50
3.42472995E+02
 51
1.75270048E+01
  0
LINE
  8
0
 62
7
 10
-9.46999390E+00
 20
1.60000000E+01
 11
-9.46999390E+00
 21
1.10000000E+01
  0
LINE
  8
0
 62
7
 10
-1.24699939E+01
 20
1.60000000E+01
 11
-1.24699939E+01
 21
1.10000000E+01
  0
LINE
  8
0
 62
7
 10
-9.46999390E+00
 20
1.60000000E+01
 11
-9.69999390E+00
 21
1.63800000E+01
  0
LINE
  8
0
 62
7
 10
-1.22499939E+01
 20
1.63800000E+01
 11
-9.69999390E+00
 21
1.63800000E+01
  0
LINE
  8
0
 62
7
 10
-1.22499939E+01
 20
1.49400000E+01
 11
-9.69999390E+00
 21
1.49400000E+01
  0
LINE
  8
0
 62
7
 10
-1.24699939E+01
 20
1.60000000E+01
 11
-1.22499939E+01
 21
1.63800000E+01
  0
LINE
  8
0
 62
7
 10
-9.46999390E+00
 20
1.60000000E+01
 11
-9.69999390E+00
 21
1.63800000E+01
  0
LINE
  8
0
 62
7
 10
-1.22499939E+01
 20
1.20600000E+01
 11
-9.69999390E+00
 21
1.20600000E+01
  0
LINE
  8
0
 62
7
 10
-1.24699939E+01
 20
1.10000000E+01
 11
-1.22499939E+01
 21
1.06200000E+01
  0
LINE
  8
0
 62
7
 10
-1.22499939E+01
 20
1.06200000E+01
 11
-9.69999390E+00
 21
1.06200000E+01
  0
LINE
  8
0
 62
7
 10
-9.46999390E+00
 20
1.10000000E+01
 11
-9.69999390E+00
 21
1.06200000E+01
  0
ARC
  8
0
 62
7
 10
-7.69329197E+00
 20
1.35000000E+01
 40
4.77882124E+00
 50
1.62462524E+02
 51
1.97537476E+02
  0
ARC
  8
0
 62
7
 10
-1.11897706E+01
 20
1.56575682E+01
 40
1.28022564E+00
 50
1.79891168E+02
 51
2.14090479E+02
  0
ARC
  8
0
 62
7
 10
-1.07460550E+01
 20
1.56708945E+01
 40
1.27610761E+00
 50
3.25057572E+02
 51
3.59510843E+02
  0
ARC
  8
0
 62
7
 10
-1.11897706E+01
 20
1.13424318E+01
 40
1.28022564E+00
 50
1.45909521E+02
 51
1.80108832E+02
  0
ARC
  8
0
 62
7
 10
-1.07460550E+01
 20
1.13291055E+01
 40
1.27610761E+00
 50
4.89157469E-01
 51
3.49424279E+01
  0
ARC
  8
0
 62
7
 10
-1.42466958E+01
 20
1.35000000E+01
 40
4.76928699E+00
 50
3.42426324E+02
 51
1.75736760E+01
  0
TEXT
  8
0
 62
7
 10
-5.74402197E+00
 20
1.17500000E+01
 40
1.00000000E+00
  1
PBSA4
 41
1.00000000E+00
  7
MONOTXT
  0
LINE
  8
0
 62
7
 10
-6.82699939E+01
 20
1.63800000E+01
 11
-6.57699939E+01
 21
1.49400000E+01
  0
LINE
  8
0
 62
7
 10
-6.57699939E+01
 20
1.49400000E+01
 11
-6.57699939E+01
 21
1.20600000E+01
  0
LINE
  8
0
 62
7
 10
-6.57699939E+01
 20
1.20600000E+01
 11
-6.82699939E+01
 21
1.06200000E+01
  0
LINE
  8
0
 62
7
 10
-6.82699939E+01
 20
1.06200000E+01
 11
-7.07699939E+01
 21
1.20600000E+01
  0
LINE
  8
0
 62
7
 10
-7.07699939E+01
 20
1.20600000E+01
 11
-7.07699939E+01
 21
1.49400000E+01
  0
LINE
  8
0
 62
7
 10
-7.07699939E+01
 20
1.49400000E+01
 11
-6.82699939E+01
 21
1.63800000E+01
  0
LINE
  8
0
 62
7
 10
-6.82699939E+01
 20
1.58000000E+01
 11
-6.62699939E+01
 21
1.46500000E+01
  0
LINE
  8
0
 62
7
 10
-7.02699939E+01
 20
1.46500000E+01
 11
-6.82699939E+01
 21
1.58000000E+01
  0
LINE
  8
0
 62
7
 10
-7.02699939E+01
 20
1.23500000E+01
 11
-7.02699939E+01
 21
1.46500000E+01
  0
LINE
  8
0
 62
7
 10
-6.82699939E+01
 20
1.12000000E+01
 11
-7.02699939E+01
 21
1.23500000E+01
  0
LINE
  8
0
 62
7
 10
-6.62699939E+01
 20
1.23500000E+01
 11
-6.82699939E+01
 21
1.12000000E+01
  0
LINE
  8
0
 62
7
 10
-6.62699939E+01
 20
1.46500000E+01
 11
-6.62699939E+01
 21
1.23500000E+01
  0
LINE
  8
0
  6
CENTER
 62
2
 10
-6.82699939E+01
 20
1.60000000E+01
 11
-6.82699939E+01
 21
1.10000000E+01
  0
LINE
  8
0
  6
CENTER
 62
2
 10
-7.07699939E+01
 20
1.35000000E+01
 11
-6.57699939E+01
 21
1.35000000E+01
  0
CIRCLE
  8
0
 62
2
 10
-6.82699939E+01
 20
1.35000000E+01
 40
1.00000000E+00
  0
CIRCLE
  8
0
 62
7
 10
-6.82699939E+01
 20
1.35000000E+01
 40
7.83500016E-01
  0
LINE
  8
0
 62
7
 10
-7.07699939E+01
 20
1.20600000E+01
 11
-7.07699939E+01
 21
1.49400000E+01
  0
LINE
  8
0
 62
7
 10
-6.82699939E+01
 20
1.06200000E+01
 11
-7.07699939E+01
 21
1.20600000E+01
  0
LINE
  8
0
 62
7
 10
-6.57699939E+01
 20
1.20600000E+01
 11
-6.82699939E+01
 21
1.06200000E+01
  0
LINE
  8
0
 62
7
 10
-6.57699939E+01
 20
1.49400000E+01
 11
-6.57699939E+01
 21
1.20600000E+01
  0
LINE
  8
0
 62
7
 10
-6.82699939E+01
 20
1.63800000E+01
 11
-6.57699939E+01
 21
1.49400000E+01
  0
LINE
  8
0
 62
7
 10
-7.07699939E+01
 20
1.49400000E+01
 11
-6.82699939E+01
 21
1.63800000E+01
  0
LINE
  8
0
  6
CENTER
 62
2
 10
-6.82699939E+01
 20
1.70000000E+01
 11
-6.82699939E+01
 21
1.00000000E+01
  0
LINE
  8
0
  6
CENTER
 62
2
 10
-7.17699939E+01
 20
1.35000000E+01
 11
-6.47699939E+01
 21
1.35000000E+01
  0
CIRCLE
  8
0
 62
7
 10
-6.82699939E+01
 20
1.35000000E+01
 40
2.50000000E+00
  0
CIRCLE
  8
0
 62
7
 10
-6.82699939E+01
 20
1.35000000E+01
 40
1.99388450E+00
  0
LINE
  8
0
 62
7
 10
6.72300061E+01
 20
1.63800000E+01
 11
6.97300061E+01
 21
1.49400000E+01
  0
LINE
  8
0
 62
7
 10
6.97300061E+01
 20
1.49400000E+01
 11
6.97300061E+01
 21
1.20600000E+01
  0
LINE
  8
0
 62
7
 10
6.97300061E+01
 20
1.20600000E+01
 11
6.72300061E+01
 21
1.06200000E+01
  0
LINE
  8
0
 62
7
 10
6.72300061E+01
 20
1.06200000E+01
 11
6.47300061E+01
 21
1.20600000E+01
  0
LINE
  8
0
 62
7
 10
6.47300061E+01
 20
1.20600000E+01
 11
6.47300061E+01
 21
1.49400000E+01
  0
LINE
  8
0
 62
7
 10
6.47300061E+01
 20
1.49400000E+01
 11
6.72300061E+01
 21
1.63800000E+01
  0
LINE
  8
0
  6
CENTER
 62
2
 10
6.37300061E+01
 20
1.35000000E+01
 11
7.07300061E+01
 21
1.35000000E+01
  0
LINE
  8
0
  6
CENTER
 62
2
 10
6.72300061E+01
 20
1.70000000E+01
 11
6.72300061E+01
 21
1.00000000E+01
  0
CIRCLE
  8
0
 62
7
 10
6.72300061E+01
 20
1.35000000E+01
 40
1.59999943E+00
  0
CIRCLE
  8
0
 62
7
 10
6.72300061E+01
 20
1.35000000E+01
 40
2.50000000E+00
  0
CIRCLE
  8
0
 62
7
 10
6.72300061E+01
 20
1.35000000E+01
 40
3.99999976E-01
  0
TEXT
  8
0
 62
7
 10
-7.16499939E+01
 20
-8.34000031E+01
 40
3.20000005E+00
  1
15
 41
1.00000000E+00
  7
MONOTXT
  0
TEXT
  8
0
 62
7
 10
-7.16499939E+01
 20
-7.74000031E+01
 40
3.20000005E+00
  1
20
 41
1.00000000E+00
  7
MONOTXT
  0
TEXT
  8
0
 62
7
 10
-8.12499939E+01
 20
-8.34000031E+01
 40
3.20000005E+00
  1
10
 41
1.00000000E+00
  7
MONOTXT
  0
TEXT
  8
0
 62
7
 10
-8.12499939E+01
 20
-7.74000031E+01
 40
3.20000005E+00
  1
15
 41
1.00000000E+00
  7
MONOTXT
  0
LINE
  8
0
 62
7
 10
-7.35999939E+01
 20
-8.48000031E+01
 11
-7.35999939E+01
 21
-7.28000031E+01
  0
LINE
  8
0
 62
7
 10
-8.31999939E+01
 20
-8.48000031E+01
 11
-8.31999939E+01
 21
-7.28000031E+01
  0
LINE
  8
0
 62
7
 10
-1.28399994E+02
 20
-8.48000031E+01
 11
-6.39999939E+01
 21
-8.48000031E+01
  0
LINE
  8
0
 62
7
 10
-1.28399994E+02
 20
-8.48000031E+01
 11
-1.28399994E+02
 21
-7.28000031E+01
  0
LINE
  8
0
 62
7
 10
-1.28399994E+02
 20
-7.88000031E+01
 11
-6.39999939E+01
 21
-7.88000031E+01
  0
LINE
  8
0
 62
7
 10
-1.02399994E+02
 20
-8.48000031E+01
 11
-1.02399994E+02
 21
-7.28000031E+01
  0
LINE
  8
0
 62
7
 10
-9.27999939E+01
 20
-8.48000031E+01
 11
-9.27999939E+01
 21
-7.28000031E+01
  0
LINE
  8
0
 62
7
 10
-1.28399994E+02
 20
-7.28000031E+01
 11
-6.39999939E+01
 21
-7.28000031E+01
  0
TEXT
  8
0
 62
7
 10
-9.88499939E+01
 20
-7.74000031E+01
 40
3.20000005E+00
  1
5
 41
1.00000000E+00
  7
MONOTXT
  0
LINE
  8
0
 62
7
 10
-6.39999939E+01
 20
-8.48000031E+01
 11
-6.39999939E+01
 21
-7.28000031E+01
  0
TEXT
  8
0
 62
7
 10
-9.08499939E+01
 20
-7.74000031E+01
 40
3.20000005E+00
  1
10
 41
1.00000000E+00
  7
MONOTXT
  0
TEXT
  8
0
 62
7
 10
-1.24649994E+02
 20
-7.74000031E+01
 40
3.20000005E+00
  1
STROKE
 41
1.00000000E+00
  7
MONOTXT
  0
TEXT
  8
0
 62
7
 10
-1.26249994E+02
 20
-8.34000031E+01
 40
3.20000005E+00
  1
STRETCH
 41
1.00000000E+00
  7
MONOTXT
  0
TEXT
  8
0
 62
7
 10
-9.88499939E+01
 20
-8.34000031E+01
 40
3.20000005E+00
  1
0
 41
1.00000000E+00
  7
MONOTXT
  0
TEXT
  8
0
 62
7
 10
-8.92499939E+01
 20
-8.34000031E+01
 40
3.20000005E+00
  1
5
 41
1.00000000E+00
  7
MONOTXT
  0
TEXT
  8
0
 62
7
 10
-7.22784479E+01
 20
-7.06720746E+01
 40
3.20000005E+00
  1
(mm)
 41
7.81249988E-01
  7
MONOTXT
  0
TEXT
  8
0
 62
7
 10
-1.12456759E+02
 20
-7.02696972E+01
 40
3.20000005E+00
  1
STRETCH LIST
 41
8.22368408E-01
  7
MONOTXT
  0
TEXT
  8
0
 10
-1.77366311E+01
 20
3.93936921E+01
 40
3.20000005E+00
  1
STRETCH LINE
 41
1.05263158E+00
  7
MONOTXT
  0
LINE
  8
0
 62
7
 10
-1.38399994E+02
 20
9.45000000E+01
 11
1.38350006E+02
 21
9.45000000E+01
  0
LINE
  8
0
 62
7
 10
1.38350006E+02
 20
9.45000000E+01
 11
1.38350006E+02
 21
-9.48000031E+01
  0
LINE
  8
0
 62
7
 10
-1.38399994E+02
 20
-9.48000031E+01
 11
1.38350006E+02
 21
-9.48000031E+01
  0
LINE
  8
0
 62
7
 10
-1.38399994E+02
 20
9.45000000E+01
 11
-1.38399994E+02
 21
-9.48000031E+01
  0
LINE
  8
0
 62
7
 10
7.33500061E+01
 20
-8.48000031E+01
 11
1.38350006E+02
 21
-8.48000031E+01
  0
LINE
  8
0
 62
7
 10
-1.38399994E+02
 20
8.45000000E+01
 11
-7.33999939E+01
 21
8.45000000E+01
  0
LINE
  8
0
 62
7
 10
7.33500061E+01
 20
8.45000000E+01
 11
1.38350006E+02
 21
8.45000000E+01
  0
LINE
  8
0
 62
7
 10
7.33500061E+01
 20
-8.48000031E+01
 11
7.33500061E+01
 21
-9.48000031E+01
  0
LINE
  8
0
 62
7
 10
7.33500061E+01
 20
9.45000000E+01
 11
7.33500061E+01
 21
8.45000000E+01
  0
LINE
  8
0
 62
7
 10
-7.33999939E+01
 20
9.45000000E+01
 11
-7.33999939E+01
 21
8.45000000E+01
  0
TEXT
  8
0
 62
7
 10
7.72426624E+01
 20
-9.20500031E+01
 40
4.50000000E+00
  1
KOGANEI CORP.
 41
1.04838710E+00
  7
MONOTXT
  0
TEXT
  8
0
 62
7
 10
9.35071493E+01
 20
8.79000001E+01
 40
3.19999981E+00
  1
Ver. 1.0
 41
1.08108108E+00
  7
MONOTXT
  0
TEXT
  8
0
 62
7
 10
-1.31042850E+02
 20
8.79000001E+01
 40
3.19999981E+00
  1
NEW PEN CYLINDER
 41
1.08108108E+00
  7
MONOTXT
  0
TEXT
  8
0
 62
7
 10
-1.29085994E+02
 20
7.29000000E+01
 40
3.20000005E+00
  1
MODEL:PBSA4*ST(5)
 41
1.00000000E+00
  7
MONOTXT
  0
ENDSEC
  0
EOF
