  0
SECTION
  2
HEADER
  9
$ACADVER
  1
AC1003
  9
$EXTMIN
 10
-1.38399994E+02
 20
-9.48000031E+01
  9
$EXTMAX
 10
1.38350006E+02
 20
9.45000000E+01
  9
$LIMMIN
 10
-1.38400994E+02
 20
-9.48010031E+01
  9
$LIMMAX
 10
1.38351006E+02
 20
9.45010000E+01
  9
$SNAPUNIT
 10
1
 20
1
  9
$SNAPBASE
 10
0
 20
0
  9
$GRIDMODE
 70
0
  9
$GRIDUNIT
 10
0
 20
0
  9
$LTSCALE
 40
4.61250000E+00
  9
$TEXTSIZE
 40
3.2
  9
$DIMTAD
 70
0
  9
$LUNITS
 70
2
  9
$LUPREC
 70
4
  9
$FILLETRAD
 40
0
  9
$AUNITS
 70
0
  9
$AUPREC
 70
0
  0
ENDSEC
  0
SECTION
  2
TABLES
  0
TABLE
  2
LTYPE
 70
2
  0
LTYPE
  2
CONTINUOUS
 70
64
  3
Solid-Line
 72
65
 73
0
 40
0
  0
LTYPE
  2
DASHED
 70
64
  3
DASHED
 72
65
 73
2
 40
.75
 49
.5
 49
-.25
  0
LTYPE
  2
HIDDEN
 70
64
  3
HIDDEN
 72
65
 73
2
 40
.375
 49
.25
 49
-.125
  0
LTYPE
  2
CENTER
 70
64
  3
CENTER
 72
65
 73
4
 40
2
 49
1.25
 49
-.25
 49
.25
 49
-.25
  0
LTYPE
  2
PHANTOM
 70
64
  3
PHANTOM
 72
65
 73
6
 40
2.5
 49
1.25
 49
-.25
 49
.25
 49
-.25
 49
.25
 49
-.25
  0
ENDTAB
  0
TABLE
  2
LAYER
 70
1
  0
LAYER
  2
0
 70
0
 62
3
  6
CONTINUOUS
 0
ENDTAB
  0
TABLE
  2
STYLE
 70
2
  0
STYLE
  2
MONOTXT
 70
0
 40
0
 41
1
 50
0
 71
0
 42
.2
  3
monotxt
  0
STYLE
  2
BIGFONT
 70
0
 40
0
 41
1
 50
0
 71
0
 42
.2
  3
txt
  4
bigfont
  0
ENDTAB
  0
ENDSEC
  0
SECTION
  2
ENTITIES
  0
LINE
  8
0
  6
PHANTOM
 10
-5.12863781E-01
 20
1.96410131E+00
 11
-5.12863781E-01
 21
3.57897466E+01
  0
LINE
  8
0
 62
2
 10
-8.85999390E+00
 20
1.61999969E+01
 11
-8.26999390E+00
 21
1.61999969E+01
  0
LINE
  8
0
 62
2
 10
-8.85999390E+00
 20
1.41999969E+01
 11
-8.26999390E+00
 21
1.41999969E+01
  0
LINE
  8
0
 62
7
 10
-8.85999390E+00
 20
1.39499969E+01
 11
-7.76999390E+00
 21
1.39499969E+01
  0
LINE
  8
0
 62
7
 10
-8.85999390E+00
 20
1.64499969E+01
 11
-7.76999390E+00
 21
1.64499969E+01
  0
LINE
  8
0
  6
CENTER
 62
2
 10
-1.34099939E+01
 20
1.51999969E+01
 11
1.43400061E+01
 21
1.51999969E+01
  0
LINE
  8
0
 62
7
 10
8.73000610E+00
 20
1.69499969E+01
 11
8.73000610E+00
 21
1.34499969E+01
  0
LINE
  8
0
 62
7
 10
1.07300061E+01
 20
1.67999969E+01
 11
1.07300061E+01
 21
1.35999969E+01
  0
LINE
  8
0
 62
7
 10
1.37300061E+01
 20
1.62999969E+01
 11
1.37300061E+01
 21
1.40999969E+01
  0
LINE
  8
0
 62
7
 10
1.22300061E+01
 20
1.40999969E+01
 11
1.07300061E+01
 21
1.35999969E+01
  0
LINE
  8
0
 62
7
 10
1.22300061E+01
 20
1.62999969E+01
 11
1.07300061E+01
 21
1.67999969E+01
  0
LINE
  8
0
 62
7
 10
1.37300061E+01
 20
1.62999969E+01
 11
1.22300061E+01
 21
1.67999969E+01
  0
LINE
  8
0
 62
7
 10
1.22300061E+01
 20
1.67999969E+01
 11
1.22300061E+01
 21
1.35999969E+01
  0
LINE
  8
0
 62
7
 10
1.37300061E+01
 20
1.40999969E+01
 11
1.22300061E+01
 21
1.35999969E+01
  0
LINE
  8
0
 62
7
 10
-1.27699939E+01
 20
1.56999969E+01
 11
-1.27699939E+01
 21
1.46999969E+01
  0
LINE
  8
0
 62
7
 10
-1.12699939E+01
 20
1.61499969E+01
 11
-1.12699939E+01
 21
1.42499969E+01
  0
LINE
  8
0
 62
7
 10
-7.76999390E+00
 20
1.69499969E+01
 11
-7.76999390E+00
 21
1.34499969E+01
  0
LINE
  8
0
 62
7
 10
-1.27699939E+01
 20
1.56999969E+01
 11
-1.12699939E+01
 21
1.56999969E+01
  0
LINE
  8
0
 62
7
 10
-1.27699939E+01
 20
1.46999969E+01
 11
-1.12699939E+01
 21
1.46999969E+01
  0
LINE
  8
0
 62
7
 10
-1.09699939E+01
 20
1.64499969E+01
 11
-1.04599939E+01
 21
1.64499969E+01
  0
LINE
  8
0
 62
7
 10
-1.09699939E+01
 20
1.39499969E+01
 11
-1.04599939E+01
 21
1.39499969E+01
  0
LINE
  8
0
 62
2
 10
-1.12099939E+01
 20
1.61999969E+01
 11
-1.04599939E+01
 21
1.61999969E+01
  0
LINE
  8
0
 62
7
 10
-8.26999390E+00
 20
1.64499969E+01
 11
-8.26999390E+00
 21
1.39499969E+01
  0
LINE
  8
0
 62
2
 10
-8.26999390E+00
 20
1.61999969E+01
 11
-7.83999390E+00
 21
1.64499969E+01
  0
LINE
  8
0
 62
2
 10
-1.12099939E+01
 20
1.41999969E+01
 11
-1.04599939E+01
 21
1.41999969E+01
  0
LINE
  8
0
 62
2
 10
-8.26999390E+00
 20
1.41999969E+01
 11
-7.83999390E+00
 21
1.39499969E+01
  0
LINE
  8
0
 62
7
 10
-7.76999390E+00
 20
1.69499969E+01
 11
7.23000610E+00
 21
1.69499969E+01
  0
LINE
  8
0
 62
7
 10
-7.76999390E+00
 20
1.34499969E+01
 11
7.23000610E+00
 21
1.34499969E+01
  0
LINE
  8
0
 62
7
 10
7.73000610E+00
 20
1.69499969E+01
 11
7.73000610E+00
 21
1.34499969E+01
  0
LINE
  8
0
 62
7
 10
7.48000610E+00
 20
1.66999969E+01
 11
7.73000610E+00
 21
1.66999969E+01
  0
LINE
  8
0
 62
7
 10
7.73000610E+00
 20
1.69499969E+01
 11
8.73000610E+00
 21
1.69499969E+01
  0
LINE
  8
0
 62
7
 10
7.73000610E+00
 20
1.34499969E+01
 11
8.73000610E+00
 21
1.34499969E+01
  0
LINE
  8
0
 62
7
 10
7.48000610E+00
 20
1.36999969E+01
 11
7.73000610E+00
 21
1.36999969E+01
  0
LINE
  8
0
 62
7
 10
7.48000610E+00
 20
1.66999969E+01
 11
7.48000610E+00
 21
1.36999969E+01
  0
LINE
  8
0
 62
7
 10
-1.12699939E+01
 20
1.61499969E+01
 11
-1.09699939E+01
 21
1.64499969E+01
  0
LINE
  8
0
 62
7
 10
-1.12699939E+01
 20
1.42499969E+01
 11
-1.09699939E+01
 21
1.39499969E+01
  0
LINE
  8
0
 62
7
 10
-1.09699939E+01
 20
1.64499969E+01
 11
-1.09699939E+01
 21
1.39499969E+01
  0
LINE
  8
0
 62
7
 10
8.73000610E+00
 20
1.64999969E+01
 11
1.07300061E+01
 21
1.64999969E+01
  0
LINE
  8
0
 62
7
 10
8.73000610E+00
 20
1.38999969E+01
 11
1.07300061E+01
 21
1.38999969E+01
  0
ARC
  8
0
 62
7
 10
7.23000563E+00
 20
1.66999965E+01
 40
2.50000477E-01
 50
1.09282922E-04
 51
9.00000002E+01
  0
ARC
  8
0
 62
7
 10
7.23000563E+00
 20
1.36999974E+01
 40
2.50000477E-01
 50
2.70000000E+02
 51
3.59999891E+02
  0
LINE
  8
0
 62
7
 10
-8.85999390E+00
 20
1.71999969E+01
 11
-8.85999390E+00
 21
1.31999969E+01
  0
LINE
  8
0
 62
7
 10
-1.04599939E+01
 20
1.71999969E+01
 11
-1.04599939E+01
 21
1.31999969E+01
  0
LINE
  8
0
 62
7
 10
-1.02899939E+01
 20
1.63499969E+01
 11
-9.03999390E+00
 21
1.63499969E+01
  0
LINE
  8
0
 62
7
 10
-1.02899939E+01
 20
1.40499969E+01
 11
-9.03999390E+00
 21
1.40499969E+01
  0
LINE
  8
0
 62
7
 10
-1.02899939E+01
 20
1.74999969E+01
 11
-9.03999390E+00
 21
1.74999969E+01
  0
LINE
  8
0
 62
7
 10
-1.04599939E+01
 20
1.71999969E+01
 11
-1.02899939E+01
 21
1.74999969E+01
  0
LINE
  8
0
 62
7
 10
-1.04599939E+01
 20
1.31999969E+01
 11
-1.02899939E+01
 21
1.28999969E+01
  0
LINE
  8
0
 62
7
 10
-8.85999390E+00
 20
1.71999969E+01
 11
-9.03999390E+00
 21
1.74999969E+01
  0
LINE
  8
0
 62
7
 10
-8.85999390E+00
 20
1.31999969E+01
 11
-9.03999390E+00
 21
1.28999969E+01
  0
LINE
  8
0
 62
7
 10
-1.02899939E+01
 20
1.28999969E+01
 11
-9.03999390E+00
 21
1.28999969E+01
  0
ARC
  8
0
 62
7
 10
-9.43286819E+00
 20
1.69161372E+01
 40
1.02721921E+00
 50
1.79226916E+02
 51
2.13445170E+02
  0
ARC
  8
0
 62
7
 10
-6.63864571E+00
 20
1.51999969E+01
 40
3.82816452E+00
 50
1.62518066E+02
 51
1.97481934E+02
  0
ARC
  8
0
 62
7
 10
-9.43286819E+00
 20
1.34838567E+01
 40
1.02721921E+00
 50
1.46554830E+02
 51
1.80773084E+02
  0
ARC
  8
0
 62
7
 10
-9.88309225E+00
 20
1.69295792E+01
 40
1.02309843E+00
 50
3.25493686E+02
 51
2.33951405E-02
  0
ARC
  8
0
 62
7
 10
-9.88309225E+00
 20
1.34704147E+01
 40
1.02309843E+00
 50
3.59976605E+02
 51
3.45063139E+01
  0
ARC
  8
0
 62
7
 10
-1.26813427E+01
 20
1.51999969E+01
 40
3.81862813E+00
 50
3.42472995E+02
 51
1.75270048E+01
  0
TEXT
  8
0
 62
7
 10
-6.85392887E+00
 20
1.39249969E+01
 40
8.00000012E-01
  1
PBSA2.5
 41
1.00000000E+00
  7
MONOTXT
  0
LINE
  8
0
  6
CENTER
 62
2
 10
-7.02699939E+01
 20
1.51999969E+01
 11
-6.52699939E+01
 21
1.51999969E+01
  0
LINE
  8
0
 62
7
 10
-6.57699939E+01
 20
1.40499969E+01
 11
-6.77699939E+01
 21
1.28999969E+01
  0
LINE
  8
0
 62
7
 10
-6.77699939E+01
 20
1.74999969E+01
 11
-6.57699939E+01
 21
1.63499969E+01
  0
LINE
  8
0
  6
CENTER
 62
2
 10
-7.02699939E+01
 20
1.51999969E+01
 11
-6.52699939E+01
 21
1.51999969E+01
  0
CIRCLE
  8
0
 62
7
 10
-6.77699939E+01
 20
1.51999969E+01
 40
2.00000000E+00
  0
CIRCLE
  8
0
 62
2
 10
-6.77699939E+01
 20
1.51999969E+01
 40
1.00000000E+00
  0
CIRCLE
  8
0
 62
2
 10
-6.77699939E+01
 20
1.51999969E+01
 40
1.25000000E+00
  0
LINE
  8
0
 62
7
 10
-6.97699939E+01
 20
1.40499969E+01
 11
-6.97699939E+01
 21
1.63499969E+01
  0
LINE
  8
0
 62
7
 10
-6.97699939E+01
 20
1.63499969E+01
 11
-6.77699939E+01
 21
1.74999969E+01
  0
LINE
  8
0
 62
7
 10
-6.77699939E+01
 20
1.28999969E+01
 11
-6.97699939E+01
 21
1.40499969E+01
  0
LINE
  8
0
  6
CENTER
 62
2
 10
-6.77699939E+01
 20
1.79811577E+01
 11
-6.77699939E+01
 21
1.23933340E+01
  0
LINE
  8
0
  6
CENTER
 62
2
 10
-6.77699939E+01
 20
1.76999969E+01
 11
-6.77699939E+01
 21
1.26999969E+01
  0
CIRCLE
  8
0
 62
7
 10
-6.77699939E+01
 20
1.51999969E+01
 40
1.25000000E+00
  0
CIRCLE
  8
0
 62
7
 10
-6.77699939E+01
 20
1.51999969E+01
 40
5.00000000E-01
  0
LINE
  8
0
 62
7
 10
-6.57699939E+01
 20
1.63499969E+01
 11
-6.57699939E+01
 21
1.40499969E+01
  0
LINE
  8
0
 62
7
 10
6.72300061E+01
 20
1.28999969E+01
 11
6.52300061E+01
 21
1.40499969E+01
  0
LINE
  8
0
 62
7
 10
6.92300061E+01
 20
1.40499969E+01
 11
6.72300061E+01
 21
1.28999969E+01
  0
LINE
  8
0
 62
7
 10
6.92300061E+01
 20
1.63499969E+01
 11
6.92300061E+01
 21
1.40499969E+01
  0
LINE
  8
0
 62
7
 10
6.72300061E+01
 20
1.74999969E+01
 11
6.92300061E+01
 21
1.63499969E+01
  0
CIRCLE
  8
0
 62
7
 10
6.72300061E+01
 20
1.51999969E+01
 40
2.00000000E+00
  0
LINE
  8
0
 62
7
 10
6.52300061E+01
 20
1.40499969E+01
 11
6.52300061E+01
 21
1.63499969E+01
  0
LINE
  8
0
 62
7
 10
6.52300061E+01
 20
1.63499969E+01
 11
6.72300061E+01
 21
1.74999969E+01
  0
LINE
  8
0
  6
CENTER
 62
2
 10
6.47300061E+01
 20
1.51999969E+01
 11
6.97300061E+01
 21
1.51999969E+01
  0
LINE
  8
0
  6
CENTER
 62
2
 10
6.72300061E+01
 20
1.76999969E+01
 11
6.72300061E+01
 21
1.26999969E+01
  0
CIRCLE
  8
0
 62
7
 10
6.72300061E+01
 20
1.51999969E+01
 40
1.59999943E+00
  0
CIRCLE
  8
0
 62
7
 10
6.72300061E+01
 20
1.51999969E+01
 40
1.75000000E+00
  0
CIRCLE
  8
0
 62
7
 10
6.72300061E+01
 20
1.51999969E+01
 40
2.50000000E-01
  0
LINE
  8
0
 62
7
 10
-1.28399994E+02
 20
-8.48000031E+01
 11
-8.31999939E+01
 21
-8.48000031E+01
  0
LINE
  8
0
 62
7
 10
-1.28399994E+02
 20
-8.48000031E+01
 11
-1.28399994E+02
 21
-7.28000031E+01
  0
LINE
  8
0
 62
7
 10
-1.28399994E+02
 20
-7.88000031E+01
 11
-8.31999939E+01
 21
-7.88000031E+01
  0
LINE
  8
0
 62
7
 10
-1.02399994E+02
 20
-8.48000031E+01
 11
-1.02399994E+02
 21
-7.28000031E+01
  0
LINE
  8
0
 62
7
 10
-9.27999939E+01
 20
-8.48000031E+01
 11
-9.27999939E+01
 21
-7.28000031E+01
  0
LINE
  8
0
 62
7
 10
-1.28399994E+02
 20
-7.28000031E+01
 11
-8.31999939E+01
 21
-7.28000031E+01
  0
TEXT
  8
0
 62
7
 10
-9.88499939E+01
 20
-7.74000031E+01
 40
3.20000005E+00
  1
5
 41
1.00000000E+00
  7
MONOTXT
  0
LINE
  8
0
 62
7
 10
-8.31999939E+01
 20
-8.48000031E+01
 11
-8.31999939E+01
 21
-7.28000031E+01
  0
TEXT
  8
0
 62
7
 10
-9.08499939E+01
 20
-7.74000031E+01
 40
3.20000005E+00
  1
10
 41
1.00000000E+00
  7
MONOTXT
  0
TEXT
  8
0
 62
7
 10
-1.24649994E+02
 20
-7.74000031E+01
 40
3.20000005E+00
  1
STROKE
 41
1.00000000E+00
  7
MONOTXT
  0
TEXT
  8
0
 62
7
 10
-1.26249994E+02
 20
-8.34000031E+01
 40
3.20000005E+00
  1
STRETCH
 41
1.00000000E+00
  7
MONOTXT
  0
TEXT
  8
0
 62
7
 10
-9.88499939E+01
 20
-8.34000031E+01
 40
3.20000005E+00
  1
0
 41
1.00000000E+00
  7
MONOTXT
  0
TEXT
  8
0
 62
7
 10
-8.92499939E+01
 20
-8.34000031E+01
 40
3.20000005E+00
  1
5
 41
1.00000000E+00
  7
MONOTXT
  0
TEXT
  8
0
 62
7
 10
-9.05525205E+01
 20
-7.06842167E+01
 40
3.20000005E+00
  1
(mm)
 41
7.81249988E-01
  7
MONOTXT
  0
TEXT
  8
0
 62
7
 10
-1.21510278E+02
 20
-7.04767142E+01
 40
3.20000005E+00
  1
STRETCH LIST
 41
8.22368408E-01
  7
MONOTXT
  0
TEXT
  8
0
 10
-1.90376175E+01
 20
4.23209114E+01
 40
3.20000005E+00
  1
STRETCH LINE
 41
1.05263158E+00
  7
MONOTXT
  0
LINE
  8
0
 62
7
 10
-1.38399994E+02
 20
9.45000000E+01
 11
1.38350006E+02
 21
9.45000000E+01
  0
LINE
  8
0
 62
7
 10
1.38350006E+02
 20
9.45000000E+01
 11
1.38350006E+02
 21
-9.48000031E+01
  0
LINE
  8
0
 62
7
 10
-1.38399994E+02
 20
-9.48000031E+01
 11
1.38350006E+02
 21
-9.48000031E+01
  0
LINE
  8
0
 62
7
 10
-1.38399994E+02
 20
9.45000000E+01
 11
-1.38399994E+02
 21
-9.48000031E+01
  0
LINE
  8
0
 62
7
 10
7.33500061E+01
 20
-8.48000031E+01
 11
1.38350006E+02
 21
-8.48000031E+01
  0
LINE
  8
0
 62
7
 10
-1.38399994E+02
 20
8.45000000E+01
 11
-7.33999939E+01
 21
8.45000000E+01
  0
LINE
  8
0
 62
7
 10
7.33500061E+01
 20
8.45000000E+01
 11
1.38350006E+02
 21
8.45000000E+01
  0
LINE
  8
0
 62
7
 10
7.33500061E+01
 20
-8.48000031E+01
 11
7.33500061E+01
 21
-9.48000031E+01
  0
LINE
  8
0
 62
7
 10
7.33500061E+01
 20
9.45000000E+01
 11
7.33500061E+01
 21
8.45000000E+01
  0
LINE
  8
0
 62
7
 10
-7.33999939E+01
 20
9.45000000E+01
 11
-7.33999939E+01
 21
8.45000000E+01
  0
TEXT
  8
0
 62
7
 10
7.72426624E+01
 20
-9.20500031E+01
 40
4.50000000E+00
  1
KOGANEI CORP.
 41
1.04838710E+00
  7
MONOTXT
  0
TEXT
  8
0
 62
7
 10
9.35071493E+01
 20
8.79000001E+01
 40
3.19999981E+00
  1
Ver. 1.0
 41
1.08108108E+00
  7
MONOTXT
  0
TEXT
  8
0
 62
7
 10
-1.31042850E+02
 20
8.79000001E+01
 40
3.19999981E+00
  1
NEW PEN CYLINDER
 41
1.08108108E+00
  7
MONOTXT
  0
TEXT
  8
0
 62
7
 10
-1.29085994E+02
 20
7.29000000E+01
 40
3.20000005E+00
  1
MODEL:PBSA2.5*ST(5)
 41
1.00000000E+00
  7
MONOTXT
  0
ENDSEC
  0
EOF
