  0
SECTION
  2
HEADER
  9
$ACADVER
  1
AC1003
  9
$EXTMIN
 10
-1.38399994E+02
 20
-9.48000031E+01
  9
$EXTMAX
 10
1.38350006E+02
 20
9.45000000E+01
  9
$LIMMIN
 10
-1.38400994E+02
 20
-9.48010031E+01
  9
$LIMMAX
 10
1.38351006E+02
 20
9.45010000E+01
  9
$SNAPUNIT
 10
1
 20
1
  9
$SNAPBASE
 10
0
 20
0
  9
$GRIDMODE
 70
0
  9
$GRIDUNIT
 10
0
 20
0
  9
$LTSCALE
 40
4.61250000E+00
  9
$TEXTSIZE
 40
3.2
  9
$DIMTAD
 70
0
  9
$LUNITS
 70
2
  9
$LUPREC
 70
4
  9
$FILLETRAD
 40
0
  9
$AUNITS
 70
0
  9
$AUPREC
 70
0
  0
ENDSEC
  0
SECTION
  2
TABLES
  0
TABLE
  2
LTYPE
 70
2
  0
LTYPE
  2
CONTINUOUS
 70
64
  3
Solid-Line
 72
65
 73
0
 40
0
  0
LTYPE
  2
DASHED
 70
64
  3
DASHED
 72
65
 73
2
 40
.75
 49
.5
 49
-.25
  0
LTYPE
  2
HIDDEN
 70
64
  3
HIDDEN
 72
65
 73
2
 40
.375
 49
.25
 49
-.125
  0
LTYPE
  2
CENTER
 70
64
  3
CENTER
 72
65
 73
4
 40
2
 49
1.25
 49
-.25
 49
.25
 49
-.25
  0
LTYPE
  2
PHANTOM
 70
64
  3
PHANTOM
 72
65
 73
6
 40
2.5
 49
1.25
 49
-.25
 49
.25
 49
-.25
 49
.25
 49
-.25
  0
ENDTAB
  0
TABLE
  2
LAYER
 70
1
  0
LAYER
  2
1
 70
0
 62
7
  6
CONTINUOUS
 0
ENDTAB
  0
TABLE
  2
STYLE
 70
2
  0
STYLE
  2
MONOTXT
 70
0
 40
0
 41
1
 50
0
 71
0
 42
.2
  3
monotxt
  0
STYLE
  2
BIGFONT
 70
0
 40
0
 41
1
 50
0
 71
0
 42
.2
  3
txt
  4
bigfont
  0
ENDTAB
  0
ENDSEC
  0
SECTION
  2
ENTITIES
  0
LINE
  8
0
  6
CENTER
 62
2
 10
-7.76368046E+01
 20
1.68046420E+01
 11
6.39398196E+01
 21
1.68046420E+01
  0
LINE
  8
0
  6
CENTER
 62
6
 10
2.42301713E+01
 20
4.01146420E+01
 11
2.42301713E+01
 21
7.06998289E+00
  0
LINE
  8
0
 62
4
 10
1.97301713E+01
 20
2.80046420E+01
 11
1.97301713E+01
 21
3.48046420E+01
  0
LINE
  8
0
 62
4
 10
2.87301713E+01
 20
2.80046420E+01
 11
2.87301713E+01
 21
3.48046420E+01
  0
LINE
  8
0
  6
CENTER
 62
6
 10
-1.07598287E+01
 20
4.01146420E+01
 11
-1.07598287E+01
 21
7.06998289E+00
  0
LINE
  8
0
 62
4
 10
-1.52598287E+01
 20
2.80046420E+01
 11
-1.52598287E+01
 21
3.48046420E+01
  0
LINE
  8
0
 62
4
 10
-6.25982870E+00
 20
2.80046420E+01
 11
-6.25982870E+00
 21
3.48046420E+01
  0
LINE
  8
0
  6
CENTER
 10
1.06361247E+01
 20
-3.10066505E+00
 11
1.06361247E+01
 21
3.58289022E+01
  0
TEXT
  8
0
 62
7
 10
-4.84576620E+00
 20
9.40465730E+00
 40
1.50000000E+00
  1
PBSAS16-7
 41
1.00000000E+00
  7
MONOTXT
  0
LINE
  8
0
 62
7
 10
2.87301713E+01
 20
8.30464199E+00
 11
3.47301713E+01
 21
8.30464199E+00
  0
LINE
  8
0
 62
7
 10
-6.25982870E+00
 20
8.30464199E+00
 11
1.97301713E+01
 21
8.30464199E+00
  0
ARC
  8
0
 62
7
 10
-4.67478027E+01
 20
1.68096420E+01
 40
6.01538783E+00
 50
1.81915637E+02
 51
2.24885328E+02
  0
ARC
  8
0
 62
7
 10
5.57164735E+01
 20
1.68096420E+01
 40
6.01657241E+00
 50
1.77122186E+00
 51
4.48740934E+01
  0
LINE
  8
0
 62
4
 10
-3.75982870E+00
 20
3.01046420E+01
 11
1.74017130E+00
 21
3.01046420E+01
  0
LINE
  8
0
 62
4
 10
-3.75982870E+00
 20
2.61046420E+01
 11
1.74017130E+00
 21
2.61046420E+01
  0
LINE
  8
0
 62
4
 10
-1.77598287E+01
 20
2.79046420E+01
 11
-1.77598287E+01
 21
2.48365242E+01
  0
LINE
  8
0
 62
4
 10
-3.75982870E+00
 20
2.79046420E+01
 11
-3.75982870E+00
 21
2.48365242E+01
  0
LINE
  8
0
 62
4
 10
-1.52598287E+01
 20
2.83046420E+01
 11
-6.25982870E+00
 21
2.83046420E+01
  0
LINE
  8
0
 62
4
 10
-1.77598287E+01
 20
2.48365242E+01
 11
-1.52598287E+01
 21
2.48365242E+01
  0
LINE
  8
0
 62
4
 10
-3.75982872E+00
 20
2.48365242E+01
 11
-6.25982872E+00
 21
2.48365242E+01
  0
LINE
  8
0
 62
4
 10
-6.25982870E+00
 20
2.79046420E+01
 11
-3.75982870E+00
 21
2.79046420E+01
  0
LINE
  8
0
 62
4
 10
-6.25982870E+00
 20
2.83046420E+01
 11
-3.75982870E+00
 21
2.83046420E+01
  0
LINE
  8
0
 62
4
 10
-6.25982870E+00
 20
3.11046420E+01
 11
-3.75982870E+00
 21
3.11046420E+01
  0
LINE
  8
0
 62
4
 10
-1.77598287E+01
 20
2.79046420E+01
 11
-1.52598287E+01
 21
2.79046420E+01
  0
LINE
  8
0
 62
4
 10
-1.77598287E+01
 20
2.83046420E+01
 11
-1.52598287E+01
 21
2.83046420E+01
  0
LINE
  8
0
 62
4
 10
-1.77598287E+01
 20
3.11046420E+01
 11
-1.52598287E+01
 21
3.11046420E+01
  0
LINE
  8
0
 62
4
 10
-1.52598287E+01
 20
8.15465734E+00
 11
-6.25982870E+00
 21
8.15465734E+00
  0
LINE
  8
0
 62
4
 10
-3.75982870E+00
 20
3.11046420E+01
 11
-3.75982870E+00
 21
2.83046420E+01
  0
LINE
  8
0
 62
4
 10
-1.77598287E+01
 20
3.11046420E+01
 11
-1.77598287E+01
 21
2.83046420E+01
  0
LINE
  8
0
 62
4
 10
-2.32598287E+01
 20
2.91046420E+01
 11
-2.22598287E+01
 21
3.01046420E+01
  0
LINE
  8
0
 62
4
 10
-2.32598287E+01
 20
2.91046420E+01
 11
-2.32598287E+01
 21
2.71046420E+01
  0
LINE
  8
0
 62
4
 10
-2.22598287E+01
 20
2.61046420E+01
 11
-1.77598287E+01
 21
2.61046420E+01
  0
LINE
  8
0
 62
4
 10
-2.22598287E+01
 20
3.01046420E+01
 11
-1.77598287E+01
 21
3.01046420E+01
  0
LINE
  8
0
 62
4
 10
-2.32598287E+01
 20
2.71046420E+01
 11
-2.22598287E+01
 21
2.61046420E+01
  0
LINE
  8
0
 62
4
 10
-2.22598287E+01
 20
3.01046420E+01
 11
-2.22598287E+01
 21
2.61046420E+01
  0
LINE
  8
0
 62
4
 10
-6.25982870E+00
 20
2.80046420E+01
 11
-6.25982870E+00
 21
8.15465734E+00
  0
LINE
  8
0
 62
4
 10
-1.52598287E+01
 20
2.80046420E+01
 11
-1.52598287E+01
 21
8.15465734E+00
  0
LINE
  8
0
 62
4
 10
1.74017130E+00
 20
3.01046420E+01
 11
4.74017130E+00
 21
2.94046420E+01
  0
LINE
  8
0
 62
4
 10
1.74017130E+00
 20
2.61046420E+01
 11
4.74017130E+00
 21
2.68046420E+01
  0
LINE
  8
0
 62
4
 10
1.74017130E+00
 20
3.01046420E+01
 11
1.74017130E+00
 21
2.61046420E+01
  0
LINE
  8
0
 62
6
 10
9.67717038E+00
 20
2.94046420E+01
 11
7.07717038E+00
 21
2.68046420E+01
  0
LINE
  8
0
 62
4
 10
4.74017130E+00
 20
2.68046420E+01
 11
7.07717038E+00
 21
2.68046420E+01
  0
LINE
  8
0
 62
4
 10
4.74017130E+00
 20
2.94046420E+01
 11
4.74017130E+00
 21
2.68046420E+01
  0
LINE
  8
0
 62
4
 10
4.74017130E+00
 20
2.94046420E+01
 11
9.67717038E+00
 21
2.94046420E+01
  0
LINE
  8
0
 62
4
 10
3.12301713E+01
 20
3.01046420E+01
 11
3.67301713E+01
 21
3.01046420E+01
  0
LINE
  8
0
 62
4
 10
3.12301713E+01
 20
2.61046420E+01
 11
3.67301713E+01
 21
2.61046420E+01
  0
LINE
  8
0
 62
4
 10
1.72301713E+01
 20
2.79046420E+01
 11
1.72301713E+01
 21
2.48365242E+01
  0
LINE
  8
0
 62
4
 10
3.12301713E+01
 20
2.79046420E+01
 11
3.12301713E+01
 21
2.48365242E+01
  0
LINE
  8
0
 62
4
 10
1.97301713E+01
 20
2.83046420E+01
 11
2.87301713E+01
 21
2.83046420E+01
  0
LINE
  8
0
 62
4
 10
1.72301713E+01
 20
2.48365242E+01
 11
1.97301713E+01
 21
2.48365242E+01
  0
LINE
  8
0
 62
4
 10
3.12301713E+01
 20
2.48365242E+01
 11
2.87301713E+01
 21
2.48365242E+01
  0
LINE
  8
0
 62
4
 10
2.87301713E+01
 20
2.79046420E+01
 11
3.12301713E+01
 21
2.79046420E+01
  0
LINE
  8
0
 62
4
 10
2.87301713E+01
 20
2.83046420E+01
 11
3.12301713E+01
 21
2.83046420E+01
  0
LINE
  8
0
 62
4
 10
2.87301713E+01
 20
3.11046420E+01
 11
3.12301713E+01
 21
3.11046420E+01
  0
LINE
  8
0
 62
4
 10
1.72301713E+01
 20
2.79046420E+01
 11
1.97301713E+01
 21
2.79046420E+01
  0
LINE
  8
0
 62
4
 10
1.72301713E+01
 20
2.83046420E+01
 11
1.97301713E+01
 21
2.83046420E+01
  0
LINE
  8
0
 62
4
 10
1.72301713E+01
 20
3.11046420E+01
 11
1.97301713E+01
 21
3.11046420E+01
  0
LINE
  8
0
 62
4
 10
1.97301713E+01
 20
8.15465734E+00
 11
2.87301713E+01
 21
8.15465734E+00
  0
LINE
  8
0
 62
4
 10
3.12301713E+01
 20
3.11046420E+01
 11
3.12301713E+01
 21
2.83046420E+01
  0
LINE
  8
0
 62
4
 10
1.72301713E+01
 20
3.11046420E+01
 11
1.72301713E+01
 21
2.83046420E+01
  0
LINE
  8
0
 62
4
 10
1.17301713E+01
 20
2.91046420E+01
 11
1.27301713E+01
 21
3.01046420E+01
  0
LINE
  8
0
 62
4
 10
1.17301713E+01
 20
2.91046420E+01
 11
1.17301713E+01
 21
2.71046420E+01
  0
LINE
  8
0
 62
4
 10
1.27301713E+01
 20
2.61046420E+01
 11
1.72301713E+01
 21
2.61046420E+01
  0
LINE
  8
0
 62
4
 10
1.27301713E+01
 20
3.01046420E+01
 11
1.72301713E+01
 21
3.01046420E+01
  0
LINE
  8
0
 62
4
 10
1.17301713E+01
 20
2.71046420E+01
 11
1.27301713E+01
 21
2.61046420E+01
  0
LINE
  8
0
 62
4
 10
1.27301713E+01
 20
3.01046420E+01
 11
1.27301713E+01
 21
2.61046420E+01
  0
LINE
  8
0
 62
4
 10
2.87301713E+01
 20
2.80046420E+01
 11
2.87301713E+01
 21
8.15465734E+00
  0
LINE
  8
0
 62
4
 10
1.97301713E+01
 20
2.80046420E+01
 11
1.97301713E+01
 21
8.15465734E+00
  0
LINE
  8
0
 62
4
 10
3.67301713E+01
 20
3.01046420E+01
 11
3.97301713E+01
 21
2.94046420E+01
  0
LINE
  8
0
 62
4
 10
3.67301713E+01
 20
2.61046420E+01
 11
3.97301713E+01
 21
2.68046420E+01
  0
LINE
  8
0
 62
4
 10
3.67301713E+01
 20
3.01046420E+01
 11
3.67301713E+01
 21
2.61046420E+01
  0
LINE
  8
0
 62
6
 10
4.46671704E+01
 20
2.94046420E+01
 11
4.20671704E+01
 21
2.68046420E+01
  0
LINE
  8
0
 62
4
 10
3.97301713E+01
 20
2.68046420E+01
 11
4.20671704E+01
 21
2.68046420E+01
  0
LINE
  8
0
 62
4
 10
3.97301713E+01
 20
2.94046420E+01
 11
3.97301713E+01
 21
2.68046420E+01
  0
LINE
  8
0
 62
4
 10
3.97301713E+01
 20
2.94046420E+01
 11
4.46671704E+01
 21
2.94046420E+01
  0
LINE
  8
0
 62
7
 10
-3.75982870E+00
 20
2.53046420E+01
 11
1.72301713E+01
 21
2.53046420E+01
  0
LINE
  8
0
 62
7
 10
3.12301713E+01
 20
2.53046420E+01
 11
3.47301713E+01
 21
2.53046420E+01
  0
LINE
  8
0
  6
CENTER
 62
2
 10
3.92301713E+01
 20
2.68626080E+01
 11
3.92301713E+01
 21
2.10546420E+01
  0
LINE
  8
0
 62
7
 10
3.64801713E+01
 20
1.25546420E+01
 11
3.64801713E+01
 21
8.30464199E+00
  0
ARC
  8
0
 62
7
 10
4.07541829E+01
 20
1.67998232E+01
 40
6.02401354E+00
 50
1.35193898E+02
 51
2.24806102E+02
  0
LINE
  8
0
 62
7
 10
3.64801713E+01
 20
2.10446420E+01
 11
3.64801713E+01
 21
2.53046420E+01
  0
LINE
  8
0
 62
2
 10
-6.77898287E+01
 20
1.47376420E+01
 11
-6.07598287E+01
 21
1.47376420E+01
  0
LINE
  8
0
 62
2
 10
-6.77898287E+01
 20
1.88716420E+01
 11
-6.07598287E+01
 21
1.88716420E+01
  0
LINE
  8
0
 62
2
 10
-7.56928287E+01
 20
1.47376420E+01
 11
-7.17898287E+01
 21
1.47376420E+01
  0
LINE
  8
0
 62
2
 10
-7.56928287E+01
 20
1.88716420E+01
 11
-7.17898287E+01
 21
1.88716420E+01
  0
LINE
  8
0
 62
7
 10
-6.07598287E+01
 20
2.08046420E+01
 11
-6.07598287E+01
 21
1.28046420E+01
  0
LINE
  8
0
 62
2
 10
-6.05718287E+01
 20
1.26166420E+01
 11
-5.42598287E+01
 21
1.26166420E+01
  0
LINE
  8
0
 62
7
 10
-6.07598287E+01
 20
1.28046420E+01
 11
-5.97598287E+01
 21
1.18046420E+01
  0
LINE
  8
0
 62
7
 10
-5.97598287E+01
 20
1.18046420E+01
 11
-5.27598287E+01
 21
1.18046420E+01
  0
LINE
  8
0
 62
2
 10
-6.05718287E+01
 20
2.09926420E+01
 11
-5.42598287E+01
 21
2.09926420E+01
  0
LINE
  8
0
 62
7
 10
-5.97598287E+01
 20
2.18046420E+01
 11
-5.27598287E+01
 21
2.18046420E+01
  0
LINE
  8
0
 62
7
 10
-6.07598287E+01
 20
2.08046420E+01
 11
-5.97598287E+01
 21
2.18046420E+01
  0
LINE
  8
0
 62
7
 10
-5.42598287E+01
 20
2.18046420E+01
 11
-5.42598287E+01
 21
1.18046420E+01
  0
LINE
  8
0
 62
7
 10
-5.97598287E+01
 20
2.18046420E+01
 11
-5.97598287E+01
 21
1.18046420E+01
  0
LINE
  8
0
 62
7
 10
-4.62598287E+01
 20
2.53046420E+01
 11
-4.62598287E+01
 21
8.30464199E+00
  0
LINE
  8
0
 62
7
 10
-5.27598287E+01
 20
2.53046420E+01
 11
-4.62598287E+01
 21
2.53046420E+01
  0
LINE
  8
0
 62
7
 10
-5.27598287E+01
 20
2.53046420E+01
 11
-5.27598287E+01
 21
8.30464199E+00
  0
LINE
  8
0
 62
7
 10
-5.27598287E+01
 20
8.30464199E+00
 11
-4.62598287E+01
 21
8.30464199E+00
  0
LINE
  8
0
 62
7
 10
-4.62598287E+01
 20
2.53046420E+01
 11
-1.77598287E+01
 21
2.53046420E+01
  0
LINE
  8
0
 62
7
 10
-4.62598287E+01
 20
8.30464199E+00
 11
-1.52598287E+01
 21
8.30464199E+00
  0
LINE
  8
0
 62
7
 10
-5.10098287E+01
 20
2.10546420E+01
 11
-4.80098287E+01
 21
2.10546420E+01
  0
LINE
  8
0
 62
7
 10
-5.10098287E+01
 20
1.25646420E+01
 11
-4.80098287E+01
 21
1.25646420E+01
  0
LINE
  8
0
 62
7
 10
-7.52598287E+01
 20
1.93046420E+01
 11
-7.17898287E+01
 21
1.93046420E+01
  0
LINE
  8
0
 62
7
 10
-7.52598287E+01
 20
1.43046420E+01
 11
-7.17898287E+01
 21
1.43046420E+01
  0
LINE
  8
0
 62
7
 10
-7.57598287E+01
 20
1.88046420E+01
 11
-7.57598287E+01
 21
1.48046420E+01
  0
LINE
  8
0
 62
7
 10
-7.57598287E+01
 20
1.88046420E+01
 11
-7.52598287E+01
 21
1.93046420E+01
  0
LINE
  8
0
 62
7
 10
-7.57598287E+01
 20
1.48046420E+01
 11
-7.52598287E+01
 21
1.43046420E+01
  0
LINE
  8
0
 62
7
 10
-7.52598287E+01
 20
1.93046420E+01
 11
-7.52598287E+01
 21
1.43046420E+01
  0
LINE
  8
0
 62
4
 10
-7.17898287E+01
 20
2.01946420E+01
 11
-7.17898287E+01
 21
1.34246420E+01
  0
LINE
  8
0
 62
4
 10
-6.77898287E+01
 20
2.01946420E+01
 11
-6.77898287E+01
 21
1.34246420E+01
  0
LINE
  8
0
 62
4
 10
-7.12898287E+01
 20
1.23046420E+01
 11
-6.82898287E+01
 21
1.23046420E+01
  0
LINE
  8
0
 62
4
 10
-7.12898287E+01
 20
2.13046420E+01
 11
-6.82898287E+01
 21
2.13046420E+01
  0
LINE
  8
0
 62
7
 10
-6.77898287E+01
 20
1.43046420E+01
 11
-6.07598287E+01
 21
1.43046420E+01
  0
LINE
  8
0
 62
7
 10
-6.77898287E+01
 20
1.93046420E+01
 11
-6.07598287E+01
 21
1.93046420E+01
  0
LINE
  8
0
 62
4
 10
-7.12898287E+01
 20
1.90846420E+01
 11
-6.82898287E+01
 21
1.90846420E+01
  0
LINE
  8
0
 62
4
 10
-7.12898287E+01
 20
1.45346420E+01
 11
-6.82898287E+01
 21
1.45346420E+01
  0
LINE
  8
0
 62
7
 10
6.17301713E+01
 20
2.53046420E+01
 11
6.17301713E+01
 21
8.30464199E+00
  0
LINE
  8
0
  6
CENTER
 62
2
 10
5.37301713E+01
 20
2.10546420E+01
 11
5.37301713E+01
 21
1.25646420E+01
  0
LINE
  8
0
 62
7
 10
3.47301713E+01
 20
2.53046420E+01
 11
3.47301713E+01
 21
8.30464199E+00
  0
LINE
  8
0
 62
7
 10
3.47301713E+01
 20
8.30464199E+00
 11
6.17301713E+01
 21
8.30464199E+00
  0
LINE
  8
0
 62
7
 10
3.64801713E+01
 20
1.25646420E+01
 11
5.99801713E+01
 21
1.25646420E+01
  0
LINE
  8
0
 62
7
 10
3.64897654E+01
 20
2.10546420E+01
 11
5.99801713E+01
 21
2.10546420E+01
  0
LINE
  8
0
 62
7
 10
3.47301713E+01
 20
2.53046420E+01
 11
6.17301713E+01
 21
2.53046420E+01
  0
LINE
  8
0
  6
CENTER
 62
2
 10
-4.92598287E+01
 20
2.69046420E+01
 11
-4.92598287E+01
 21
2.10546420E+01
  0
LINE
  8
0
 62
7
 10
5.99801713E+01
 20
2.53046420E+01
 11
5.99801713E+01
 21
2.10546420E+01
  0
LINE
  8
0
 62
7
 10
5.99801713E+01
 20
1.25646420E+01
 11
5.99801713E+01
 21
8.30464199E+00
  0
LINE
  8
0
 62
7
 10
-5.10098287E+01
 20
2.53046420E+01
 11
-5.10098287E+01
 21
2.10546420E+01
  0
LINE
  8
0
 62
7
 10
-4.80098287E+01
 20
2.53046420E+01
 11
-4.80098287E+01
 21
2.10546420E+01
  0
LINE
  8
0
 62
7
 10
-5.10098287E+01
 20
1.25646420E+01
 11
-5.10098287E+01
 21
8.30464199E+00
  0
LINE
  8
0
 62
7
 10
-4.80098287E+01
 20
1.25646420E+01
 11
-4.80098287E+01
 21
8.30464199E+00
  0
ARC
  8
0
 62
4
 10
-6.63865400E+01
 20
1.68145348E+01
 40
5.40329773E+00
 50
1.55156975E+02
 51
1.80104902E+02
  0
ARC
  8
0
 62
4
 10
-6.63886363E+01
 20
1.68042659E+01
 40
5.40119241E+00
 50
1.79996010E+02
 51
2.04847715E+02
  0
ARC
  8
0
 62
4
 10
-7.03051351E+01
 20
1.34234737E+01
 40
1.48469402E+00
 50
1.31546676E+02
 51
1.79954915E+02
  0
ARC
  8
0
 62
4
 10
-7.03057488E+01
 20
1.34155705E+01
 40
1.48410757E+00
 50
1.79649782E+02
 51
2.28464917E+02
  0
ARC
  8
0
 62
4
 10
-7.03088823E+01
 20
2.01941223E+01
 40
1.48094647E+00
 50
1.79979895E+02
 51
2.28518513E+02
  0
ARC
  8
0
 62
4
 10
-7.03057241E+01
 20
2.01937390E+01
 40
1.48410487E+00
 50
1.31536451E+02
 51
1.79965140E+02
  0
ARC
  8
0
 62
4
 10
-7.32100692E+01
 20
1.68108173E+01
 40
5.42024398E+00
 50
3.59934723E+02
 51
2.48034007E+01
  0
ARC
  8
0
 62
4
 10
-6.92855685E+01
 20
2.02007861E+01
 40
1.49575246E+00
 50
3.11736944E+02
 51
3.59764647E+02
  0
ARC
  8
0
 62
4
 10
-7.32079726E+01
 20
1.68079997E+01
 40
5.41814492E+00
 50
3.35191781E+02
 51
3.59964493E+02
  0
ARC
  8
0
 62
4
 10
-6.92892787E+01
 20
1.34168267E+01
 40
1.49947035E+00
 50
2.98629638E-01
 51
4.81997792E+01
  0
ARC
  8
0
 62
4
 10
-6.92887152E+01
 20
1.34221806E+01
 40
1.49888853E+00
 50
3.11791214E+02
 51
9.40875246E-02
  0
ARC
  8
0
 62
4
 10
-6.92886955E+01
 20
2.01870894E+01
 40
1.49888586E+00
 50
2.88704672E-01
 51
4.82097042E+01
  0
CIRCLE
  8
0
 62
7
 10
5.37343278E+01
 20
1.68046416E+01
 40
2.50000000E+00
  0
ARC
  8
0
 62
7
 10
5.57164735E+01
 20
1.68096420E+01
 40
6.01657241E+00
 50
3.15125907E+02
 51
3.58228778E+02
  0
ARC
  8
0
 62
7
 10
-4.67478027E+01
 20
1.68096420E+01
 40
6.01538783E+00
 50
1.35114672E+02
 51
1.78084364E+02
  0
ARC
  8
0
 62
7
 10
-5.22835265E+01
 20
1.68096420E+01
 40
6.02366313E+00
 50
3.15193017E+02
 51
4.48069829E+01
  0
ARC
  8
0
 62
4
 10
-9.26149435E+00
 20
3.63029763E+01
 40
1.00166704E+00
 50
9.52762946E-02
 51
8.99047236E+01
  0
ARC
  8
0
 62
4
 10
-1.22590372E+01
 20
3.63038505E+01
 40
1.00079180E+00
 50
9.00000002E+01
 51
1.79954687E+02
  0
LINE
  8
0
 62
6
 10
-1.19898287E+01
 20
3.58046420E+01
 11
-1.19898287E+01
 21
3.48046420E+01
  0
LINE
  8
0
 62
6
 10
-9.52982870E+00
 20
3.58046420E+01
 11
-9.52982870E+00
 21
3.48046420E+01
  0
LINE
  8
0
 62
4
 10
-1.22598287E+01
 20
3.58046420E+01
 11
-1.22598287E+01
 21
3.48046420E+01
  0
LINE
  8
0
 62
4
 10
-9.25982870E+00
 20
3.58046420E+01
 11
-9.25982870E+00
 21
3.48046420E+01
  0
LINE
  8
0
 62
4
 10
-1.22598287E+01
 20
3.73046420E+01
 11
-9.25982870E+00
 21
3.73046420E+01
  0
LINE
  8
0
 62
4
 10
-1.32598287E+01
 20
3.58046420E+01
 11
-8.25982870E+00
 21
3.58046420E+01
  0
LINE
  8
0
 62
4
 10
-1.52598287E+01
 20
3.48046420E+01
 11
-6.25982870E+00
 21
3.48046420E+01
  0
LINE
  8
0
 62
4
 10
-8.25982870E+00
 20
3.63046420E+01
 11
-8.25982870E+00
 21
3.58046420E+01
  0
LINE
  8
0
 62
4
 10
-1.32598287E+01
 20
3.63046420E+01
 11
-1.32598287E+01
 21
3.58046420E+01
  0
ARC
  8
0
 62
4
 10
2.57285056E+01
 20
3.63029763E+01
 40
1.00166704E+00
 50
9.52762946E-02
 51
8.99047236E+01
  0
ARC
  8
0
 62
4
 10
2.27309628E+01
 20
3.63038505E+01
 40
1.00079180E+00
 50
9.00000002E+01
 51
1.79954687E+02
  0
LINE
  8
0
 62
6
 10
2.30001713E+01
 20
3.58046420E+01
 11
2.30001713E+01
 21
3.48046420E+01
  0
LINE
  8
0
 62
6
 10
2.54601713E+01
 20
3.58046420E+01
 11
2.54601713E+01
 21
3.48046420E+01
  0
LINE
  8
0
 62
4
 10
2.27301713E+01
 20
3.58046420E+01
 11
2.27301713E+01
 21
3.48046420E+01
  0
LINE
  8
0
 62
4
 10
2.57301713E+01
 20
3.58046420E+01
 11
2.57301713E+01
 21
3.48046420E+01
  0
LINE
  8
0
 62
4
 10
2.27301713E+01
 20
3.73046420E+01
 11
2.57301713E+01
 21
3.73046420E+01
  0
LINE
  8
0
 62
4
 10
2.17301713E+01
 20
3.58046420E+01
 11
2.67301713E+01
 21
3.58046420E+01
  0
LINE
  8
0
 62
4
 10
1.97301713E+01
 20
3.48046420E+01
 11
2.87301713E+01
 21
3.48046420E+01
  0
LINE
  8
0
 62
4
 10
2.67301713E+01
 20
3.63046420E+01
 11
2.67301713E+01
 21
3.58046420E+01
  0
LINE
  8
0
 62
4
 10
2.17301713E+01
 20
3.63046420E+01
 11
2.17301713E+01
 21
3.58046420E+01
  0
LINE
  8
0
 62
4
 10
-1.04786956E+02
 20
2.70654864E+01
 11
-1.03786956E+02
 21
2.60654864E+01
  0
LINE
  8
0
 62
4
 10
-1.07886956E+02
 20
2.60654864E+01
 11
-1.06886956E+02
 21
2.70654864E+01
  0
LINE
  8
0
 62
4
 10
-1.03786956E+02
 20
3.00654864E+01
 11
-1.04786956E+02
 21
2.90654864E+01
  0
LINE
  8
0
 62
4
 10
-1.07886956E+02
 20
3.00654864E+01
 11
-1.06886956E+02
 21
2.90654864E+01
  0
LINE
  8
0
 62
4
 10
-1.04786956E+02
 20
2.90654864E+01
 11
-1.04786956E+02
 21
2.70654864E+01
  0
LINE
  8
0
 62
4
 10
-1.04786956E+02
 20
2.70654864E+01
 11
-1.06886956E+02
 21
2.70654864E+01
  0
LINE
  8
0
 62
4
 10
-1.06886956E+02
 20
2.90654864E+01
 11
-1.06886956E+02
 21
2.70654864E+01
  0
LINE
  8
0
 62
4
 10
-1.04786956E+02
 20
2.90654864E+01
 11
-1.06886956E+02
 21
2.90654864E+01
  0
ARC
  8
0
 62
4
 10
-1.05836956E+02
 20
1.67654864E+01
 40
8.65000000E+00
 50
2.59314255E+02
 51
2.80685745E+02
  0
ARC
  8
0
 62
4
 10
-1.05836956E+02
 20
1.67654864E+01
 40
8.65000000E+00
 50
3.49314255E+02
 51
1.06857449E+01
  0
LINE
  8
0
 62
4
 10
-1.04336956E+02
 20
3.20654864E+01
 11
-1.04636956E+02
 21
3.17654864E+01
  0
LINE
  8
0
 62
4
 10
-1.07336956E+02
 20
3.20654864E+01
 11
-1.07036956E+02
 21
3.17654864E+01
  0
LINE
  8
0
 62
4
 10
-1.04336956E+02
 20
3.20654864E+01
 11
-1.04636956E+02
 21
3.17654864E+01
  0
LINE
  8
0
 62
4
 10
-1.07336956E+02
 20
3.20654864E+01
 11
-1.07036956E+02
 21
3.17654864E+01
  0
LINE
  8
0
 62
4
 10
-1.04836956E+02
 20
2.57654864E+01
 11
-1.06836956E+02
 21
2.57654864E+01
  0
LINE
  8
0
 62
4
 10
-1.12743348E+02
 20
2.34850478E+01
 11
-1.13218688E+02
 21
2.36401348E+01
  0
LINE
  8
0
 62
4
 10
-1.11502652E+02
 20
2.72877671E+01
 11
-1.11360050E+02
 21
2.72412410E+01
  0
LINE
  8
0
 62
4
 10
-1.10761956E+02
 20
3.11699905E+01
 11
-1.13218688E+02
 21
2.36401348E+01
  0
LINE
  8
0
 62
4
 10
-1.11360065E+02
 20
2.72411962E+01
 11
-1.12601010E+02
 21
2.34377124E+01
  0
LINE
  8
0
 62
4
 10
-1.10261956E+02
 20
3.10904864E+01
 11
-1.12841016E+02
 21
2.31856943E+01
  0
LINE
  8
0
 62
4
 10
-1.02336956E+02
 20
2.82654864E+01
 11
-1.00191942E+02
 21
2.44105056E+01
  0
LINE
  8
0
 62
4
 10
-1.02486956E+02
 20
2.82654864E+01
 11
-1.00458219E+02
 21
2.46001330E+01
  0
ARC
  8
0
 62
4
 10
-1.05836956E+02
 20
1.67654864E+01
 40
8.65000000E+00
 50
1.69314255E+02
 51
1.90685745E+02
  0
LINE
  8
0
 62
4
 10
-1.02336956E+02
 20
3.47654864E+01
 11
-1.09336956E+02
 21
3.47654864E+01
  0
LINE
  8
0
 62
4
 10
-1.09336956E+02
 20
3.34654864E+01
 11
-1.09336956E+02
 21
2.75654864E+01
  0
LINE
  8
0
 62
4
 10
-1.02336956E+02
 20
3.34654864E+01
 11
-1.02336956E+02
 21
2.82654864E+01
  0
LINE
  8
0
 62
4
 10
-1.10136956E+02
 20
2.97632642E+01
 11
-1.10606474E+02
 21
3.00345414E+01
  0
LINE
  8
0
 62
4
 10
-1.10836956E+02
 20
3.30654864E+01
 11
-1.10836956E+02
 21
3.13804864E+01
  0
LINE
  8
0
 62
4
 10
-1.10836956E+02
 20
3.30654864E+01
 11
-1.11636956E+02
 21
3.30654864E+01
  0
LINE
  8
0
 62
4
 10
-1.08121956E+02
 20
3.39654864E+01
 11
-1.07981956E+02
 21
3.31654864E+01
  0
LINE
  8
0
 62
4
 10
-1.03551956E+02
 20
3.39654864E+01
 11
-1.03691956E+02
 21
3.31654864E+01
  0
LINE
  8
0
 62
4
 10
-1.03691956E+02
 20
3.31654864E+01
 11
-1.07981956E+02
 21
3.31654864E+01
  0
LINE
  8
0
 62
6
 10
-1.07066956E+02
 20
3.52654864E+01
 11
-1.07066956E+02
 21
3.47654864E+01
  0
LINE
  8
0
 62
6
 10
-1.04606956E+02
 20
3.52654864E+01
 11
-1.04606956E+02
 21
3.47654864E+01
  0
LINE
  8
0
 62
4
 10
-1.01536956E+02
 20
3.39654864E+01
 11
-1.01536956E+02
 21
2.82654864E+01
  0
LINE
  8
0
 62
4
 10
-1.10136956E+02
 20
2.75654864E+01
 11
-1.10136956E+02
 21
3.39654864E+01
  0
LINE
  8
0
 62
4
 10
-1.02836956E+02
 20
3.39654864E+01
 11
-1.08836956E+02
 21
3.39654864E+01
  0
LINE
  8
0
 62
4
 10
-1.11636956E+02
 20
3.30654864E+01
 11
-1.11636956E+02
 21
3.09204864E+01
  0
LINE
  8
0
 62
4
 10
-1.10136956E+02
 20
3.06894864E+01
 11
-1.10351061E+02
 21
3.08136672E+01
  0
LINE
  8
0
 62
4
 10
-1.02486956E+02
 20
3.34654864E+01
 11
-1.02486956E+02
 21
2.82654864E+01
  0
LINE
  8
0
 62
4
 10
-1.02336956E+02
 20
3.34654864E+01
 11
-1.02486956E+02
 21
3.34654864E+01
  0
LINE
  8
0
 62
4
 10
-1.02586956E+02
 20
3.17654864E+01
 11
-1.09086956E+02
 21
3.17654864E+01
  0
LINE
  8
0
 62
4
 10
-1.02586956E+02
 20
3.10654864E+01
 11
-1.09086956E+02
 21
3.10654864E+01
  0
LINE
  8
0
 62
4
 10
-1.10261956E+02
 20
3.35904864E+01
 11
-1.10261956E+02
 21
3.10904864E+01
  0
LINE
  8
0
 62
4
 10
-1.10761956E+02
 20
3.35904864E+01
 11
-1.10761956E+02
 21
3.11699905E+01
  0
LINE
  8
0
 62
4
 10
-1.10261956E+02
 20
3.35904864E+01
 11
-1.10761956E+02
 21
3.35904864E+01
  0
LINE
  8
0
 62
4
 10
-1.07336956E+02
 20
3.57654864E+01
 11
-1.07336956E+02
 21
3.47654864E+01
  0
LINE
  8
0
 62
4
 10
-1.04336956E+02
 20
3.57654864E+01
 11
-1.04336956E+02
 21
3.47654864E+01
  0
LINE
  8
0
 62
4
 10
-1.01536956E+02
 20
2.82654864E+01
 11
-1.02336956E+02
 21
2.82654864E+01
  0
LINE
  8
0
 62
4
 10
-1.09336956E+02
 20
2.75654864E+01
 11
-1.10136956E+02
 21
2.75654864E+01
  0
LINE
  8
0
 62
4
 10
-1.03336956E+02
 20
3.57654864E+01
 11
-1.08336956E+02
 21
3.57654864E+01
  0
LINE
  8
0
 62
4
 10
-1.04336956E+02
 20
3.72654864E+01
 11
-1.07336956E+02
 21
3.72654864E+01
  0
LINE
  8
0
 62
4
 10
-1.03336956E+02
 20
3.62654864E+01
 11
-1.03336956E+02
 21
3.57654864E+01
  0
LINE
  8
0
 62
4
 10
-1.08336956E+02
 20
3.62654864E+01
 11
-1.08336956E+02
 21
3.57654864E+01
  0
LINE
  8
0
 62
4
 10
-1.04336956E+02
 20
3.52654864E+01
 11
-1.07336956E+02
 21
3.52654864E+01
  0
ARC
  8
0
 62
4
 10
-1.02336959E+02
 20
3.39654832E+01
 40
8.00003254E-01
 50
2.33015759E-04
 51
9.00000002E+01
  0
ARC
  8
0
 62
4
 10
-1.09338619E+02
 20
3.39671490E+01
 40
7.98339134E-01
 50
8.98806771E+01
 51
1.80119323E+02
  0
ARC
  8
0
 62
4
 10
-1.02836960E+02
 20
3.34654821E+01
 40
5.00004290E-01
 50
4.91607912E-04
 51
9.00000002E+01
  0
ARC
  8
0
 62
4
 10
-1.08838619E+02
 20
3.34671490E+01
 40
4.98340176E-01
 50
8.98088454E+01
 51
1.80191155E+02
  0
ARC
  8
0
 62
4
 10
-1.11136752E+02
 20
3.09186207E+01
 40
5.00207143E-01
 50
1.79786293E+02
 51
2.39986760E+02
  0
ARC
  8
0
 62
4
 10
-1.10338104E+02
 20
3.13828421E+01
 40
4.98857363E-01
 50
1.80270562E+02
 51
2.09445368E+02
  0
ARC
  8
0
 62
4
 10
-1.07338368E+02
 20
3.62668987E+01
 40
9.98588677E-01
 50
8.99189656E+01
 51
1.80081034E+02
  0
ARC
  8
0
 62
4
 10
-1.04337209E+02
 20
3.62652336E+01
 40
1.00025280E+00
 50
1.44788446E-02
 51
9.00000002E+01
  0
LINE
  8
0
 62
4
 10
-1.09086956E+02
 20
3.17654864E+01
 11
-1.09086956E+02
 21
2.52654864E+01
  0
LINE
  8
0
 62
4
 10
-1.02586956E+02
 20
2.78654864E+01
 11
-1.02586956E+02
 21
2.52654864E+01
  0
LINE
  8
0
 62
4
 10
-1.02586956E+02
 20
2.78654864E+01
 11
-1.03786956E+02
 21
2.78654864E+01
  0
LINE
  8
0
 62
4
 10
-1.02586956E+02
 20
2.82654864E+01
 11
-1.03786956E+02
 21
2.82654864E+01
  0
LINE
  8
0
 62
4
 10
-1.02586956E+02
 20
3.17654864E+01
 11
-1.02586956E+02
 21
2.82654864E+01
  0
LINE
  8
0
 62
4
 10
-1.03786956E+02
 20
2.60654864E+01
 11
-1.07886956E+02
 21
2.60654864E+01
  0
LINE
  8
0
 62
4
 10
-1.03786956E+02
 20
3.00654864E+01
 11
-1.07886956E+02
 21
3.00654864E+01
  0
LINE
  8
0
 62
4
 10
-1.04836956E+02
 20
3.03654864E+01
 11
-1.06836956E+02
 21
3.03654864E+01
  0
LINE
  8
0
 62
4
 10
-1.04836956E+02
 20
3.03654864E+01
 11
-1.04836956E+02
 21
3.00654864E+01
  0
LINE
  8
0
 62
4
 10
-1.04836956E+02
 20
2.60654864E+01
 11
-1.04836956E+02
 21
2.57654864E+01
  0
LINE
  8
0
 62
4
 10
-1.03786956E+02
 20
3.00654864E+01
 11
-1.03786956E+02
 21
2.60654864E+01
  0
LINE
  8
0
 62
4
 10
-1.07886956E+02
 20
3.00654864E+01
 11
-1.07886956E+02
 21
2.60654864E+01
  0
LINE
  8
0
 62
4
 10
-1.06836956E+02
 20
3.03654864E+01
 11
-1.06836956E+02
 21
3.00654864E+01
  0
LINE
  8
0
 62
4
 10
-1.06836956E+02
 20
2.60654864E+01
 11
-1.06836956E+02
 21
2.57654864E+01
  0
LINE
  8
0
 62
4
 10
-1.04336956E+02
 20
3.31654864E+01
 11
-1.04336956E+02
 21
3.20654864E+01
  0
LINE
  8
0
 62
4
 10
-1.07336956E+02
 20
3.31654864E+01
 11
-1.07336956E+02
 21
3.20654864E+01
  0
LINE
  8
0
 62
6
 10
-1.04606956E+02
 20
3.31654864E+01
 11
-1.04606956E+02
 21
3.17954864E+01
  0
LINE
  8
0
 62
6
 10
-1.07066956E+02
 20
3.31654864E+01
 11
-1.07066956E+02
 21
3.17954864E+01
  0
LINE
  8
0
 62
4
 10
-1.11048995E+02
 20
3.02902199E+01
 11
-1.11386956E+02
 21
3.04854864E+01
  0
ARC
  8
0
 62
2
 10
-1.05836956E+02
 20
1.67654864E+01
 40
4.18800000E+00
 50
4.27673618E+01
 51
7.72326384E+01
  0
ARC
  8
0
 62
2
 10
-1.05836956E+02
 20
1.67654864E+01
 40
4.18800000E+00
 50
3.42767362E+02
 51
1.72326382E+01
  0
ARC
  8
0
 62
2
 10
-1.05836956E+02
 20
1.67654864E+01
 40
4.18800000E+00
 50
2.82767362E+02
 51
3.17232638E+02
  0
ARC
  8
0
 62
2
 10
-1.05836956E+02
 20
1.67654864E+01
 40
4.18800000E+00
 50
2.22767362E+02
 51
2.57232638E+02
  0
ARC
  8
0
 62
2
 10
-1.05836956E+02
 20
1.67654864E+01
 40
4.18800000E+00
 50
1.62767362E+02
 51
1.97232638E+02
  0
ARC
  8
0
 62
2
 10
-1.05836956E+02
 20
1.67654864E+01
 40
4.18800000E+00
 50
1.02767362E+02
 51
1.37232638E+02
  0
CIRCLE
  8
0
 62
2
 10
-1.05836956E+02
 20
1.67654864E+01
 40
2.06700000E+00
  0
LINE
  8
0
 62
4
 10
-1.09836956E+02
 20
1.44560851E+01
 11
-1.09836956E+02
 21
1.90748873E+01
  0
LINE
  8
0
 62
4
 10
-1.09836956E+02
 20
1.90748871E+01
 11
-1.05836956E+02
 21
2.13842882E+01
  0
LINE
  8
0
 62
4
 10
-1.05836956E+02
 20
2.13842884E+01
 11
-1.01836956E+02
 21
1.90748873E+01
  0
LINE
  8
0
 62
4
 10
-1.01836956E+02
 20
1.90748877E+01
 11
-1.01836956E+02
 21
1.44560855E+01
  0
LINE
  8
0
 62
4
 10
-1.01836956E+02
 20
1.44560857E+01
 11
-1.05836956E+02
 21
1.21466846E+01
  0
LINE
  8
0
 62
4
 10
-1.05836956E+02
 20
1.21466844E+01
 11
-1.09836956E+02
 21
1.44560855E+01
  0
LINE
  8
0
 62
7
 10
-9.73369561E+01
 20
2.10154864E+01
 11
-9.73369561E+01
 21
1.25254864E+01
  0
LINE
  8
0
 62
7
 10
-1.14336956E+02
 20
2.10154864E+01
 11
-1.14336956E+02
 21
1.25254864E+01
  0
LINE
  8
0
 62
7
 10
-1.10076956E+02
 20
8.26548641E+00
 11
-1.01586956E+02
 21
8.26548641E+00
  0
LINE
  8
0
 62
7
 10
-1.10076956E+02
 20
2.52654864E+01
 11
-1.01586956E+02
 21
2.52654864E+01
  0
LINE
  8
0
  6
CENTER
 62
2
 10
-1.05836956E+02
 20
4.03431989E+01
 11
-1.05836956E+02
 21
6.55379830E+00
  0
LINE
  8
0
  6
CENTER
 62
2
 10
-1.15835344E+02
 20
1.67654864E+01
 11
-9.56166654E+01
 21
1.67654864E+01
  0
CIRCLE
  8
0
 62
7
 10
-1.05836956E+02
 20
1.67654860E+01
 40
2.50000000E+00
  0
CIRCLE
  8
0
 62
7
 10
-1.05836956E+02
 20
1.67654860E+01
 40
8.50000000E+00
  0
ARC
  8
0
 62
7
 10
-1.05836956E+02
 20
1.67654862E+01
 40
9.50328916E+00
 50
2.65650517E+01
 51
6.34349484E+01
  0
ARC
  8
0
 62
7
 10
-1.05841948E+02
 20
1.67605021E+01
 40
9.50105520E+00
 50
1.16470744E+02
 51
1.53394601E+02
  0
ARC
  8
0
 62
7
 10
-1.05836956E+02
 20
1.67654862E+01
 40
9.49882072E+00
 50
2.06511100E+02
 51
2.43488900E+02
  0
ARC
  8
0
 62
7
 10
-1.05841940E+02
 20
1.67604939E+01
 40
9.50105469E+00
 50
2.96605398E+02
 51
3.33529257E+02
  0
CIRCLE
  8
0
 62
4
 10
-1.05836956E+02
 20
1.67654860E+01
 40
4.00000000E+00
  0
CIRCLE
  8
0
 62
7
 10
-1.05836956E+02
 20
1.67654860E+01
 40
5.00000000E+00
  0
LINE
  8
0
  6
CENTER
 62
2
 10
9.68230439E+01
 20
6.42548641E+00
 11
9.68230439E+01
 21
3.96927057E+01
  0
ARC
  8
0
 62
4
 10
9.68230439E+01
 20
1.67654864E+01
 40
8.65000000E+00
 50
3.49314256E+02
 51
1.06857436E+01
  0
ARC
  8
0
 62
4
 10
9.68230439E+01
 20
1.67654864E+01
 40
8.65000000E+00
 50
2.59314255E+02
 51
2.80685745E+02
  0
LINE
  8
0
 62
4
 10
9.53230439E+01
 20
3.20654864E+01
 11
9.56230439E+01
 21
3.17654864E+01
  0
LINE
  8
0
 62
4
 10
9.83230439E+01
 20
3.20654864E+01
 11
9.80230439E+01
 21
3.17654864E+01
  0
LINE
  8
0
 62
4
 10
9.53230439E+01
 20
3.20654864E+01
 11
9.56230439E+01
 21
3.17654864E+01
  0
LINE
  8
0
 62
4
 10
9.83230439E+01
 20
3.20654864E+01
 11
9.80230439E+01
 21
3.17654864E+01
  0
LINE
  8
0
 62
4
 10
9.58230439E+01
 20
2.57654864E+01
 11
9.78230439E+01
 21
2.57654864E+01
  0
LINE
  8
0
 62
4
 10
9.55230439E+01
 20
2.67654864E+01
 11
9.81230439E+01
 21
2.67654864E+01
  0
LINE
  8
0
 62
4
 10
9.55230439E+01
 20
2.67654864E+01
 11
9.47730439E+01
 21
2.60654864E+01
  0
LINE
  8
0
 62
4
 10
1.03729435E+02
 20
2.34850478E+01
 11
1.04204775E+02
 21
2.36401348E+01
  0
LINE
  8
0
 62
4
 10
1.02488740E+02
 20
2.72877671E+01
 11
1.02346138E+02
 21
2.72412410E+01
  0
LINE
  8
0
 62
4
 10
1.01748044E+02
 20
3.11699905E+01
 11
1.04204775E+02
 21
2.36401348E+01
  0
LINE
  8
0
 62
4
 10
1.02346152E+02
 20
2.72411962E+01
 11
1.03590242E+02
 21
2.34280746E+01
  0
LINE
  8
0
 62
4
 10
1.01248044E+02
 20
3.10904864E+01
 11
1.03830171E+02
 21
2.31762935E+01
  0
LINE
  8
0
 62
4
 10
9.33230439E+01
 20
2.82654864E+01
 11
9.11739578E+01
 21
2.44031870E+01
  0
LINE
  8
0
 62
4
 10
9.34730439E+01
 20
2.82654864E+01
 11
9.14403205E+01
 21
2.45929310E+01
  0
ARC
  8
0
 62
4
 10
9.68230439E+01
 20
1.67654864E+01
 40
8.65000000E+00
 50
1.69314255E+02
 51
1.90685745E+02
  0
CIRCLE
  8
0
 62
4
 10
9.68230439E+01
 20
2.80654864E+01
 40
1.30000000E+00
  0
LINE
  8
0
 62
4
 10
9.33230439E+01
 20
3.47654864E+01
 11
1.00323044E+02
 21
3.47654864E+01
  0
LINE
  8
0
 62
4
 10
1.00323044E+02
 20
3.34654864E+01
 11
1.00323044E+02
 21
2.75654864E+01
  0
LINE
  8
0
 62
4
 10
9.33230439E+01
 20
3.34654864E+01
 11
9.33230439E+01
 21
2.82654864E+01
  0
LINE
  8
0
 62
4
 10
1.01123044E+02
 20
2.97632642E+01
 11
1.01592562E+02
 21
3.00345414E+01
  0
LINE
  8
0
 62
4
 10
1.01823044E+02
 20
3.30654864E+01
 11
1.01823044E+02
 21
3.13804864E+01
  0
LINE
  8
0
 62
4
 10
1.01823044E+02
 20
3.30654864E+01
 11
1.02623044E+02
 21
3.30654864E+01
  0
LINE
  8
0
 62
4
 10
9.91080439E+01
 20
3.39654864E+01
 11
9.89680439E+01
 21
3.31654864E+01
  0
LINE
  8
0
 62
4
 10
9.45380439E+01
 20
3.39654864E+01
 11
9.46780439E+01
 21
3.31654864E+01
  0
LINE
  8
0
 62
4
 10
9.46780439E+01
 20
3.31654864E+01
 11
9.89680439E+01
 21
3.31654864E+01
  0
LINE
  8
0
 62
6
 10
9.80530439E+01
 20
3.52654864E+01
 11
9.80530439E+01
 21
3.47654864E+01
  0
LINE
  8
0
 62
6
 10
9.55930439E+01
 20
3.52654864E+01
 11
9.55930439E+01
 21
3.47654864E+01
  0
LINE
  8
0
 62
4
 10
9.25230439E+01
 20
3.39654864E+01
 11
9.25230439E+01
 21
2.82654864E+01
  0
LINE
  8
0
 62
4
 10
1.01123044E+02
 20
2.75654864E+01
 11
1.01123044E+02
 21
3.39654864E+01
  0
LINE
  8
0
 62
4
 10
9.38230439E+01
 20
3.39654864E+01
 11
9.98230439E+01
 21
3.39654864E+01
  0
LINE
  8
0
 62
4
 10
1.02623044E+02
 20
3.30654864E+01
 11
1.02623044E+02
 21
3.09204864E+01
  0
LINE
  8
0
 62
4
 10
1.01123044E+02
 20
3.06894864E+01
 11
1.01337149E+02
 21
3.08136672E+01
  0
LINE
  8
0
 62
4
 10
9.34730439E+01
 20
3.34654864E+01
 11
9.34730439E+01
 21
2.82654864E+01
  0
LINE
  8
0
 62
4
 10
9.33230439E+01
 20
3.34654864E+01
 11
9.34730439E+01
 21
3.34654864E+01
  0
LINE
  8
0
 62
4
 10
9.35730439E+01
 20
3.17654864E+01
 11
1.00073044E+02
 21
3.17654864E+01
  0
LINE
  8
0
 62
4
 10
9.35730439E+01
 20
3.10654864E+01
 11
1.00073044E+02
 21
3.10654864E+01
  0
LINE
  8
0
 62
4
 10
1.01248044E+02
 20
3.35904864E+01
 11
1.01248044E+02
 21
3.10904864E+01
  0
LINE
  8
0
 62
4
 10
1.01748044E+02
 20
3.35904864E+01
 11
1.01748044E+02
 21
3.11699905E+01
  0
LINE
  8
0
 62
4
 10
1.01248044E+02
 20
3.35904864E+01
 11
1.01748044E+02
 21
3.35904864E+01
  0
LINE
  8
0
 62
4
 10
9.83230439E+01
 20
3.57654864E+01
 11
9.83230439E+01
 21
3.47654864E+01
  0
LINE
  8
0
 62
4
 10
9.53230439E+01
 20
3.57654864E+01
 11
9.53230439E+01
 21
3.47654864E+01
  0
LINE
  8
0
 62
4
 10
9.25230439E+01
 20
2.82654864E+01
 11
9.33230439E+01
 21
2.82654864E+01
  0
LINE
  8
0
 62
4
 10
1.00323044E+02
 20
2.75654864E+01
 11
1.01123044E+02
 21
2.75654864E+01
  0
LINE
  8
0
 62
4
 10
9.43230439E+01
 20
3.57654864E+01
 11
9.93230439E+01
 21
3.57654864E+01
  0
LINE
  8
0
 62
4
 10
9.53230439E+01
 20
3.72654864E+01
 11
9.83230439E+01
 21
3.72654864E+01
  0
LINE
  8
0
 62
4
 10
9.43230439E+01
 20
3.62654864E+01
 11
9.43230439E+01
 21
3.57654864E+01
  0
LINE
  8
0
 62
4
 10
9.93230439E+01
 20
3.62654864E+01
 11
9.93230439E+01
 21
3.57654864E+01
  0
LINE
  8
0
 62
4
 10
9.53230439E+01
 20
3.52654864E+01
 11
9.83230439E+01
 21
3.52654864E+01
  0
ARC
  8
0
 62
4
 10
9.33230471E+01
 20
3.39654832E+01
 40
8.00003254E-01
 50
9.00000002E+01
 51
1.79999767E+02
  0
ARC
  8
0
 62
4
 10
1.00324706E+02
 20
3.39671490E+01
 40
7.98339134E-01
 50
3.59880678E+02
 51
9.01193227E+01
  0
ARC
  8
0
 62
4
 10
9.38230482E+01
 20
3.34654821E+01
 40
5.00004290E-01
 50
9.00000002E+01
 51
1.79999508E+02
  0
ARC
  8
0
 62
4
 10
9.98247065E+01
 20
3.34671490E+01
 40
4.98340176E-01
 50
3.59808845E+02
 51
9.01911544E+01
  0
ARC
  8
0
 62
4
 10
1.02122840E+02
 20
3.09186207E+01
 40
5.00207143E-01
 50
3.00013240E+02
 51
2.13706628E-01
  0
ARC
  8
0
 62
4
 10
1.01324192E+02
 20
3.13828421E+01
 40
4.98857363E-01
 50
3.30554632E+02
 51
3.59729437E+02
  0
ARC
  8
0
 62
4
 10
9.83244562E+01
 20
3.62668987E+01
 40
9.98588677E-01
 50
3.59918966E+02
 51
9.00810348E+01
  0
ARC
  8
0
 62
4
 10
9.53232966E+01
 20
3.62652336E+01
 40
1.00025280E+00
 50
9.00000002E+01
 51
1.79985521E+02
  0
LINE
  8
0
 62
4
 10
1.00073044E+02
 20
3.17654864E+01
 11
1.00073044E+02
 21
2.52654864E+01
  0
LINE
  8
0
 62
4
 10
9.35730439E+01
 20
2.78654864E+01
 11
9.35730439E+01
 21
2.52654864E+01
  0
LINE
  8
0
 62
4
 10
9.35730439E+01
 20
2.78654864E+01
 11
9.47730439E+01
 21
2.78654864E+01
  0
LINE
  8
0
 62
4
 10
9.35730439E+01
 20
2.82654864E+01
 11
9.47730439E+01
 21
2.82654864E+01
  0
LINE
  8
0
 62
4
 10
9.35730439E+01
 20
3.17654864E+01
 11
9.35730439E+01
 21
2.82654864E+01
  0
LINE
  8
0
 62
4
 10
9.47730439E+01
 20
2.60654864E+01
 11
9.88730439E+01
 21
2.60654864E+01
  0
LINE
  8
0
 62
4
 10
9.47730439E+01
 20
3.00654864E+01
 11
9.88730439E+01
 21
3.00654864E+01
  0
LINE
  8
0
 62
4
 10
9.58230439E+01
 20
3.03654864E+01
 11
9.78230439E+01
 21
3.03654864E+01
  0
LINE
  8
0
 62
4
 10
9.55230439E+01
 20
2.93654864E+01
 11
9.81230439E+01
 21
2.93654864E+01
  0
LINE
  8
0
 62
4
 10
9.58230439E+01
 20
3.03654864E+01
 11
9.58230439E+01
 21
3.00654864E+01
  0
LINE
  8
0
 62
4
 10
9.58230439E+01
 20
2.60654864E+01
 11
9.58230439E+01
 21
2.57654864E+01
  0
LINE
  8
0
 62
4
 10
9.47730439E+01
 20
3.00654864E+01
 11
9.47730439E+01
 21
2.60654864E+01
  0
LINE
  8
0
 62
4
 10
9.55230439E+01
 20
2.93654864E+01
 11
9.55230439E+01
 21
2.67654864E+01
  0
LINE
  8
0
 62
4
 10
9.47730439E+01
 20
3.00654864E+01
 11
9.55230439E+01
 21
2.93654864E+01
  0
LINE
  8
0
 62
4
 10
9.88730439E+01
 20
3.00654864E+01
 11
9.88730439E+01
 21
2.60654864E+01
  0
LINE
  8
0
 62
4
 10
9.78230439E+01
 20
3.03654864E+01
 11
9.78230439E+01
 21
3.00654864E+01
  0
LINE
  8
0
 62
4
 10
9.78230439E+01
 20
2.60654864E+01
 11
9.78230439E+01
 21
2.57654864E+01
  0
LINE
  8
0
 62
4
 10
9.81230439E+01
 20
2.93654864E+01
 11
9.81230439E+01
 21
2.67654864E+01
  0
LINE
  8
0
 62
4
 10
9.81230439E+01
 20
2.93654864E+01
 11
9.88730439E+01
 21
3.00654864E+01
  0
LINE
  8
0
 62
4
 10
9.81230439E+01
 20
2.67654864E+01
 11
9.88730439E+01
 21
2.60654864E+01
  0
LINE
  8
0
 62
4
 10
9.53230439E+01
 20
3.31654864E+01
 11
9.53230439E+01
 21
3.20654864E+01
  0
LINE
  8
0
 62
4
 10
9.83230439E+01
 20
3.31654864E+01
 11
9.83230439E+01
 21
3.20654864E+01
  0
LINE
  8
0
 62
6
 10
9.55930439E+01
 20
3.31654864E+01
 11
9.55930439E+01
 21
3.17954864E+01
  0
LINE
  8
0
 62
6
 10
9.80530439E+01
 20
3.31654864E+01
 11
9.80530439E+01
 21
3.17954864E+01
  0
LINE
  8
0
 62
4
 10
1.02035083E+02
 20
3.02902199E+01
 11
1.02373044E+02
 21
3.04854864E+01
  0
LINE
  8
0
 62
7
 10
1.05323044E+02
 20
1.25254864E+01
 11
1.05323044E+02
 21
2.10154864E+01
  0
LINE
  8
0
 62
7
 10
8.83230439E+01
 20
1.25254864E+01
 11
8.83230439E+01
 21
2.10154864E+01
  0
LINE
  8
0
 62
7
 10
9.25830439E+01
 20
2.52654864E+01
 11
1.01063044E+02
 21
2.52654864E+01
  0
LINE
  8
0
 62
7
 10
9.25830439E+01
 20
8.26548641E+00
 11
1.01063044E+02
 21
8.26548641E+00
  0
LINE
  8
0
 62
7
 10
1.00123044E+02
 20
8.26548641E+00
 11
1.00123044E+02
 21
2.52654864E+01
  0
LINE
  8
0
 62
7
 10
9.35230439E+01
 20
8.26548641E+00
 11
9.35230439E+01
 21
2.52654864E+01
  0
LINE
  8
0
  6
CENTER
 62
2
 10
8.61422122E+01
 20
1.67654864E+01
 11
1.07393044E+02
 21
1.67654864E+01
  0
ARC
  8
0
 62
7
 10
9.68213753E+01
 20
1.67571707E+01
 40
9.50551887E+00
 50
1.16479727E+02
 51
1.53385619E+02
  0
ARC
  8
0
 62
7
 10
9.68263727E+01
 20
1.67688152E+01
 40
9.50328580E+00
 50
2.06520101E+02
 51
2.43479899E+02
  0
ARC
  8
0
 62
7
 10
9.68263715E+01
 20
1.67621588E+01
 40
9.49435798E+00
 50
2.96502094E+02
 51
3.33497906E+02
  0
ARC
  8
0
 62
7
 10
9.68380693E+01
 20
1.67535301E+01
 40
9.49428151E+00
 50
2.66589370E+01
 51
6.36021455E+01
  0
ARC
  8
0
 62
7
 10
9.68291667E+01
 20
1.67662895E+01
 40
8.49387723E+00
 50
3.59994582E+02
 51
6.71826762E+01
  0
ARC
  8
0
 62
7
 10
9.68297004E+01
 20
1.67654864E+01
 40
8.49958100E+00
 50
1.12894629E+02
 51
2.47105371E+02
  0
ARC
  8
0
 62
7
 10
9.68291670E+01
 20
1.67646830E+01
 40
8.49387688E+00
 50
2.92817322E+02
 51
5.41920565E-03
  0
LINE
  8
0
  6
CENTER
 62
2
 10
5.37301880E+01
 20
6.33266954E+01
 11
5.37301541E+01
 21
4.39087024E+01
  0
LINE
  8
0
  6
CENTER
 62
6
 10
-1.07598112E+01
 20
6.37655737E+01
 11
-1.07598462E+01
 21
4.37655750E+01
  0
LINE
  8
0
  6
CENTER
 62
6
 10
2.42301888E+01
 20
6.37655126E+01
 11
2.42301538E+01
 21
4.37655139E+01
  0
LINE
  8
0
  6
CENTER
 10
1.06360933E+01
 20
3.57897979E+01
 11
1.06361459E+01
 21
6.59164296E+01
  0
TEXT
  8
0
 62
7
 10
-4.84577911E+00
 20
4.63655646E+01
 40
1.50000000E+00
  1
PBSAS16-7
 50
3.59999900E+02
 41
1.00000000E+00
  7
MONOTXT
  0
LINE
  8
0
 62
4
 10
2.87301562E+01
 20
4.51155060E+01
 11
2.87301864E+01
 21
6.24155060E+01
  0
LINE
  8
0
 62
4
 10
1.97301788E+01
 20
5.80655218E+01
 11
2.87301788E+01
 21
5.80655060E+01
  0
LINE
  8
0
 62
4
 10
1.97301799E+01
 20
5.86905218E+01
 11
2.87301799E+01
 21
5.86905060E+01
  0
LINE
  8
0
 62
4
 10
1.97301791E+01
 20
5.81905218E+01
 11
2.87301791E+01
 21
5.81905060E+01
  0
LINE
  8
0
 62
4
 10
1.97301842E+01
 20
6.11405218E+01
 11
2.87301842E+01
 21
6.11405060E+01
  0
LINE
  8
0
 62
4
 10
2.22301815E+01
 20
5.95655174E+01
 11
2.62301815E+01
 21
5.95655104E+01
  0
LINE
  8
0
 62
4
 10
2.22301801E+01
 20
5.87655174E+01
 11
2.62301800E+01
 21
5.87655104E+01
  0
LINE
  8
0
 62
4
 10
1.97301864E+01
 20
6.24155218E+01
 11
2.87301864E+01
 21
6.24155060E+01
  0
LINE
  8
0
 62
4
 10
2.62301814E+01
 20
5.95655104E+01
 11
2.62301799E+01
 21
5.86905104E+01
  0
LINE
  8
0
 62
4
 10
1.97301638E+01
 20
4.94655218E+01
 11
2.87301638E+01
 21
4.94655060E+01
  0
LINE
  8
0
 62
4
 10
1.97301562E+01
 20
4.51155218E+01
 11
2.87301562E+01
 21
4.51155060E+01
  0
LINE
  8
0
 62
6
 10
4.46671727E+01
 20
5.50654782E+01
 11
4.20671681E+01
 21
5.24654828E+01
  0
LINE
  8
0
 62
4
 10
3.97301690E+01
 20
5.24654868E+01
 11
4.20671681E+01
 21
5.24654828E+01
  0
LINE
  8
0
 62
4
 10
3.67301678E+01
 20
5.17654921E+01
 11
3.97301690E+01
 21
5.24654868E+01
  0
LINE
  8
0
 62
4
 10
3.97301736E+01
 20
5.50654868E+01
 11
3.97301690E+01
 21
5.24654868E+01
  0
LINE
  8
0
 62
4
 10
3.97301736E+01
 20
5.50654868E+01
 11
4.46671727E+01
 21
5.50654782E+01
  0
LINE
  8
0
 62
4
 10
3.67301748E+01
 20
5.57654921E+01
 11
3.97301736E+01
 21
5.50654868E+01
  0
LINE
  8
0
 62
4
 10
3.67301748E+01
 20
5.57654921E+01
 11
3.67301678E+01
 21
5.17654921E+01
  0
LINE
  8
0
 62
4
 10
2.87301770E+01
 20
5.70155060E+01
 11
3.12301770E+01
 21
5.70155017E+01
  0
LINE
  8
0
 62
4
 10
3.12301656E+01
 20
5.05155017E+01
 11
3.12301770E+01
 21
5.70155017E+01
  0
LINE
  8
0
 62
4
 10
3.12301748E+01
 20
5.57655017E+01
 11
3.67301748E+01
 21
5.57654921E+01
  0
LINE
  8
0
 62
4
 10
3.12301678E+01
 20
5.17655017E+01
 11
3.67301678E+01
 21
5.17654921E+01
  0
LINE
  8
0
 62
4
 10
2.87301656E+01
 20
5.05155060E+01
 11
3.12301656E+01
 21
5.05155017E+01
  0
LINE
  8
0
 62
4
 10
1.97301562E+01
 20
4.51155218E+01
 11
1.97301864E+01
 21
6.24155218E+01
  0
LINE
  8
0
 62
4
 10
2.22301799E+01
 20
5.86905174E+01
 11
2.22301814E+01
 21
5.95655174E+01
  0
LINE
  8
0
 62
4
 10
2.52401696E+01
 20
5.27655121E+01
 11
2.31701732E+01
 21
5.48255157E+01
  0
LINE
  8
0
 62
4
 10
2.31701695E+01
 20
5.27055157E+01
 11
2.52901732E+01
 21
5.48255120E+01
  0
CIRCLE
  8
0
 62
4
 10
2.42292961E+01
 20
5.37630554E+01
 40
2.50000000E+00
  0
LINE
  8
0
 62
4
 10
1.72301656E+01
 20
5.05155261E+01
 11
1.97301656E+01
 21
5.05155218E+01
  0
LINE
  8
0
 62
4
 10
1.27301678E+01
 20
5.17655340E+01
 11
1.72301678E+01
 21
5.17655261E+01
  0
LINE
  8
0
 62
4
 10
1.17301696E+01
 20
5.27655357E+01
 11
1.27301678E+01
 21
5.17655340E+01
  0
LINE
  8
0
 62
4
 10
1.17301731E+01
 20
5.47655357E+01
 11
1.17301696E+01
 21
5.27655357E+01
  0
LINE
  8
0
 62
4
 10
1.72301770E+01
 20
5.70155261E+01
 11
1.97301770E+01
 21
5.70155218E+01
  0
LINE
  8
0
 62
4
 10
1.27301748E+01
 20
5.57655340E+01
 11
1.72301748E+01
 21
5.57655261E+01
  0
LINE
  8
0
 62
4
 10
1.27301748E+01
 20
5.57655340E+01
 11
1.27301678E+01
 21
5.17655340E+01
  0
LINE
  8
0
 62
4
 10
1.72301656E+01
 20
5.05155261E+01
 11
1.72301770E+01
 21
5.70155261E+01
  0
LINE
  8
0
 62
4
 10
1.17301731E+01
 20
5.47655357E+01
 11
1.27301748E+01
 21
5.57655340E+01
  0
LINE
  8
0
 62
4
 10
-6.25984380E+00
 20
4.51155671E+01
 11
-6.25981359E+00
 21
6.24155671E+01
  0
LINE
  8
0
 62
4
 10
-1.52598212E+01
 20
5.80655828E+01
 11
-6.25982116E+00
 21
5.80655671E+01
  0
LINE
  8
0
 62
4
 10
-1.52598201E+01
 20
5.86905828E+01
 11
-6.25982007E+00
 21
5.86905671E+01
  0
LINE
  8
0
 62
4
 10
-1.52598209E+01
 20
5.81905828E+01
 11
-6.25982094E+00
 21
5.81905671E+01
  0
LINE
  8
0
 62
4
 10
-1.52598158E+01
 20
6.11405828E+01
 11
-6.25981582E+00
 21
6.11405671E+01
  0
LINE
  8
0
 62
4
 10
-1.27598185E+01
 20
5.95655785E+01
 11
-8.75981854E+00
 21
5.95655715E+01
  0
LINE
  8
0
 62
4
 10
-1.27598199E+01
 20
5.87655785E+01
 11
-8.75981997E+00
 21
5.87655715E+01
  0
LINE
  8
0
 62
4
 10
-1.52598136E+01
 20
6.24155828E+01
 11
-6.25981359E+00
 21
6.24155671E+01
  0
LINE
  8
0
 62
4
 10
-8.75981857E+00
 20
5.95655715E+01
 11
-8.75982010E+00
 21
5.86905715E+01
  0
LINE
  8
0
 62
4
 10
-1.52598362E+01
 20
4.94655828E+01
 11
-6.25983620E+00
 21
4.94655671E+01
  0
LINE
  8
0
 62
4
 10
-1.52598438E+01
 20
4.51155828E+01
 11
-6.25984380E+00
 21
4.51155671E+01
  0
LINE
  8
0
 62
6
 10
9.67717265E+00
 20
5.50655393E+01
 11
7.07716811E+00
 21
5.24655438E+01
  0
LINE
  8
0
 62
4
 10
4.74016903E+00
 20
5.24655479E+01
 11
7.07716811E+00
 21
5.24655438E+01
  0
LINE
  8
0
 62
4
 10
1.74016781E+00
 20
5.17655532E+01
 11
4.74016903E+00
 21
5.24655479E+01
  0
LINE
  8
0
 62
4
 10
4.74017357E+00
 20
5.50655479E+01
 11
4.74016904E+00
 21
5.24655479E+01
  0
LINE
  8
0
 62
4
 10
4.74017357E+00
 20
5.50655479E+01
 11
9.67717265E+00
 21
5.50655393E+01
  0
LINE
  8
0
 62
4
 10
1.74017480E+00
 20
5.57655532E+01
 11
4.74017357E+00
 21
5.50655479E+01
  0
LINE
  8
0
 62
4
 10
1.74017480E+00
 20
5.57655532E+01
 11
1.74016781E+00
 21
5.17655532E+01
  0
LINE
  8
0
 62
4
 10
-6.25982302E+00
 20
5.70155671E+01
 11
-3.75982302E+00
 21
5.70155628E+01
  0
LINE
  8
0
 62
4
 10
-3.75983437E+00
 20
5.05155628E+01
 11
-3.75982302E+00
 21
5.70155628E+01
  0
LINE
  8
0
 62
4
 10
-3.75982520E+00
 20
5.57655628E+01
 11
1.74017480E+00
 21
5.57655532E+01
  0
LINE
  8
0
 62
4
 10
-3.75983219E+00
 20
5.17655628E+01
 11
1.74016781E+00
 21
5.17655532E+01
  0
LINE
  8
0
 62
4
 10
-6.25983437E+00
 20
5.05155671E+01
 11
-3.75983437E+00
 21
5.05155628E+01
  0
LINE
  8
0
 62
4
 10
-1.52598438E+01
 20
4.51155828E+01
 11
-1.52598136E+01
 21
6.24155828E+01
  0
LINE
  8
0
 62
4
 10
-1.27598201E+01
 20
5.86905785E+01
 11
-1.27598186E+01
 21
5.95655785E+01
  0
LINE
  8
0
 62
4
 10
-9.74983044E+00
 20
5.27655732E+01
 11
-1.18198268E+01
 21
5.48255768E+01
  0
LINE
  8
0
 62
4
 10
-1.18198305E+01
 20
5.27055768E+01
 11
-9.69982684E+00
 21
5.48255731E+01
  0
CIRCLE
  8
0
 62
4
 10
-1.07607039E+01
 20
5.37631165E+01
 40
2.50000000E+00
  0
LINE
  8
0
 62
4
 10
-1.77598344E+01
 20
5.05155872E+01
 11
-1.52598344E+01
 21
5.05155828E+01
  0
LINE
  8
0
 62
4
 10
-2.22598322E+01
 20
5.17655951E+01
 11
-1.77598322E+01
 21
5.17655872E+01
  0
LINE
  8
0
 62
4
 10
-2.32598304E+01
 20
5.27655968E+01
 11
-2.22598322E+01
 21
5.17655951E+01
  0
LINE
  8
0
 62
4
 10
-2.32598269E+01
 20
5.47655968E+01
 11
-2.32598304E+01
 21
5.27655968E+01
  0
LINE
  8
0
 62
4
 10
-1.77598230E+01
 20
5.70155872E+01
 11
-1.52598230E+01
 21
5.70155828E+01
  0
LINE
  8
0
 62
4
 10
-2.22598252E+01
 20
5.57655951E+01
 11
-1.77598252E+01
 21
5.57655872E+01
  0
LINE
  8
0
 62
4
 10
-2.22598252E+01
 20
5.57655951E+01
 11
-2.22598322E+01
 21
5.17655951E+01
  0
LINE
  8
0
 62
4
 10
-1.77598344E+01
 20
5.05155872E+01
 11
-1.77598230E+01
 21
5.70155872E+01
  0
LINE
  8
0
 62
4
 10
-2.32598269E+01
 20
5.47655968E+01
 11
-2.22598252E+01
 21
5.57655951E+01
  0
LINE
  8
0
 62
7
 10
-6.25984353E+00
 20
4.52655671E+01
 11
1.97301565E+01
 21
4.52655218E+01
  0
LINE
  8
0
 62
7
 10
-6.25981386E+00
 20
6.22655671E+01
 11
1.97301861E+01
 21
6.22655218E+01
  0
ARC
  8
0
 62
2
 10
3.92343354E+01
 20
5.37654892E+01
 40
2.50000000E+00
 50
3.13321105E+01
 51
1.33398351E+02
  0
ARC
  8
0
 62
7
 10
3.92301713E+01
 20
5.37654877E+01
 40
2.06700000E+00
 50
3.89711842E+01
 51
1.24995720E+02
  0
LINE
  8
0
 62
7
 10
3.47301678E+01
 20
5.17654956E+01
 11
3.47301565E+01
 21
4.52654956E+01
  0
LINE
  8
0
 62
7
 10
2.87301565E+01
 20
4.52655060E+01
 11
3.47301565E+01
 21
4.52654956E+01
  0
LINE
  8
0
 62
7
 10
2.87301861E+01
 20
6.22655060E+01
 11
3.47301861E+01
 21
6.22654956E+01
  0
ARC
  8
0
 62
4
 10
-7.20398315E+01
 20
5.17656821E+01
 40
4.24999934E+00
 50
3.31927411E+02
 51
2.80723891E+01
  0
ARC
  8
0
 62
4
 10
-7.20398245E+01
 20
5.57656818E+01
 40
4.24999934E+00
 50
3.31927411E+02
 51
2.80723891E+01
  0
ARC
  8
0
 62
4
 10
-6.75398328E+01
 20
5.17656743E+01
 40
4.24999934E+00
 50
1.51927411E+02
 51
2.08072389E+02
  0
ARC
  8
0
 62
4
 10
-6.75398259E+01
 20
5.57656739E+01
 40
4.24999934E+00
 50
1.51927411E+02
 51
2.08072389E+02
  0
LINE
  8
0
 62
4
 10
-7.12898287E+01
 20
5.37656807E+01
 11
-6.82898287E+01
 21
5.37656754E+01
  0
LINE
  8
0
 62
4
 10
-7.17898357E+01
 20
4.97656819E+01
 11
-6.77898357E+01
 21
4.97656749E+01
  0
LINE
  8
0
 62
4
 10
-7.17898217E+01
 20
5.77656812E+01
 11
-6.77898217E+01
 21
5.77656742E+01
  0
LINE
  8
0
 62
4
 10
-7.17898217E+01
 20
5.77656812E+01
 11
-7.17898357E+01
 21
4.97656819E+01
  0
LINE
  8
0
 62
4
 10
-6.77898357E+01
 20
4.97656749E+01
 11
-6.77898217E+01
 21
5.77656742E+01
  0
LINE
  8
0
  6
CENTER
 62
2
 10
-4.92598249E+01
 20
5.59498849E+01
 11
-4.92598328E+01
 21
5.14061217E+01
  0
CIRCLE
  8
0
 62
7
 10
-4.92598287E+01
 20
5.37656422E+01
 40
7.50000000E-01
  0
LINE
  8
0
 62
7
 10
-6.07598357E+01
 20
4.97656623E+01
 11
-5.97598374E+01
 21
4.87656605E+01
  0
LINE
  8
0
 62
2
 10
-6.05718360E+01
 20
4.95776619E+01
 11
-5.42598360E+01
 21
4.95776509E+01
  0
LINE
  8
0
 62
7
 10
-5.97598374E+01
 20
4.87656605E+01
 11
-5.27598374E+01
 21
4.87656483E+01
  0
LINE
  8
0
 62
2
 10
-6.05718214E+01
 20
5.79536619E+01
 11
-5.42598214E+01
 21
5.79536509E+01
  0
LINE
  8
0
 62
7
 10
-5.97598200E+01
 20
5.87656605E+01
 11
-5.27598200E+01
 21
5.87656483E+01
  0
LINE
  8
0
 62
7
 10
-6.07598217E+01
 20
5.77656623E+01
 11
-5.97598200E+01
 21
5.87656605E+01
  0
LINE
  8
0
 62
7
 10
-5.42598200E+01
 20
5.87656509E+01
 11
-5.42598374E+01
 21
4.87656509E+01
  0
LINE
  8
0
 62
7
 10
-5.97598200E+01
 20
5.87656605E+01
 11
-5.97598374E+01
 21
4.87656605E+01
  0
LINE
  8
0
 62
7
 10
-5.27598435E+01
 20
4.52656483E+01
 11
-1.52598435E+01
 21
4.52655828E+01
  0
LINE
  8
0
 62
7
 10
-5.10098361E+01
 20
4.95156453E+01
 11
-4.80098361E+01
 21
4.95156400E+01
  0
LINE
  8
0
 62
7
 10
-7.52598243E+01
 20
5.62656876E+01
 11
-7.17898243E+01
 21
5.62656815E+01
  0
LINE
  8
0
 62
7
 10
-7.52598331E+01
 20
5.12656876E+01
 11
-7.17898331E+01
 21
5.12656815E+01
  0
LINE
  8
0
 62
7
 10
-7.57598252E+01
 20
5.57656885E+01
 11
-7.57598322E+01
 21
5.17656885E+01
  0
LINE
  8
0
 62
7
 10
-6.07598217E+01
 20
5.77656623E+01
 11
-6.07598357E+01
 21
4.97656623E+01
  0
LINE
  8
0
 62
7
 10
-7.57598252E+01
 20
5.57656885E+01
 11
-7.52598243E+01
 21
5.62656876E+01
  0
LINE
  8
0
 62
7
 10
-7.57598322E+01
 20
5.17656885E+01
 11
-7.52598331E+01
 21
5.12656876E+01
  0
LINE
  8
0
 62
7
 10
-7.52598243E+01
 20
5.62656876E+01
 11
-7.52598331E+01
 21
5.12656876E+01
  0
LINE
  8
0
 62
7
 10
-6.77898331E+01
 20
5.12656745E+01
 11
-6.07598331E+01
 21
5.12656623E+01
  0
LINE
  8
0
 62
7
 10
-5.10098361E+01
 20
4.95156453E+01
 11
-5.10098435E+01
 21
4.52656453E+01
  0
LINE
  8
0
 62
7
 10
-4.80098361E+01
 20
4.95156400E+01
 11
-4.80098435E+01
 21
4.52656400E+01
  0
LINE
  8
0
 62
7
 10
-6.77898243E+01
 20
5.62656745E+01
 11
-6.07598243E+01
 21
5.62656623E+01
  0
LINE
  8
0
 62
7
 10
-5.27598139E+01
 20
6.22656483E+01
 11
-1.52598139E+01
 21
6.22655828E+01
  0
LINE
  8
0
 62
7
 10
-5.10098213E+01
 20
5.80056453E+01
 11
-4.80098213E+01
 21
5.80056400E+01
  0
LINE
  8
0
 62
7
 10
-4.62598435E+01
 20
4.52656370E+01
 11
-4.62598139E+01
 21
6.22656370E+01
  0
LINE
  8
0
 62
7
 10
-5.27598435E+01
 20
4.52656483E+01
 11
-5.27598139E+01
 21
6.22656483E+01
  0
LINE
  8
0
 62
7
 10
-5.10098213E+01
 20
5.80056453E+01
 11
-5.10098139E+01
 21
6.22656453E+01
  0
LINE
  8
0
 62
7
 10
-4.80098213E+01
 20
5.80056400E+01
 11
-4.80098139E+01
 21
6.22656400E+01
  0
LINE
  8
0
  6
CENTER
 62
2
 10
-7.76368046E+01
 20
5.37656917E+01
 11
4.61954336E+01
 21
5.37654756E+01
  0
LINE
  8
0
 62
7
 10
6.17301861E+01
 20
6.22654484E+01
 11
6.17301771E+01
 21
5.70654484E+01
  0
LINE
  8
0
  6
CENTER
 62
2
 10
3.92301787E+01
 20
5.80054877E+01
 11
3.92301639E+01
 21
4.95154877E+01
  0
LINE
  8
0
 62
7
 10
3.47301565E+01
 20
4.52654956E+01
 11
6.17301565E+01
 21
4.52654484E+01
  0
LINE
  8
0
 62
7
 10
3.64801639E+01
 20
4.95154925E+01
 11
5.99801639E+01
 21
4.95154515E+01
  0
LINE
  8
0
 62
7
 10
3.64801787E+01
 20
5.80054925E+01
 11
5.99801787E+01
 21
5.80054515E+01
  0
LINE
  8
0
 62
7
 10
3.47301861E+01
 20
6.22654956E+01
 11
6.17301861E+01
 21
6.22654484E+01
  0
LINE
  8
0
 62
7
 10
5.99801861E+01
 20
6.22654515E+01
 11
5.99801787E+01
 21
5.80054515E+01
  0
LINE
  8
0
 62
7
 10
5.99801639E+01
 20
4.95154515E+01
 11
5.99801565E+01
 21
4.52654515E+01
  0
LINE
  8
0
 62
7
 10
4.37301771E+01
 20
5.70654799E+01
 11
4.37301655E+01
 21
5.04654799E+01
  0
LINE
  8
0
 62
7
 10
4.37301655E+01
 20
5.04654799E+01
 11
6.17301655E+01
 21
5.04654484E+01
  0
LINE
  8
0
 62
7
 10
4.37301771E+01
 20
5.70654799E+01
 11
6.17301771E+01
 21
5.70654484E+01
  0
LINE
  8
0
 62
7
 10
6.17301655E+01
 20
5.04654484E+01
 11
6.17301565E+01
 21
4.52654484E+01
  0
LINE
  8
0
 62
7
 10
3.47301861E+01
 20
6.22654956E+01
 11
3.47301748E+01
 21
5.57654956E+01
  0
LINE
  8
0
 62
7
 10
3.64801787E+01
 20
5.80054925E+01
 11
3.64801861E+01
 21
6.22654925E+01
  0
LINE
  8
0
 62
7
 10
3.64801639E+01
 20
4.95154925E+01
 11
3.64801565E+01
 21
4.52654925E+01
  0
ARC
  8
0
 62
7
 10
-4.67478873E+01
 20
5.37654379E+01
 40
6.01194142E+00
 50
1.35146415E+02
 51
2.24853384E+02
  0
ARC
  8
0
 62
7
 10
-5.22817445E+01
 20
5.37613308E+01
 40
6.02191737E+00
 50
3.15167249E+02
 51
4.48142182E+01
  0
ARC
  8
0
 62
7
 10
5.56870425E+01
 20
5.37289620E+01
 40
6.01536046E+00
 50
3.15536198E+02
 51
3.27143986E+02
  0
ARC
  8
0
 62
2
 10
3.92343354E+01
 20
5.37654892E+01
 40
2.50000000E+00
 50
2.26601530E+02
 51
3.28667608E+02
  0
ARC
  8
0
 62
7
 10
5.57088779E+01
 20
5.37748387E+01
 40
6.01182959E+00
 50
3.31858170E+01
 51
4.47257987E+01
  0
ARC
  8
0
 62
7
 10
4.07541829E+01
 20
5.37606663E+01
 40
6.02401354E+00
 50
1.99341809E+02
 51
2.24806002E+02
  0
ARC
  8
0
 62
7
 10
4.07506583E+01
 20
5.37617581E+01
 40
6.02048817E+00
 50
1.35179979E+02
 51
1.60559993E+02
  0
ARC
  8
0
 62
7
 10
3.92301713E+01
 20
5.37654877E+01
 40
2.06700000E+00
 50
2.35004080E+02
 51
3.21028616E+02
  0
LINE
  8
0
 62
2
 10
-7.56928323E+01
 20
5.16986883E+01
 11
-7.17898323E+01
 21
5.16986815E+01
  0
LINE
  8
0
 62
2
 10
-7.56928251E+01
 20
5.58326883E+01
 11
-7.17898251E+01
 21
5.58326815E+01
  0
LINE
  8
0
 62
2
 10
-6.77898251E+01
 20
5.58326745E+01
 11
-6.07598251E+01
 21
5.58326623E+01
  0
LINE
  8
0
 62
2
 10
-6.77898323E+01
 20
5.16986745E+01
 11
-6.07598323E+01
 21
5.16986623E+01
  0
LINE
  8
0
  6
CENTER
 62
6
 10
-9.66096129E+01
 20
-3.68823672E+01
 11
-6.91727383E+01
 21
-3.68823672E+01
  0
LINE
  8
0
 62
4
 10
-9.48511965E+01
 20
-2.72623672E+01
 11
-8.88511965E+01
 21
-2.72623672E+01
  0
LINE
  8
0
 62
4
 10
-9.48511965E+01
 20
-4.67801653E+01
 11
-8.88511965E+01
 21
-4.67801653E+01
  0
LINE
  8
0
 62
4
 10
-9.48511965E+01
 20
-4.67801653E+01
 11
-9.48511965E+01
 21
-2.72623671E+01
  0
LINE
  8
0
 62
4
 10
-8.88511965E+01
 20
-4.67801653E+01
 11
-8.88511965E+01
 21
-2.72623671E+01
  0
LINE
  8
0
 62
4
 10
-9.48511965E+01
 20
-2.75523672E+01
 11
-8.88511965E+01
 21
-2.75523672E+01
  0
LINE
  8
0
 62
4
 10
-9.48511965E+01
 20
-3.02280662E+01
 11
-8.88511965E+01
 21
-3.02280662E+01
  0
LINE
  8
0
 62
4
 10
-8.08511965E+01
 20
-3.28823672E+01
 11
-7.48511965E+01
 21
-3.28823672E+01
  0
LINE
  8
0
 62
4
 10
-8.08511965E+01
 20
-4.08823672E+01
 11
-7.48511965E+01
 21
-4.08823672E+01
  0
CIRCLE
  8
0
 62
4
 10
-7.58511965E+01
 20
-3.68823672E+01
 40
2.00000000E+00
  0
CIRCLE
  8
0
 62
4
 10
-7.58511965E+01
 20
-3.68823672E+01
 40
2.50000000E+00
  0
LINE
  8
0
  6
CENTER
 62
6
 10
-7.58511965E+01
 20
-3.28823672E+01
 11
-7.58511965E+01
 21
-4.08823672E+01
  0
LINE
  8
0
 62
4
 10
-8.08511965E+01
 20
-4.08823672E+01
 11
-8.08511965E+01
 21
-3.93823672E+01
  0
LINE
  8
0
 62
4
 10
-8.88511965E+01
 20
-3.43823672E+01
 11
-8.08511965E+01
 21
-3.43823672E+01
  0
LINE
  8
0
 62
4
 10
-8.88511965E+01
 20
-3.93823672E+01
 11
-8.08511965E+01
 21
-3.93823672E+01
  0
LINE
  8
0
 62
4
 10
-8.08511965E+01
 20
-3.43823672E+01
 11
-8.08511965E+01
 21
-3.28823672E+01
  0
ARC
  8
0
 62
4
 10
-7.48511965E+01
 20
-3.68823672E+01
 40
4.00000000E+00
 50
2.70000000E+02
 51
9.00000002E+01
  0
LINE
  8
0
  6
CENTER
 62
6
 10
-3.13511965E+01
 20
-2.72183115E+01
 11
-3.13511965E+01
 21
-4.91002741E+01
  0
ARC
  8
0
 62
4
 10
-3.13494361E+01
 20
-3.68889779E+01
 40
9.89118734E+00
 50
1.94600742E+02
 51
3.48373449E+02
  0
ARC
  8
0
 62
4
 10
-3.99852310E+01
 20
-3.02280662E+01
 40
1.00392057E+00
 50
3.22272848E+02
 51
4.46636107E+01
  0
ARC
  8
0
 62
4
 10
-3.99850519E+01
 20
-3.02310969E+01
 40
1.40190405E+00
 50
3.22610924E+02
 51
4.48518702E+01
  0
ARC
  8
0
 62
4
 10
-2.27173362E+01
 20
-3.02310972E+01
 40
1.40190777E+00
 50
1.35148263E+02
 51
2.17388943E+02
  0
ARC
  8
0
 62
4
 10
-2.27171570E+01
 20
-3.02280665E+01
 40
1.00392430E+00
 50
1.35336575E+02
 51
2.17726966E+02
  0
ARC
  8
0
 62
4
 10
-3.13422940E+01
 20
-3.68708562E+01
 40
9.89686572E+00
 50
1.42473295E+02
 51
1.65437133E+02
  0
ARC
  8
0
 62
4
 10
-3.13561152E+01
 20
-3.68782953E+01
 40
9.89824120E+00
 50
1.16331547E+01
 51
3.75749018E+01
  0
ARC
  8
0
 62
4
 10
-3.13478683E+01
 20
-3.68856954E+01
 40
9.49435721E+00
 50
1.95245994E+02
 51
3.33497907E+02
  0
ARC
  8
0
 62
4
 10
-3.13420951E+01
 20
-3.68651297E+01
 40
9.49929101E+00
 50
1.53606440E+02
 51
1.64849050E+02
  0
ARC
  8
0
 62
4
 10
-3.13428802E+01
 20
-3.68806991E+01
 40
9.50551964E+00
 50
1.41899873E+02
 51
1.53520272E+02
  0
ARC
  8
0
 62
4
 10
-3.13545248E+01
 20
-3.68856954E+01
 40
9.50328503E+00
 50
2.65200996E+01
 51
3.80087786E+01
  0
LINE
  8
0
 62
4
 10
-2.28511965E+01
 20
-4.08823672E+01
 11
-2.24511965E+01
 21
-4.08823672E+01
  0
LINE
  8
0
 62
4
 10
-4.13511965E+01
 20
-3.43823672E+01
 11
-4.13511965E+01
 21
-3.93823672E+01
  0
LINE
  8
0
 62
4
 10
-4.18511965E+01
 20
-3.88823672E+01
 11
-4.13511965E+01
 21
-3.93823672E+01
  0
LINE
  8
0
 62
4
 10
-4.13511965E+01
 20
-3.43823672E+01
 11
-4.18511965E+01
 21
-3.48823672E+01
  0
LINE
  8
0
 62
4
 10
-4.18511965E+01
 20
-3.88823672E+01
 11
-4.18511965E+01
 21
-3.48823672E+01
  0
LINE
  8
0
 62
4
 10
-4.09611965E+01
 20
-2.72623672E+01
 11
-4.12511965E+01
 21
-2.75523672E+01
  0
LINE
  8
0
 62
4
 10
-3.92711965E+01
 20
-2.95223672E+01
 11
-4.12511965E+01
 21
-2.75523672E+01
  0
LINE
  8
0
 62
4
 10
-3.89911965E+01
 20
-2.92423672E+01
 11
-4.09611965E+01
 21
-2.72623672E+01
  0
LINE
  8
0
 62
4
 10
-2.17411965E+01
 20
-2.72623672E+01
 11
-2.14511965E+01
 21
-2.75523672E+01
  0
LINE
  8
0
 62
4
 10
-2.37111965E+01
 20
-2.92423672E+01
 11
-2.17411965E+01
 21
-2.72723672E+01
  0
LINE
  8
0
 62
4
 10
-2.28511965E+01
 20
-3.28823672E+01
 11
-2.24511965E+01
 21
-3.28823672E+01
  0
LINE
  8
0
 62
4
 10
-2.34311965E+01
 20
-2.95223672E+01
 11
-2.14511965E+01
 21
-2.75523672E+01
  0
LINE
  8
0
 62
4
 10
-2.14511965E+01
 20
-3.88823672E+01
 11
-2.14511965E+01
 21
-3.48823672E+01
  0
LINE
  8
0
 62
4
 10
-2.24511965E+01
 20
-3.48823672E+01
 11
-2.14511965E+01
 21
-3.48823672E+01
  0
LINE
  8
0
 62
4
 10
-2.24511965E+01
 20
-3.88823672E+01
 11
-2.14511965E+01
 21
-3.88823672E+01
  0
LINE
  8
0
 62
4
 10
-2.24511965E+01
 20
-4.08823672E+01
 11
-2.24511965E+01
 21
-3.28823672E+01
  0
LINE
  8
0
 62
4
 10
-4.13511965E+01
 20
-3.93823672E+01
 11
-2.28511965E+01
 21
-3.93823672E+01
  0
LINE
  8
0
 62
4
 10
-4.13511965E+01
 20
-3.43823672E+01
 11
-2.28511965E+01
 21
-3.43823672E+01
  0
LINE
  8
0
 62
4
 10
-2.28511965E+01
 20
-3.26423672E+01
 11
-2.28511965E+01
 21
-4.11223672E+01
  0
LINE
  8
0
  6
CENTER
 62
6
 10
-4.40975864E+01
 20
-3.68823672E+01
 11
-1.95811965E+01
 21
-3.68823672E+01
  0
LINE
  8
0
  6
CENTER
 62
6
 10
8.13234426E+01
 20
-3.43460724E+01
 11
8.13234426E+01
 21
-8.12702324E+01
  0
LINE
  8
0
  6
CENTER
 62
6
 10
9.89234426E+01
 20
-7.32702324E+01
 11
9.89234426E+01
 21
-8.12702324E+01
  0
LINE
  8
0
  6
CENTER
 62
6
 10
6.37234426E+01
 20
-7.32702324E+01
 11
6.37234426E+01
 21
-8.12702324E+01
  0
ARC
  8
0
 62
4
 10
7.43234426E+01
 20
-7.12702324E+01
 40
3.00000000E+00
 50
9.00000002E+01
 51
1.80000000E+02
  0
ARC
  8
0
 62
4
 10
8.83234426E+01
 20
-7.12702324E+01
 40
3.00000000E+00
 50
0.00000000E+00
 51
9.00000002E+01
  0
ARC
  8
0
 62
4
 10
7.03234426E+01
 20
-7.52702324E+01
 40
3.00000000E+00
 50
2.70000000E+02
 51
0.00000000E+00
  0
ARC
  8
0
 62
4
 10
9.23234426E+01
 20
-7.52702324E+01
 40
3.00000000E+00
 50
1.80000000E+02
 51
2.70000000E+02
  0
ARC
  8
0
 62
4
 10
8.83234426E+01
 20
-7.12702324E+01
 40
1.00000000E+00
 50
0.00000000E+00
 51
9.00000002E+01
  0
ARC
  8
0
 62
4
 10
9.23234426E+01
 20
-7.52702324E+01
 40
1.00000000E+00
 50
1.80000000E+02
 51
2.70000000E+02
  0
ARC
  8
0
 62
4
 10
7.43234426E+01
 20
-7.12702324E+01
 40
1.00000000E+00
 50
9.00000002E+01
 51
1.80000000E+02
  0
ARC
  8
0
 62
4
 10
7.03234426E+01
 20
-7.52702324E+01
 40
1.00000000E+00
 50
2.70000000E+02
 51
0.00000000E+00
  0
LINE
  8
0
 62
4
 10
9.23234426E+01
 20
-7.62702324E+01
 11
1.05323443E+02
 21
-7.62702324E+01
  0
LINE
  8
0
 62
4
 10
9.23234426E+01
 20
-7.82702324E+01
 11
1.05323443E+02
 21
-7.82702324E+01
  0
LINE
  8
0
 62
4
 10
1.05323443E+02
 20
-7.62702324E+01
 11
1.05323443E+02
 21
-7.82702324E+01
  0
LINE
  8
0
 62
4
 10
5.73234426E+01
 20
-7.62702324E+01
 11
5.73234426E+01
 21
-7.82702324E+01
  0
LINE
  8
0
 62
4
 10
9.13234426E+01
 20
-7.12702324E+01
 11
9.13234426E+01
 21
-7.52702324E+01
  0
LINE
  8
0
 62
4
 10
8.93234426E+01
 20
-7.12702324E+01
 11
8.93234426E+01
 21
-7.52702324E+01
  0
LINE
  8
0
 62
4
 10
7.33234426E+01
 20
-7.12702324E+01
 11
7.33234426E+01
 21
-7.52702324E+01
  0
LINE
  8
0
 62
4
 10
7.13234426E+01
 20
-7.12702324E+01
 11
7.13234426E+01
 21
-7.52702324E+01
  0
LINE
  8
0
 62
4
 10
5.73234426E+01
 20
-7.62702324E+01
 11
7.03234426E+01
 21
-7.62702324E+01
  0
LINE
  8
0
 62
4
 10
5.73234426E+01
 20
-7.82702324E+01
 11
7.03234426E+01
 21
-7.82702324E+01
  0
LINE
  8
0
 62
4
 10
7.43234426E+01
 20
-7.02702324E+01
 11
8.83234426E+01
 21
-7.02702324E+01
  0
LINE
  8
0
 62
4
 10
7.81234426E+01
 20
-3.78802324E+01
 11
8.45234426E+01
 21
-3.78802324E+01
  0
LINE
  8
0
 62
4
 10
7.72234426E+01
 20
-7.12702324E+01
 11
8.54234426E+01
 21
-7.12702324E+01
  0
LINE
  8
0
 62
4
 10
8.54234426E+01
 20
-7.02702324E+01
 11
8.54234426E+01
 21
-7.62702324E+01
  0
LINE
  8
0
 62
4
 10
7.72234426E+01
 20
-7.02702324E+01
 11
7.72234426E+01
 21
-7.62702324E+01
  0
LINE
  8
0
 62
4
 10
7.72234426E+01
 20
-7.62702324E+01
 11
8.54234426E+01
 21
-7.62702324E+01
  0
LINE
  8
0
 62
4
 10
7.53234426E+01
 20
-5.72702324E+01
 11
7.53234426E+01
 21
-6.82702324E+01
  0
LINE
  8
0
 62
4
 10
7.81234426E+01
 20
-5.72702324E+01
 11
7.53234426E+01
 21
-5.72702324E+01
  0
LINE
  8
0
 62
4
 10
7.81234426E+01
 20
-3.62702324E+01
 11
7.81234426E+01
 21
-5.72702324E+01
  0
LINE
  8
0
 62
4
 10
7.43234426E+01
 20
-6.82702324E+01
 11
8.83234426E+01
 21
-6.82702324E+01
  0
LINE
  8
0
 62
4
 10
8.45234426E+01
 20
-3.62702324E+01
 11
8.45234426E+01
 21
-5.72702324E+01
  0
LINE
  8
0
 62
4
 10
8.73234426E+01
 20
-5.72702324E+01
 11
8.73234426E+01
 21
-6.82702324E+01
  0
LINE
  8
0
 62
4
 10
7.81234426E+01
 20
-3.62702324E+01
 11
8.45234426E+01
 21
-3.62702324E+01
  0
LINE
  8
0
  6
CENTER
 62
6
 10
7.67734426E+01
 20
-4.32702324E+01
 11
8.58734426E+01
 21
-4.32702324E+01
  0
LINE
  8
0
 62
4
 10
8.45234426E+01
 20
-5.72702324E+01
 11
8.73234426E+01
 21
-5.72702324E+01
  0
LINE
  8
0
  6
CENTER
 62
6
 10
2.83234426E+01
 20
-3.43460724E+01
 11
2.83234426E+01
 21
-8.12702324E+01
  0
LINE
  8
0
 62
4
 10
4.23234426E+01
 20
-6.82702324E+01
 11
4.23234426E+01
 21
-7.82702324E+01
  0
LINE
  8
0
 62
4
 10
1.43234426E+01
 20
-6.82702324E+01
 11
1.43234426E+01
 21
-7.82702324E+01
  0
LINE
  8
0
  6
CENTER
 62
6
 10
1.93234426E+01
 20
-4.32702324E+01
 11
3.73234426E+01
 21
-4.32702324E+01
  0
ARC
  8
0
 62
4
 10
2.83234426E+01
 20
-4.82702343E+01
 40
1.19980057E+01
 50
5.99945013E+01
 51
1.20005499E+02
  0
CIRCLE
  8
0
 62
4
 10
2.83234426E+01
 20
-4.32702324E+01
 40
2.54999924E+00
  0
LINE
  8
0
 62
4
 10
2.23234426E+01
 20
-3.78802324E+01
 11
2.23234426E+01
 21
-6.82702324E+01
  0
LINE
  8
0
 62
4
 10
3.43234426E+01
 20
-3.78802324E+01
 11
3.43234426E+01
 21
-6.82702324E+01
  0
LINE
  8
0
 62
4
 10
2.23234426E+01
 20
-5.72702324E+01
 11
3.43234426E+01
 21
-5.72702324E+01
  0
LINE
  8
0
 62
4
 10
1.43234426E+01
 20
-6.82702324E+01
 11
4.23234426E+01
 21
-6.82702324E+01
  0
LINE
  8
0
 62
4
 10
3.89234426E+01
 20
-7.62702324E+01
 11
3.89234426E+01
 21
-7.82702324E+01
  0
LINE
  8
0
 62
4
 10
1.77234426E+01
 20
-7.62702324E+01
 11
1.77234426E+01
 21
-7.82702324E+01
  0
LINE
  8
0
 62
4
 10
2.29234426E+01
 20
-7.62702324E+01
 11
2.29234426E+01
 21
-7.82702324E+01
  0
LINE
  8
0
 62
4
 10
3.37234426E+01
 20
-7.62702324E+01
 11
3.37234426E+01
 21
-7.82702324E+01
  0
LINE
  8
0
  6
CENTER
 62
6
 10
2.03234426E+01
 20
-7.32702324E+01
 11
2.03234426E+01
 21
-8.12702324E+01
  0
LINE
  8
0
  6
CENTER
 62
6
 10
3.63234426E+01
 20
-7.32702324E+01
 11
3.63234426E+01
 21
-8.12702324E+01
  0
LINE
  8
0
 62
4
 10
1.43234426E+01
 20
-7.62702324E+01
 11
4.23234426E+01
 21
-7.62702324E+01
  0
LINE
  8
0
 62
4
 10
1.43234426E+01
 20
-7.82702324E+01
 11
4.23234426E+01
 21
-7.82702324E+01
  0
LINE
  8
0
  6
CENTER
 62
6
 10
8.13234426E+01
 20
-1.35295128E+00
 11
8.13234426E+01
 21
-3.30187629E+01
  0
ARC
  8
0
 62
4
 10
9.89234426E+01
 20
-2.52702381E+01
 40
2.60000000E+00
 50
9.00000002E+01
 51
2.70000000E+02
  0
ARC
  8
0
 62
4
 10
6.37234426E+01
 20
-9.27023810E+00
 40
2.60000000E+00
 50
2.70000000E+02
 51
9.00000002E+01
  0
ARC
  8
0
 62
4
 10
9.89234426E+01
 20
-9.27023810E+00
 40
2.60000000E+00
 50
9.00000002E+01
 51
2.70000000E+02
  0
ARC
  8
0
 62
4
 10
6.37234426E+01
 20
-2.52702381E+01
 40
2.60000000E+00
 50
2.70000000E+02
 51
9.00000002E+01
  0
LINE
  8
0
 62
4
 10
1.05323443E+02
 20
-1.18702381E+01
 11
1.05323443E+02
 21
-2.26702381E+01
  0
LINE
  8
0
 62
4
 10
1.05323443E+02
 20
-2.78702381E+01
 11
1.05323443E+02
 21
-3.12702381E+01
  0
LINE
  8
0
 62
4
 10
5.73234426E+01
 20
-2.78702381E+01
 11
5.73234426E+01
 21
-3.12702381E+01
  0
LINE
  8
0
 62
4
 10
5.73234426E+01
 20
-1.18702381E+01
 11
5.73234426E+01
 21
-2.26702381E+01
  0
LINE
  8
0
 62
4
 10
5.73234426E+01
 20
-3.27023810E+00
 11
5.73234426E+01
 21
-6.67023810E+00
  0
LINE
  8
0
  6
CENTER
 62
6
 10
6.37234426E+01
 20
-1.48702381E+01
 11
6.37234426E+01
 21
-3.67023810E+00
  0
LINE
  8
0
 62
4
 10
5.73234426E+01
 20
-6.67023810E+00
 11
6.37234426E+01
 21
-6.67023810E+00
  0
LINE
  8
0
  6
CENTER
 62
6
 10
5.70722258E+01
 20
-9.27023810E+00
 11
6.93234426E+01
 21
-9.27023810E+00
  0
LINE
  8
0
 62
4
 10
5.73234426E+01
 20
-1.18702381E+01
 11
6.37234426E+01
 21
-1.18702381E+01
  0
LINE
  8
0
  6
CENTER
 62
6
 10
6.37234426E+01
 20
-1.96702381E+01
 11
6.37234426E+01
 21
-3.08702381E+01
  0
LINE
  8
0
 62
4
 10
5.73234426E+01
 20
-2.78702381E+01
 11
6.37234426E+01
 21
-2.78702381E+01
  0
LINE
  8
0
  6
CENTER
 62
6
 10
5.70722258E+01
 20
-2.52702381E+01
 11
6.93234426E+01
 21
-2.52702381E+01
  0
LINE
  8
0
 62
4
 10
5.73234426E+01
 20
-2.26702381E+01
 11
6.37234426E+01
 21
-2.26702381E+01
  0
LINE
  8
0
  6
CENTER
 62
6
 10
9.89234426E+01
 20
-1.48702381E+01
 11
9.89234426E+01
 21
-3.67023810E+00
  0
LINE
  8
0
 62
4
 10
1.05323443E+02
 20
-6.67023810E+00
 11
9.89234426E+01
 21
-6.67023810E+00
  0
LINE
  8
0
  6
CENTER
 62
6
 10
1.05850291E+02
 20
-9.27023810E+00
 11
9.33234426E+01
 21
-9.27023810E+00
  0
LINE
  8
0
 62
4
 10
1.05323443E+02
 20
-1.18702381E+01
 11
9.89234426E+01
 21
-1.18702381E+01
  0
LINE
  8
0
 62
4
 10
1.05323443E+02
 20
-3.27023810E+00
 11
1.05323443E+02
 21
-6.67023810E+00
  0
LINE
  8
0
 62
4
 10
1.05323443E+02
 20
-2.78702381E+01
 11
9.89234426E+01
 21
-2.78702381E+01
  0
LINE
  8
0
 62
4
 10
1.05323443E+02
 20
-2.26702381E+01
 11
9.89234426E+01
 21
-2.26702381E+01
  0
LINE
  8
0
  6
CENTER
 62
6
 10
9.89234426E+01
 20
-1.96702381E+01
 11
9.89234426E+01
 21
-3.08702381E+01
  0
LINE
  8
0
  6
CENTER
 62
6
 10
1.05850291E+02
 20
-2.52702381E+01
 11
9.33234426E+01
 21
-2.52702381E+01
  0
LINE
  8
0
 62
4
 10
7.81234426E+01
 20
-1.12702381E+01
 11
7.81234426E+01
 21
-2.32702381E+01
  0
LINE
  8
0
 62
4
 10
8.45234426E+01
 20
-1.12702381E+01
 11
8.45234426E+01
 21
-2.32702381E+01
  0
LINE
  8
0
 62
4
 10
1.05323443E+02
 20
-3.27023810E+00
 11
5.73234426E+01
 21
-3.27023810E+00
  0
LINE
  8
0
 62
4
 10
8.73234426E+01
 20
-1.12702381E+01
 11
7.53234426E+01
 21
-1.12702381E+01
  0
LINE
  8
0
 62
4
 10
1.05323443E+02
 20
-3.12702381E+01
 11
5.73234426E+01
 21
-3.12702381E+01
  0
LINE
  8
0
 62
4
 10
8.73234426E+01
 20
-2.32702381E+01
 11
7.53234426E+01
 21
-2.32702381E+01
  0
LINE
  8
0
 62
4
 10
9.13234426E+01
 20
-3.27023810E+00
 11
9.13234426E+01
 21
-3.12702381E+01
  0
LINE
  8
0
 62
4
 10
8.73234426E+01
 20
-1.12702381E+01
 11
8.73234426E+01
 21
-2.32702381E+01
  0
LINE
  8
0
 62
4
 10
7.53234426E+01
 20
-1.12702381E+01
 11
7.53234426E+01
 21
-2.32702381E+01
  0
LINE
  8
0
 62
4
 10
7.13234426E+01
 20
-3.27023810E+00
 11
7.13234426E+01
 21
-3.12702381E+01
  0
LINE
  8
0
  6
CENTER
 62
6
 10
1.08323443E+02
 20
-1.72702381E+01
 11
5.43234426E+01
 21
-1.72702381E+01
  0
TEXT
  8
0
 62
7
 10
-3.24373383E+00
 20
-7.60119966E+01
 40
3.20000005E+00
  1
(mm)
 41
1.00000000E+00
  7
MONOTXT
  0
TEXT
  8
0
 62
7
 10
1.50006081E-01
 20
-8.24000031E+01
 40
3.20000005E+00
  1
60
 41
1.00000000E+00
  7
MONOTXT
  0
TEXT
  8
0
 62
7
 10
-9.44999392E+00
 20
-8.24000031E+01
 40
3.20000005E+00
  1
55
 41
1.00000000E+00
  7
MONOTXT
  0
TEXT
  8
0
 62
7
 10
-1.90499939E+01
 20
-8.24000031E+01
 40
3.20000005E+00
  1
50
 41
1.00000000E+00
  7
MONOTXT
  0
TEXT
  8
0
 62
7
 10
-2.86499939E+01
 20
-8.24000031E+01
 40
3.20000005E+00
  1
45
 41
1.00000000E+00
  7
MONOTXT
  0
TEXT
  8
0
 62
7
 10
-3.82499939E+01
 20
-8.24000031E+01
 40
3.20000005E+00
  1
40
 41
1.00000000E+00
  7
MONOTXT
  0
TEXT
  8
0
 62
7
 10
-4.78499939E+01
 20
-8.24000031E+01
 40
3.20000005E+00
  1
35
 41
1.00000000E+00
  7
MONOTXT
  0
TEXT
  8
0
 62
7
 10
-5.74499939E+01
 20
-8.24000031E+01
 40
3.20000005E+00
  1
30
 41
1.00000000E+00
  7
MONOTXT
  0
TEXT
  8
0
 62
7
 10
-6.70499939E+01
 20
-8.24000031E+01
 40
3.20000005E+00
  1
25
 41
1.00000000E+00
  7
MONOTXT
  0
TEXT
  8
0
 62
7
 10
-7.66499939E+01
 20
-8.24000031E+01
 40
3.20000005E+00
  1
20
 41
1.00000000E+00
  7
MONOTXT
  0
TEXT
  8
0
 62
7
 10
-8.62499939E+01
 20
-8.24000031E+01
 40
3.20000005E+00
  1
15
 41
1.00000000E+00
  7
MONOTXT
  0
TEXT
  8
0
 62
7
 10
-9.58499939E+01
 20
-8.24000031E+01
 40
3.20000005E+00
  1
10
 41
1.00000000E+00
  7
MONOTXT
  0
TEXT
  8
0
 62
7
 10
-1.03849994E+02
 20
-8.24000031E+01
 40
3.20000005E+00
  1
5
 41
1.00000000E+00
  7
MONOTXT
  0
TEXT
  8
0
 62
7
 10
-1.31249994E+02
 20
-8.84000031E+01
 40
3.20000005E+00
  1
STRETCH
 41
1.00000000E+00
  7
MONOTXT
  0
TEXT
  8
0
 62
7
 10
-1.29649994E+02
 20
-8.24000031E+01
 40
3.20000005E+00
  1
STROKE
 41
1.00000000E+00
  7
MONOTXT
  0
TEXT
  8
0
 10
-1.02138756E+01
 20
6.92601794E+01
 40
3.20000005E+00
  1
STRETCH LINE
 41
1.05263158E+00
  7
MONOTXT
  0
TEXT
  8
0
 62
7
 10
-8.12810173E+01
 20
-7.58649018E+01
 40
3.20000005E+00
  1
STRETCH LIST
 41
1.05263158E+00
  7
MONOTXT
  0
LINE
  8
0
 62
7
 10
7.80000610E+00
 20
-8.98000031E+01
 11
7.80000610E+00
 21
-7.78000031E+01
  0
TEXT
  8
0
 62
7
 10
1.50006081E-01
 20
-8.84000031E+01
 40
3.20000005E+00
  1
25
 41
1.00000000E+00
  7
MONOTXT
  0
LINE
  8
0
 62
7
 10
-1.79999390E+00
 20
-8.98000031E+01
 11
-1.79999390E+00
 21
-7.78000031E+01
  0
TEXT
  8
0
 62
7
 10
-9.44999392E+00
 20
-8.84000031E+01
 40
3.20000005E+00
  1
20
 41
1.00000000E+00
  7
MONOTXT
  0
LINE
  8
0
 62
7
 10
-1.13999939E+01
 20
-8.98000031E+01
 11
-1.13999939E+01
 21
-7.78000031E+01
  0
TEXT
  8
0
 62
7
 10
-1.90499939E+01
 20
-8.84000031E+01
 40
3.20000005E+00
  1
15
 41
1.00000000E+00
  7
MONOTXT
  0
LINE
  8
0
 62
7
 10
-2.09999939E+01
 20
-8.98000031E+01
 11
-2.09999939E+01
 21
-7.78000031E+01
  0
TEXT
  8
0
 62
7
 10
-2.86499939E+01
 20
-8.84000031E+01
 40
3.20000005E+00
  1
10
 41
1.00000000E+00
  7
MONOTXT
  0
LINE
  8
0
 62
7
 10
-3.05999939E+01
 20
-8.98000031E+01
 11
-3.05999939E+01
 21
-7.78000031E+01
  0
TEXT
  8
0
 62
7
 10
-3.66499939E+01
 20
-8.84000031E+01
 40
3.20000005E+00
  1
5
 41
1.00000000E+00
  7
MONOTXT
  0
LINE
  8
0
 62
7
 10
-4.01999939E+01
 20
-8.98000031E+01
 11
-4.01999939E+01
 21
-7.78000031E+01
  0
TEXT
  8
0
 62
7
 10
-4.62499939E+01
 20
-8.84000031E+01
 40
3.20000005E+00
  1
0
 41
1.00000000E+00
  7
MONOTXT
  0
LINE
  8
0
 62
7
 10
-4.97999939E+01
 20
-8.98000031E+01
 11
-4.97999939E+01
 21
-7.78000031E+01
  0
TEXT
  8
0
 62
7
 10
-5.90499940E+01
 20
-8.84000031E+01
 40
3.20000005E+00
  1
-15
 41
1.00000000E+00
  7
MONOTXT
  0
LINE
  8
0
 62
7
 10
-5.93999939E+01
 20
-8.98000031E+01
 11
-5.93999939E+01
 21
-7.78000031E+01
  0
TEXT
  8
0
 62
7
 10
-6.86499940E+01
 20
-8.84000031E+01
 40
3.20000005E+00
  1
-20
 41
1.00000000E+00
  7
MONOTXT
  0
LINE
  8
0
 62
7
 10
-6.89999939E+01
 20
-8.98000031E+01
 11
-6.89999939E+01
 21
-7.78000031E+01
  0
TEXT
  8
0
 62
7
 10
-7.82499940E+01
 20
-8.84000031E+01
 40
3.20000005E+00
  1
-25
 41
1.00000000E+00
  7
MONOTXT
  0
LINE
  8
0
 62
7
 10
-7.85999939E+01
 20
-8.98000031E+01
 11
-7.85999939E+01
 21
-7.78000031E+01
  0
TEXT
  8
0
 62
7
 10
-8.78499940E+01
 20
-8.84000031E+01
 40
3.20000005E+00
  1
-35
 41
1.00000000E+00
  7
MONOTXT
  0
LINE
  8
0
 62
7
 10
-8.81999939E+01
 20
-8.98000031E+01
 11
-8.81999939E+01
 21
-7.78000031E+01
  0
TEXT
  8
0
 62
7
 10
-9.74499940E+01
 20
-8.84000031E+01
 40
3.20000005E+00
  1
-40
 41
1.00000000E+00
  7
MONOTXT
  0
TEXT
  8
0
 62
7
 10
-1.07049994E+02
 20
-8.84000031E+01
 40
3.20000005E+00
  1
-45
 41
1.00000000E+00
  7
MONOTXT
  0
LINE
  8
0
 62
7
 10
-1.33399994E+02
 20
-7.78000031E+01
 11
7.80000610E+00
 21
-7.78000031E+01
  0
LINE
  8
0
 62
7
 10
-9.77999939E+01
 20
-8.98000031E+01
 11
-9.77999939E+01
 21
-7.78000031E+01
  0
LINE
  8
0
 62
7
 10
-1.07399994E+02
 20
-8.98000031E+01
 11
-1.07399994E+02
 21
-7.78000031E+01
  0
LINE
  8
0
 62
7
 10
-1.33399994E+02
 20
-8.38000031E+01
 11
7.80000610E+00
 21
-8.38000031E+01
  0
LINE
  8
0
 62
7
 10
-1.33399994E+02
 20
-8.98000031E+01
 11
-1.33399994E+02
 21
-7.78000031E+01
  0
LINE
  8
0
 62
7
 10
-1.33399994E+02
 20
-8.98000031E+01
 11
7.80000610E+00
 21
-8.98000031E+01
  0
LINE
  8
0
 62
7
 10
-1.38399994E+02
 20
9.45000000E+01
 11
1.38350006E+02
 21
9.45000000E+01
  0
LINE
  8
0
 62
7
 10
1.38350006E+02
 20
9.45000000E+01
 11
1.38350006E+02
 21
-9.48000031E+01
  0
LINE
  8
0
 62
7
 10
-1.38399994E+02
 20
-9.48000031E+01
 11
1.38350006E+02
 21
-9.48000031E+01
  0
LINE
  8
0
 62
7
 10
-1.38399994E+02
 20
9.45000000E+01
 11
-1.38399994E+02
 21
-9.48000031E+01
  0
LINE
  8
0
 62
7
 10
7.33500061E+01
 20
-8.48000031E+01
 11
1.38350006E+02
 21
-8.48000031E+01
  0
LINE
  8
0
 62
7
 10
-1.38399994E+02
 20
8.45000000E+01
 11
-7.33999939E+01
 21
8.45000000E+01
  0
LINE
  8
0
 62
7
 10
7.33500061E+01
 20
8.45000000E+01
 11
1.38350006E+02
 21
8.45000000E+01
  0
LINE
  8
0
 62
7
 10
7.33500061E+01
 20
-8.48000031E+01
 11
7.33500061E+01
 21
-9.48000031E+01
  0
LINE
  8
0
 62
7
 10
7.33500061E+01
 20
9.45000000E+01
 11
7.33500061E+01
 21
8.45000000E+01
  0
LINE
  8
0
 62
7
 10
-7.33999939E+01
 20
9.45000000E+01
 11
-7.33999939E+01
 21
8.45000000E+01
  0
TEXT
  8
0
 62
7
 10
7.72426624E+01
 20
-9.20500031E+01
 40
4.50000000E+00
  1
KOGANEI CORP.
 41
1.04838710E+00
  7
MONOTXT
  0
TEXT
  8
0
 62
7
 10
9.35071483E+01
 20
8.79000000E+01
 40
3.20000005E+00
  1
Ver. 1.0
 41
1.08108108E+00
  7
MONOTXT
  0
TEXT
  8
0
 62
7
 10
-1.31042852E+02
 20
8.79000000E+01
 40
3.20000005E+00
  1
NEW PEN CYLINDER
 41
1.08108108E+00
  7
MONOTXT
  0
TEXT
  8
0
 62
7
 10
-1.29085994E+02
 20
7.29000000E+01
 40
3.20000005E+00
  1
MODEL:PBSAS16*ST(35)-7-ZC230
 41
1.00000000E+00
  7
MONOTXT
  0
ENDSEC
  0
EOF
