  0
SECTION
  2
HEADER
  9
$ACADVER
  1
AC1003
  9
$EXTMIN
 10
-1.38399994E+02
 20
-9.48000031E+01
  9
$EXTMAX
 10
1.38350006E+02
 20
9.45000000E+01
  9
$LIMMIN
 10
-1.38400994E+02
 20
-9.48010031E+01
  9
$LIMMAX
 10
1.38351006E+02
 20
9.45010000E+01
  9
$SNAPUNIT
 10
1
 20
1
  9
$SNAPBASE
 10
0
 20
0
  9
$GRIDMODE
 70
0
  9
$GRIDUNIT
 10
0
 20
0
  9
$LTSCALE
 40
4.61250000E+00
  9
$TEXTSIZE
 40
3.2
  9
$DIMTAD
 70
0
  9
$LUNITS
 70
2
  9
$LUPREC
 70
4
  9
$FILLETRAD
 40
0
  9
$AUNITS
 70
0
  9
$AUPREC
 70
0
  0
ENDSEC
  0
SECTION
  2
TABLES
  0
TABLE
  2
LTYPE
 70
2
  0
LTYPE
  2
CONTINUOUS
 70
64
  3
Solid-Line
 72
65
 73
0
 40
0
  0
LTYPE
  2
DASHED
 70
64
  3
DASHED
 72
65
 73
2
 40
.75
 49
.5
 49
-.25
  0
LTYPE
  2
HIDDEN
 70
64
  3
HIDDEN
 72
65
 73
2
 40
.375
 49
.25
 49
-.125
  0
LTYPE
  2
CENTER
 70
64
  3
CENTER
 72
65
 73
4
 40
2
 49
1.25
 49
-.25
 49
.25
 49
-.25
  0
LTYPE
  2
PHANTOM
 70
64
  3
PHANTOM
 72
65
 73
6
 40
2.5
 49
1.25
 49
-.25
 49
.25
 49
-.25
 49
.25
 49
-.25
  0
ENDTAB
  0
TABLE
  2
LAYER
 70
1
  0
LAYER
  2
1
 70
0
 62
7
  6
CONTINUOUS
 0
ENDTAB
  0
TABLE
  2
STYLE
 70
2
  0
STYLE
  2
MONOTXT
 70
0
 40
0
 41
1
 50
0
 71
0
 42
.2
  3
monotxt
  0
STYLE
  2
BIGFONT
 70
0
 40
0
 41
1
 50
0
 71
0
 42
.2
  3
txt
  4
bigfont
  0
ENDTAB
  0
ENDSEC
  0
SECTION
  2
ENTITIES
  0
LINE
  8
0
  6
CENTER
 62
6
 10
5.89453730E+00
 20
4.94950315E+01
 11
5.89453730E+00
 21
1.64503724E+01
  0
LINE
  8
0
 62
4
 10
-1.10546270E+00
 20
4.04850315E+01
 11
-1.10546270E+00
 21
3.76850315E+01
  0
LINE
  8
0
 62
4
 10
1.28945373E+01
 20
4.04850315E+01
 11
1.28945373E+01
 21
3.76850315E+01
  0
LINE
  8
0
 62
4
 10
1.39453730E+00
 20
3.73850315E+01
 11
1.39453730E+00
 21
4.41850315E+01
  0
LINE
  8
0
 62
4
 10
1.03945373E+01
 20
3.73850315E+01
 11
1.03945373E+01
 21
4.41850315E+01
  0
LINE
  8
0
  6
PHANTOM
 10
2.72689071E+01
 20
9.14653689E+00
 11
2.72689071E+01
 21
4.94950315E+01
  0
LINE
  8
0
  6
CENTER
 62
6
 10
4.08845373E+01
 20
4.94950315E+01
 11
4.08845373E+01
 21
1.64503724E+01
  0
LINE
  8
0
 62
4
 10
3.38845373E+01
 20
4.04850315E+01
 11
3.38845373E+01
 21
3.76850315E+01
  0
LINE
  8
0
 62
4
 10
4.78845373E+01
 20
4.04850315E+01
 11
4.78845373E+01
 21
3.76850315E+01
  0
LINE
  8
0
 62
4
 10
3.63845373E+01
 20
3.73850315E+01
 11
3.63845373E+01
 21
4.41850315E+01
  0
LINE
  8
0
 62
4
 10
4.53845373E+01
 20
3.73850315E+01
 11
4.53845373E+01
 21
4.41850315E+01
  0
TEXT
  8
0
 62
7
 10
1.33085998E+01
 20
1.87850468E+01
 40
1.50000000E+00
  1
PBSAS16
 41
1.00000000E+00
  7
MONOTXT
  0
ARC
  8
0
 62
7
 10
-3.00934367E+01
 20
2.61800315E+01
 40
6.01538783E+00
 50
1.81915637E+02
 51
2.24885328E+02
  0
LINE
  8
0
 62
7
 10
1.03945373E+01
 20
1.76850315E+01
 11
3.63845373E+01
 21
1.76850315E+01
  0
LINE
  8
0
 62
7
 10
4.53845373E+01
 20
1.76850315E+01
 11
5.13845373E+01
 21
1.76850315E+01
  0
LINE
  8
0
 62
7
 10
1.28945373E+01
 20
3.46850315E+01
 11
3.38845373E+01
 21
3.46850315E+01
  0
LINE
  8
0
 62
7
 10
4.78845373E+01
 20
3.46850315E+01
 11
5.13845373E+01
 21
3.46850315E+01
  0
LINE
  8
0
 62
4
 10
4.78845373E+01
 20
3.94850315E+01
 11
5.33845373E+01
 21
3.94850315E+01
  0
LINE
  8
0
 62
4
 10
4.78845373E+01
 20
3.54850315E+01
 11
5.33845373E+01
 21
3.54850315E+01
  0
LINE
  8
0
 62
4
 10
3.38845373E+01
 20
3.72850315E+01
 11
3.38845373E+01
 21
3.42169136E+01
  0
LINE
  8
0
 62
4
 10
4.78845373E+01
 20
3.72850315E+01
 11
4.78845373E+01
 21
3.42169136E+01
  0
LINE
  8
0
 62
4
 10
3.63845373E+01
 20
3.76850315E+01
 11
4.53845373E+01
 21
3.76850315E+01
  0
LINE
  8
0
 62
4
 10
3.38845373E+01
 20
3.42169136E+01
 11
3.63845373E+01
 21
3.42169136E+01
  0
LINE
  8
0
 62
4
 10
4.78845373E+01
 20
3.42169136E+01
 11
4.53845373E+01
 21
3.42169136E+01
  0
LINE
  8
0
 62
4
 10
4.53845373E+01
 20
3.72850315E+01
 11
4.78845373E+01
 21
3.72850315E+01
  0
LINE
  8
0
 62
4
 10
4.53845373E+01
 20
3.76850315E+01
 11
4.78845373E+01
 21
3.76850315E+01
  0
LINE
  8
0
 62
4
 10
3.38845373E+01
 20
3.72850315E+01
 11
3.63845373E+01
 21
3.72850315E+01
  0
LINE
  8
0
 62
4
 10
3.38845373E+01
 20
3.76850315E+01
 11
3.63845373E+01
 21
3.76850315E+01
  0
LINE
  8
0
 62
4
 10
3.63845373E+01
 20
1.75350468E+01
 11
4.53845373E+01
 21
1.75350468E+01
  0
LINE
  8
0
 62
4
 10
2.83845373E+01
 20
3.84850315E+01
 11
2.93845373E+01
 21
3.94850315E+01
  0
LINE
  8
0
 62
4
 10
2.83845373E+01
 20
3.84850315E+01
 11
2.83845373E+01
 21
3.64850315E+01
  0
LINE
  8
0
 62
4
 10
2.93845373E+01
 20
3.54850315E+01
 11
3.38845373E+01
 21
3.54850315E+01
  0
LINE
  8
0
 62
4
 10
2.93845373E+01
 20
3.94850315E+01
 11
3.38845373E+01
 21
3.94850315E+01
  0
LINE
  8
0
 62
4
 10
2.83845373E+01
 20
3.64850315E+01
 11
2.93845373E+01
 21
3.54850315E+01
  0
LINE
  8
0
 62
4
 10
2.93845373E+01
 20
3.94850315E+01
 11
2.93845373E+01
 21
3.54850315E+01
  0
LINE
  8
0
 62
4
 10
4.53845373E+01
 20
3.73850315E+01
 11
4.53845373E+01
 21
1.75350468E+01
  0
LINE
  8
0
 62
4
 10
3.63845373E+01
 20
3.73850315E+01
 11
3.63845373E+01
 21
1.75350468E+01
  0
LINE
  8
0
 62
4
 10
5.33845373E+01
 20
3.94850315E+01
 11
5.63845373E+01
 21
3.87850315E+01
  0
LINE
  8
0
 62
4
 10
5.33845373E+01
 20
3.54850315E+01
 11
5.63845373E+01
 21
3.61850315E+01
  0
LINE
  8
0
 62
4
 10
5.33845373E+01
 20
3.94850315E+01
 11
5.33845373E+01
 21
3.54850315E+01
  0
LINE
  8
0
 62
6
 10
6.13215364E+01
 20
3.87850315E+01
 11
5.87215364E+01
 21
3.61850315E+01
  0
LINE
  8
0
 62
4
 10
5.63845373E+01
 20
3.61850315E+01
 11
5.87215364E+01
 21
3.61850315E+01
  0
LINE
  8
0
 62
4
 10
5.63845373E+01
 20
3.87850315E+01
 11
5.63845373E+01
 21
3.61850315E+01
  0
LINE
  8
0
 62
4
 10
5.63845373E+01
 20
3.87850315E+01
 11
6.13215364E+01
 21
3.87850315E+01
  0
LINE
  8
0
 62
4
 10
1.28945373E+01
 20
3.94850315E+01
 11
1.83945373E+01
 21
3.94850315E+01
  0
LINE
  8
0
 62
4
 10
1.28945373E+01
 20
3.54850315E+01
 11
1.83945373E+01
 21
3.54850315E+01
  0
LINE
  8
0
 62
4
 10
-1.10546270E+00
 20
3.72850315E+01
 11
-1.10546270E+00
 21
3.42169136E+01
  0
LINE
  8
0
 62
4
 10
1.28945373E+01
 20
3.72850315E+01
 11
1.28945373E+01
 21
3.42169136E+01
  0
LINE
  8
0
 62
4
 10
1.39453730E+00
 20
3.76850315E+01
 11
1.03945373E+01
 21
3.76850315E+01
  0
LINE
  8
0
 62
4
 10
-1.10546268E+00
 20
3.42169136E+01
 11
1.39453732E+00
 21
3.42169136E+01
  0
LINE
  8
0
 62
4
 10
1.28945373E+01
 20
3.42169136E+01
 11
1.03945373E+01
 21
3.42169136E+01
  0
LINE
  8
0
 62
4
 10
1.03945373E+01
 20
3.72850315E+01
 11
1.28945373E+01
 21
3.72850315E+01
  0
LINE
  8
0
 62
4
 10
1.03945373E+01
 20
3.76850315E+01
 11
1.28945373E+01
 21
3.76850315E+01
  0
LINE
  8
0
 62
4
 10
-1.10546271E+00
 20
3.72850315E+01
 11
1.39453730E+00
 21
3.72850315E+01
  0
LINE
  8
0
 62
4
 10
-1.10546271E+00
 20
3.76850315E+01
 11
1.39453730E+00
 21
3.76850315E+01
  0
LINE
  8
0
 62
4
 10
1.39453729E+00
 20
1.75350468E+01
 11
1.03945373E+01
 21
1.75350468E+01
  0
LINE
  8
0
 62
4
 10
-6.60546270E+00
 20
3.84850315E+01
 11
-5.60546270E+00
 21
3.94850315E+01
  0
LINE
  8
0
 62
4
 10
-6.60546270E+00
 20
3.84850315E+01
 11
-6.60546270E+00
 21
3.64850315E+01
  0
LINE
  8
0
 62
4
 10
-5.60546270E+00
 20
3.54850315E+01
 11
-1.10546270E+00
 21
3.54850315E+01
  0
LINE
  8
0
 62
4
 10
-5.60546270E+00
 20
3.94850315E+01
 11
-1.10546270E+00
 21
3.94850315E+01
  0
LINE
  8
0
 62
4
 10
-6.60546270E+00
 20
3.64850315E+01
 11
-5.60546270E+00
 21
3.54850315E+01
  0
LINE
  8
0
 62
4
 10
-5.60546270E+00
 20
3.94850315E+01
 11
-5.60546270E+00
 21
3.54850315E+01
  0
LINE
  8
0
 62
4
 10
1.03945373E+01
 20
3.73850315E+01
 11
1.03945373E+01
 21
1.75350468E+01
  0
LINE
  8
0
 62
4
 10
1.39453730E+00
 20
3.73850315E+01
 11
1.39453730E+00
 21
1.75350468E+01
  0
LINE
  8
0
 62
4
 10
1.83945373E+01
 20
3.94850315E+01
 11
2.13945373E+01
 21
3.87850315E+01
  0
LINE
  8
0
 62
4
 10
1.83945373E+01
 20
3.54850315E+01
 11
2.13945373E+01
 21
3.61850315E+01
  0
LINE
  8
0
 62
4
 10
1.83945373E+01
 20
3.94850315E+01
 11
1.83945373E+01
 21
3.54850315E+01
  0
LINE
  8
0
 62
6
 10
2.63315364E+01
 20
3.87850315E+01
 11
2.37315364E+01
 21
3.61850315E+01
  0
LINE
  8
0
 62
4
 10
2.13945373E+01
 20
3.61850315E+01
 11
2.37315364E+01
 21
3.61850315E+01
  0
LINE
  8
0
 62
4
 10
2.13945373E+01
 20
3.87850315E+01
 11
2.13945373E+01
 21
3.61850315E+01
  0
LINE
  8
0
 62
4
 10
2.13945373E+01
 20
3.87850315E+01
 11
2.63315364E+01
 21
3.87850315E+01
  0
LINE
  8
0
 62
2
 10
-3.80754627E+01
 20
2.19970315E+01
 11
-3.76054627E+01
 21
2.19970315E+01
  0
LINE
  8
0
 62
2
 10
-3.80754627E+01
 20
3.03730315E+01
 11
-3.76054627E+01
 21
3.03730315E+01
  0
LINE
  8
0
 62
2
 10
-4.31054627E+01
 20
3.03730315E+01
 11
-4.20754627E+01
 21
3.03730315E+01
  0
LINE
  8
0
 62
2
 10
-4.31054627E+01
 20
2.19970315E+01
 11
-4.20754627E+01
 21
2.19970315E+01
  0
LINE
  8
0
 62
2
 10
-5.61354627E+01
 20
2.41180315E+01
 11
-4.91054627E+01
 21
2.41180315E+01
  0
LINE
  8
0
 62
2
 10
-5.61354627E+01
 20
2.82520315E+01
 11
-4.91054627E+01
 21
2.82520315E+01
  0
LINE
  8
0
 62
2
 10
-6.40384627E+01
 20
2.82520315E+01
 11
-6.01354627E+01
 21
2.82520315E+01
  0
LINE
  8
0
 62
2
 10
-6.40384627E+01
 20
2.41180315E+01
 11
-6.01354627E+01
 21
2.41180315E+01
  0
LINE
  8
0
 62
7
 10
-4.41054627E+01
 20
3.01850315E+01
 11
-4.41054627E+01
 21
2.21850315E+01
  0
LINE
  8
0
 62
7
 10
-4.31054627E+01
 20
2.11850315E+01
 11
-4.20754627E+01
 21
2.11850315E+01
  0
LINE
  8
0
 62
7
 10
-4.31054627E+01
 20
3.11850315E+01
 11
-4.20754627E+01
 21
3.11850315E+01
  0
LINE
  8
0
 62
7
 10
-2.96054627E+01
 20
3.46850315E+01
 11
-2.96054627E+01
 21
1.76850315E+01
  0
LINE
  8
0
 62
7
 10
-4.41054627E+01
 20
3.01850315E+01
 11
-4.31054627E+01
 21
3.11850315E+01
  0
LINE
  8
0
 62
7
 10
-4.41054627E+01
 20
2.21850315E+01
 11
-4.31054627E+01
 21
2.11850315E+01
  0
LINE
  8
0
 62
7
 10
-3.76054627E+01
 20
3.11850315E+01
 11
-3.76054627E+01
 21
2.11850315E+01
  0
LINE
  8
0
 62
7
 10
-3.61054627E+01
 20
3.46850315E+01
 11
-1.10546270E+00
 21
3.46850315E+01
  0
LINE
  8
0
 62
4
 10
5.13845373E+01
 20
3.46850315E+01
 11
5.13845373E+01
 21
1.76850315E+01
  0
LINE
  8
0
 62
4
 10
5.73845373E+01
 20
3.41850315E+01
 11
5.73845373E+01
 21
1.81850315E+01
  0
LINE
  8
0
 62
7
 10
-3.61054627E+01
 20
1.76850315E+01
 11
1.39453730E+00
 21
1.76850315E+01
  0
LINE
  8
0
 62
4
 10
5.13845373E+01
 20
3.46850315E+01
 11
5.68845373E+01
 21
3.46850315E+01
  0
LINE
  8
0
 62
4
 10
5.13845373E+01
 20
1.76850315E+01
 11
5.68845373E+01
 21
1.76850315E+01
  0
LINE
  8
0
 62
7
 10
-4.31054627E+01
 20
3.11850315E+01
 11
-4.31054627E+01
 21
2.11850315E+01
  0
LINE
  8
0
 62
7
 10
-3.43554627E+01
 20
3.04250315E+01
 11
-3.13554627E+01
 21
3.04250315E+01
  0
LINE
  8
0
 62
7
 10
-3.43554627E+01
 20
2.19350315E+01
 11
-3.13554627E+01
 21
2.19350315E+01
  0
LINE
  8
0
 62
7
 10
-6.36054627E+01
 20
2.86850315E+01
 11
-6.01354627E+01
 21
2.86850315E+01
  0
LINE
  8
0
 62
7
 10
-6.36054627E+01
 20
2.36850315E+01
 11
-6.01354627E+01
 21
2.36850315E+01
  0
LINE
  8
0
 62
7
 10
-2.96054627E+01
 20
3.01850315E+01
 11
-2.96054627E+01
 21
2.21850315E+01
  0
LINE
  8
0
 62
7
 10
-6.41054627E+01
 20
2.81850315E+01
 11
-6.41054627E+01
 21
2.41850315E+01
  0
LINE
  8
0
 62
7
 10
-4.91054627E+01
 20
2.86850315E+01
 11
-4.91054627E+01
 21
2.36850315E+01
  0
LINE
  8
0
 62
7
 10
-6.41054627E+01
 20
2.81850315E+01
 11
-6.36054627E+01
 21
2.86850315E+01
  0
LINE
  8
0
 62
7
 10
-6.41054627E+01
 20
2.41850315E+01
 11
-6.36054627E+01
 21
2.36850315E+01
  0
LINE
  8
0
 62
7
 10
-6.36054627E+01
 20
2.86850315E+01
 11
-6.36054627E+01
 21
2.36850315E+01
  0
LINE
  8
0
 62
4
 10
-6.01354627E+01
 20
2.95650315E+01
 11
-6.01354627E+01
 21
2.27950315E+01
  0
LINE
  8
0
 62
4
 10
-5.61354627E+01
 20
2.95650315E+01
 11
-5.61354627E+01
 21
2.27950315E+01
  0
LINE
  8
0
 62
4
 10
-5.96354627E+01
 20
2.16850315E+01
 11
-5.66354627E+01
 21
2.16850315E+01
  0
LINE
  8
0
 62
4
 10
-5.96354627E+01
 20
3.06850315E+01
 11
-5.66354627E+01
 21
3.06850315E+01
  0
LINE
  8
0
 62
7
 10
-5.61354627E+01
 20
2.36850315E+01
 11
-4.41054627E+01
 21
2.36850315E+01
  0
LINE
  8
0
 62
7
 10
-5.61354627E+01
 20
2.86850315E+01
 11
-4.41054627E+01
 21
2.86850315E+01
  0
LINE
  8
0
 62
4
 10
-4.20754627E+01
 20
3.21650315E+01
 11
-4.20754627E+01
 21
2.02050315E+01
  0
LINE
  8
0
 62
4
 10
-3.80754627E+01
 20
3.21650315E+01
 11
-3.80754627E+01
 21
2.02050315E+01
  0
LINE
  8
0
 62
4
 10
-4.16754627E+01
 20
1.81850315E+01
 11
-3.84754627E+01
 21
1.81850315E+01
  0
LINE
  8
0
 62
4
 10
-4.16754627E+01
 20
3.41850315E+01
 11
-3.84754627E+01
 21
3.41850315E+01
  0
LINE
  8
0
 62
7
 10
-3.80754627E+01
 20
3.11850315E+01
 11
-3.61054627E+01
 21
3.11850315E+01
  0
LINE
  8
0
 62
7
 10
-3.80754627E+01
 20
2.11850315E+01
 11
-3.61054627E+01
 21
2.11850315E+01
  0
LINE
  8
0
 62
4
 10
-5.96354627E+01
 20
2.84550315E+01
 11
-5.66354627E+01
 21
2.84550315E+01
  0
LINE
  8
0
 62
4
 10
-5.96354627E+01
 20
2.39050315E+01
 11
-5.66354627E+01
 21
2.39050315E+01
  0
LINE
  8
0
 62
4
 10
-4.16754627E+01
 20
2.22050315E+01
 11
-3.84754627E+01
 21
2.22050315E+01
  0
LINE
  8
0
 62
4
 10
-4.16754627E+01
 20
3.01550315E+01
 11
-3.84754627E+01
 21
3.01550315E+01
  0
LINE
  8
0
 62
7
 10
-3.61054627E+01
 20
3.46850315E+01
 11
-3.61054627E+01
 21
1.76850315E+01
  0
LINE
  8
0
  6
CENTER
 62
2
 10
-3.26054627E+01
 20
2.84590640E+01
 11
-3.26054627E+01
 21
2.41039939E+01
  0
LINE
  8
0
 62
4
 10
5.68845373E+01
 20
3.46850315E+01
 11
5.73845373E+01
 21
3.41850315E+01
  0
LINE
  8
0
 62
4
 10
5.73845373E+01
 20
1.81850315E+01
 11
5.68845373E+01
 21
1.76850315E+01
  0
LINE
  8
0
 62
4
 10
5.68845373E+01
 20
3.46850315E+01
 11
5.68845373E+01
 21
1.76850315E+01
  0
LINE
  8
0
 62
7
 10
-3.43554627E+01
 20
3.46850315E+01
 11
-3.43554627E+01
 21
3.04250315E+01
  0
LINE
  8
0
 62
7
 10
-3.13554627E+01
 20
3.46850315E+01
 11
-3.13554627E+01
 21
3.04250315E+01
  0
LINE
  8
0
 62
7
 10
-3.43554627E+01
 20
2.19350315E+01
 11
-3.43554627E+01
 21
1.76850315E+01
  0
LINE
  8
0
 62
7
 10
-3.13554627E+01
 20
2.19350315E+01
 11
-3.13554627E+01
 21
1.76850315E+01
  0
ARC
  8
0
 62
4
 10
-5.47342701E+01
 20
2.61854075E+01
 40
5.40119257E+00
 50
1.55152285E+02
 51
2.04973474E+02
  0
ARC
  8
0
 62
4
 10
-5.86545160E+01
 20
2.27955510E+01
 40
1.48094675E+00
 50
1.31481491E+02
 51
1.80020100E+02
  0
ARC
  8
0
 62
4
 10
-5.86513584E+01
 20
2.27959343E+01
 40
1.48410458E+00
 50
1.80034855E+02
 51
2.28463554E+02
  0
ARC
  8
0
 62
4
 10
-5.86507691E+01
 20
2.95661998E+01
 40
1.48469409E+00
 50
1.80045086E+02
 51
2.28453323E+02
  0
ARC
  8
0
 62
4
 10
-5.86513829E+01
 20
2.95741030E+01
 40
1.48410750E+00
 50
1.31535081E+02
 51
1.80350220E+02
  0
ARC
  8
0
 62
4
 10
-6.15536067E+01
 20
2.61816737E+01
 40
5.41814508E+00
 50
3.35164683E+02
 51
2.48082185E+01
  0
ARC
  8
0
 62
4
 10
-5.76349128E+01
 20
2.95728468E+01
 40
1.49947043E+00
 50
3.11800222E+02
 51
3.59701369E+02
  0
ARC
  8
0
 62
4
 10
-5.76312028E+01
 20
2.27888873E+01
 40
1.49575274E+00
 50
2.35358167E-01
 51
4.82630507E+01
  0
ARC
  8
0
 62
4
 10
-5.76343292E+01
 20
2.28025840E+01
 40
1.49888557E+00
 50
3.11790291E+02
 51
3.59711300E+02
  0
ARC
  8
0
 62
4
 10
-5.76343491E+01
 20
2.95674929E+01
 40
1.49888846E+00
 50
3.59905911E+02
 51
4.82087877E+01
  0
ARC
  8
0
 62
4
 10
-2.21271804E+01
 20
2.61802801E+01
 40
1.99482828E+01
 50
1.68506731E+02
 51
1.91494668E+02
  0
ARC
  8
0
 62
4
 10
-3.68184370E+01
 20
2.01936263E+01
 40
5.25703809E+00
 50
1.57504439E+02
 51
1.79875697E+02
  0
ARC
  8
0
 62
4
 10
-3.68175206E+01
 20
2.01966042E+01
 40
5.25794885E+00
 50
1.79908168E+02
 51
2.02493428E+02
  0
ARC
  8
0
 62
4
 10
-3.68165113E+01
 20
3.21667880E+01
 40
5.25895173E+00
 50
1.80019137E+02
 51
2.02491071E+02
  0
ARC
  8
0
 62
4
 10
-3.68175205E+01
 20
3.21734587E+01
 40
5.25794900E+00
 50
1.57506572E+02
 51
1.80091832E+02
  0
ARC
  8
0
 62
4
 10
-4.33416874E+01
 20
3.21718187E+01
 40
5.26622903E+00
 50
3.59926156E+02
 51
2.24754393E+01
  0
ARC
  8
0
 62
4
 10
-4.33426918E+01
 20
3.21684353E+01
 40
5.26723025E+00
 50
3.37526818E+02
 51
3.59962974E+02
  0
ARC
  8
0
 62
4
 10
-5.80322659E+01
 20
2.61794216E+01
 40
1.99568039E+01
 50
3.48512622E+02
 51
1.14908096E+01
  0
ARC
  8
0
 62
4
 10
-4.33407660E+01
 20
2.01919708E+01
 40
5.26531950E+00
 50
1.42122704E-01
 51
2.24777423E+01
  0
ARC
  8
0
 62
4
 10
-4.33416872E+01
 20
2.01982442E+01
 40
5.26622888E+00
 50
3.37524561E+02
 51
7.38440165E-02
  0
CIRCLE
  8
0
 62
7
 10
-3.26112909E+01
 20
2.61850311E+01
 40
7.50000000E-01
  0
ARC
  8
0
 62
7
 10
-3.00934367E+01
 20
2.61800315E+01
 40
6.01538783E+00
 50
1.35114672E+02
 51
1.78084364E+02
  0
ARC
  8
0
 62
7
 10
-3.56291452E+01
 20
2.61800315E+01
 40
6.02365231E+00
 50
3.15192915E+02
 51
4.48070852E+01
  0
LINE
  8
0
  6
CENTER
 62
2
 10
-6.67689059E+01
 20
2.61850315E+01
 11
5.86445373E+01
 21
2.61850315E+01
  0
LINE
  8
0
 62
4
 10
4.53845373E+01
 20
4.04850315E+01
 11
4.78845373E+01
 21
4.04850315E+01
  0
LINE
  8
0
 62
4
 10
3.38845373E+01
 20
4.04850315E+01
 11
3.63845373E+01
 21
4.04850315E+01
  0
ARC
  8
0
 62
4
 10
4.23828716E+01
 20
4.56833658E+01
 40
1.00166704E+00
 50
9.52762946E-02
 51
8.99047236E+01
  0
ARC
  8
0
 62
4
 10
3.93853288E+01
 20
4.56842400E+01
 40
1.00079180E+00
 50
9.00000002E+01
 51
1.79954687E+02
  0
LINE
  8
0
 62
6
 10
3.96545373E+01
 20
4.51850315E+01
 11
3.96545373E+01
 21
4.41850315E+01
  0
LINE
  8
0
 62
6
 10
4.21145373E+01
 20
4.51850315E+01
 11
4.21145373E+01
 21
4.41850315E+01
  0
LINE
  8
0
 62
4
 10
3.93845373E+01
 20
4.51850315E+01
 11
3.93845373E+01
 21
4.41850315E+01
  0
LINE
  8
0
 62
4
 10
4.23845373E+01
 20
4.51850315E+01
 11
4.23845373E+01
 21
4.41850315E+01
  0
LINE
  8
0
 62
4
 10
3.93845373E+01
 20
4.66850315E+01
 11
4.23845373E+01
 21
4.66850315E+01
  0
LINE
  8
0
 62
4
 10
3.83845373E+01
 20
4.51850315E+01
 11
4.33845373E+01
 21
4.51850315E+01
  0
LINE
  8
0
 62
4
 10
3.63845373E+01
 20
4.41850315E+01
 11
4.53845373E+01
 21
4.41850315E+01
  0
LINE
  8
0
 62
4
 10
4.33845373E+01
 20
4.56850315E+01
 11
4.33845373E+01
 21
4.51850315E+01
  0
LINE
  8
0
 62
4
 10
3.83845373E+01
 20
4.56850315E+01
 11
3.83845373E+01
 21
4.51850315E+01
  0
LINE
  8
0
 62
4
 10
1.03945373E+01
 20
4.04850315E+01
 11
1.28945373E+01
 21
4.04850315E+01
  0
LINE
  8
0
 62
4
 10
-1.10546271E+00
 20
4.04850315E+01
 11
1.39453730E+00
 21
4.04850315E+01
  0
ARC
  8
0
 62
4
 10
7.39287164E+00
 20
4.56833658E+01
 40
1.00166704E+00
 50
9.52762946E-02
 51
8.99047236E+01
  0
ARC
  8
0
 62
4
 10
4.39532879E+00
 20
4.56842400E+01
 40
1.00079180E+00
 50
9.00000002E+01
 51
1.79954687E+02
  0
LINE
  8
0
 62
6
 10
4.66453730E+00
 20
4.51850315E+01
 11
4.66453730E+00
 21
4.41850315E+01
  0
LINE
  8
0
 62
6
 10
7.12453730E+00
 20
4.51850315E+01
 11
7.12453730E+00
 21
4.41850315E+01
  0
LINE
  8
0
 62
4
 10
4.39453730E+00
 20
4.51850315E+01
 11
4.39453730E+00
 21
4.41850315E+01
  0
LINE
  8
0
 62
4
 10
7.39453730E+00
 20
4.51850315E+01
 11
7.39453730E+00
 21
4.41850315E+01
  0
LINE
  8
0
 62
4
 10
4.39453730E+00
 20
4.66850315E+01
 11
7.39453730E+00
 21
4.66850315E+01
  0
LINE
  8
0
 62
4
 10
3.39453730E+00
 20
4.51850315E+01
 11
8.39453730E+00
 21
4.51850315E+01
  0
LINE
  8
0
 62
4
 10
1.39453730E+00
 20
4.41850315E+01
 11
1.03945373E+01
 21
4.41850315E+01
  0
LINE
  8
0
 62
4
 10
8.39453730E+00
 20
4.56850315E+01
 11
8.39453730E+00
 21
4.51850315E+01
  0
LINE
  8
0
 62
4
 10
3.39453730E+00
 20
4.56850315E+01
 11
3.39453730E+00
 21
4.51850315E+01
  0
LINE
  8
0
  6
CENTER
 62
2
 10
-9.98654627E+01
 20
4.92014758E+01
 11
-9.98654627E+01
 21
1.50386388E+01
  0
LINE
  8
0
 62
4
 10
-9.88154627E+01
 20
3.64850315E+01
 11
-9.78154627E+01
 21
3.54850315E+01
  0
LINE
  8
0
 62
4
 10
-1.01915463E+02
 20
3.54850315E+01
 11
-1.00915463E+02
 21
3.64850315E+01
  0
LINE
  8
0
 62
4
 10
-9.78154627E+01
 20
3.94850315E+01
 11
-9.88154627E+01
 21
3.84850315E+01
  0
LINE
  8
0
 62
4
 10
-1.01915463E+02
 20
3.94850315E+01
 11
-1.00915463E+02
 21
3.84850315E+01
  0
LINE
  8
0
 62
4
 10
-9.88154627E+01
 20
3.64850315E+01
 11
-1.00915463E+02
 21
3.64850315E+01
  0
LINE
  8
0
 62
4
 10
-9.88154627E+01
 20
3.84850315E+01
 11
-9.88154627E+01
 21
3.64850315E+01
  0
LINE
  8
0
 62
4
 10
-9.88154627E+01
 20
3.84850315E+01
 11
-1.00915463E+02
 21
3.84850315E+01
  0
LINE
  8
0
 62
4
 10
-1.00915463E+02
 20
3.84850315E+01
 11
-1.00915463E+02
 21
3.64850315E+01
  0
ARC
  8
0
 62
4
 10
-9.98654627E+01
 20
2.61850315E+01
 40
8.65000000E+00
 50
2.59314255E+02
 51
2.80685745E+02
  0
ARC
  8
0
 62
4
 10
-9.98654627E+01
 20
2.61850315E+01
 40
8.65000000E+00
 50
1.69314255E+02
 51
1.90685745E+02
  0
LINE
  8
0
 62
4
 10
-9.83654627E+01
 20
4.14850315E+01
 11
-9.86654627E+01
 21
4.11850315E+01
  0
LINE
  8
0
 62
4
 10
-1.01365463E+02
 20
4.14850315E+01
 11
-1.01065463E+02
 21
4.11850315E+01
  0
LINE
  8
0
 62
4
 10
-9.83654627E+01
 20
4.14850315E+01
 11
-9.86654627E+01
 21
4.11850315E+01
  0
LINE
  8
0
 62
4
 10
-1.01365463E+02
 20
4.14850315E+01
 11
-1.01065463E+02
 21
4.11850315E+01
  0
LINE
  8
0
 62
4
 10
-9.88654627E+01
 20
3.51850315E+01
 11
-1.00865463E+02
 21
3.51850315E+01
  0
LINE
  8
0
 62
4
 10
-1.06771854E+02
 20
3.29045929E+01
 11
-1.07247194E+02
 21
3.30596799E+01
  0
LINE
  8
0
 62
4
 10
-1.05531158E+02
 20
3.67073122E+01
 11
-1.05388557E+02
 21
3.66607861E+01
  0
LINE
  8
0
 62
4
 10
-1.04790463E+02
 20
4.05895355E+01
 11
-1.07247194E+02
 21
3.30596799E+01
  0
LINE
  8
0
 62
4
 10
-1.05388571E+02
 20
3.66607413E+01
 11
-1.06629516E+02
 21
3.28572576E+01
  0
LINE
  8
0
 62
4
 10
-1.04290463E+02
 20
4.05100315E+01
 11
-1.06869523E+02
 21
3.26052395E+01
  0
LINE
  8
0
 62
4
 10
-9.63654627E+01
 20
3.76850315E+01
 11
-9.42204490E+01
 21
3.38300508E+01
  0
LINE
  8
0
 62
4
 10
-9.65154627E+01
 20
3.76850315E+01
 11
-9.44867257E+01
 21
3.40196781E+01
  0
ARC
  8
0
 62
4
 10
-9.98654627E+01
 20
2.61850315E+01
 40
8.65000000E+00
 50
3.49314255E+02
 51
1.06857449E+01
  0
ARC
  8
0
 62
4
 10
-9.98654627E+01
 20
2.61850315E+01
 40
8.50000000E+00
 50
1.61930287E+02
 51
2.89640969E+01
  0
LINE
  8
0
 62
4
 10
-9.63654627E+01
 20
4.41850315E+01
 11
-1.03365463E+02
 21
4.41850315E+01
  0
LINE
  8
0
 62
4
 10
-1.03365463E+02
 20
4.28850315E+01
 11
-1.03365463E+02
 21
3.69850315E+01
  0
LINE
  8
0
 62
4
 10
-9.63654627E+01
 20
4.28850315E+01
 11
-9.63654627E+01
 21
3.76850315E+01
  0
LINE
  8
0
 62
4
 10
-1.04165463E+02
 20
3.91828092E+01
 11
-1.04634981E+02
 21
3.94540865E+01
  0
LINE
  8
0
 62
4
 10
-1.04865463E+02
 20
4.24850315E+01
 11
-1.04865463E+02
 21
4.08000315E+01
  0
LINE
  8
0
 62
4
 10
-1.04865463E+02
 20
4.24850315E+01
 11
-1.05665463E+02
 21
4.24850315E+01
  0
LINE
  8
0
 62
4
 10
-1.02150463E+02
 20
4.33850315E+01
 11
-1.02010463E+02
 21
4.25850315E+01
  0
LINE
  8
0
 62
4
 10
-9.75804627E+01
 20
4.33850315E+01
 11
-9.77204627E+01
 21
4.25850315E+01
  0
LINE
  8
0
 62
4
 10
-9.77204627E+01
 20
4.25850315E+01
 11
-1.02010463E+02
 21
4.25850315E+01
  0
LINE
  8
0
 62
6
 10
-1.01095463E+02
 20
4.46850315E+01
 11
-1.01095463E+02
 21
4.41850315E+01
  0
LINE
  8
0
 62
6
 10
-9.86354627E+01
 20
4.46850315E+01
 11
-9.86354627E+01
 21
4.41850315E+01
  0
LINE
  8
0
 62
4
 10
-9.55654627E+01
 20
4.33850315E+01
 11
-9.55654627E+01
 21
3.76850315E+01
  0
LINE
  8
0
 62
4
 10
-1.04165463E+02
 20
3.69850315E+01
 11
-1.04165463E+02
 21
4.33850315E+01
  0
LINE
  8
0
 62
4
 10
-9.68654627E+01
 20
4.33850315E+01
 11
-1.02865463E+02
 21
4.33850315E+01
  0
LINE
  8
0
 62
4
 10
-1.05665463E+02
 20
4.24850315E+01
 11
-1.05665463E+02
 21
4.03400315E+01
  0
LINE
  8
0
 62
4
 10
-1.04165463E+02
 20
4.01090315E+01
 11
-1.04379567E+02
 21
4.02332122E+01
  0
LINE
  8
0
 62
4
 10
-9.65154627E+01
 20
4.28850315E+01
 11
-9.65154627E+01
 21
3.76850315E+01
  0
LINE
  8
0
 62
4
 10
-9.63654627E+01
 20
4.28850315E+01
 11
-9.65154627E+01
 21
4.28850315E+01
  0
LINE
  8
0
 62
4
 10
-9.66154627E+01
 20
4.11850315E+01
 11
-1.03115463E+02
 21
4.11850315E+01
  0
LINE
  8
0
 62
4
 10
-9.66154627E+01
 20
4.04850315E+01
 11
-1.03115463E+02
 21
4.04850315E+01
  0
LINE
  8
0
 62
4
 10
-1.04290463E+02
 20
4.30100315E+01
 11
-1.04290463E+02
 21
4.05100315E+01
  0
LINE
  8
0
 62
4
 10
-1.04790463E+02
 20
4.30100315E+01
 11
-1.04790463E+02
 21
4.05895355E+01
  0
LINE
  8
0
 62
4
 10
-1.04290463E+02
 20
4.30100315E+01
 11
-1.04790463E+02
 21
4.30100315E+01
  0
LINE
  8
0
 62
4
 10
-1.01365463E+02
 20
4.51850315E+01
 11
-1.01365463E+02
 21
4.41850315E+01
  0
LINE
  8
0
 62
4
 10
-9.83654627E+01
 20
4.51850315E+01
 11
-9.83654627E+01
 21
4.41850315E+01
  0
LINE
  8
0
 62
4
 10
-9.55654627E+01
 20
3.76850315E+01
 11
-9.63654627E+01
 21
3.76850315E+01
  0
LINE
  8
0
 62
4
 10
-1.03365463E+02
 20
3.69850315E+01
 11
-1.04165463E+02
 21
3.69850315E+01
  0
LINE
  8
0
 62
4
 10
-9.73654627E+01
 20
4.51850315E+01
 11
-1.02365463E+02
 21
4.51850315E+01
  0
LINE
  8
0
 62
4
 10
-9.83654627E+01
 20
4.66850315E+01
 11
-1.01365463E+02
 21
4.66850315E+01
  0
LINE
  8
0
 62
4
 10
-9.73654627E+01
 20
4.56850315E+01
 11
-9.73654627E+01
 21
4.51850315E+01
  0
LINE
  8
0
 62
4
 10
-1.02365463E+02
 20
4.56850315E+01
 11
-1.02365463E+02
 21
4.51850315E+01
  0
LINE
  8
0
 62
4
 10
-9.83654627E+01
 20
4.46850315E+01
 11
-1.01365463E+02
 21
4.46850315E+01
  0
ARC
  8
0
 62
4
 10
-9.63654660E+01
 20
4.33850282E+01
 40
8.00003254E-01
 50
2.33015759E-04
 51
9.00000002E+01
  0
ARC
  8
0
 62
4
 10
-1.03367125E+02
 20
4.33866941E+01
 40
7.98339134E-01
 50
8.98806771E+01
 51
1.80119323E+02
  0
ARC
  8
0
 62
4
 10
-9.68654670E+01
 20
4.28850272E+01
 40
5.00004290E-01
 50
4.91607912E-04
 51
9.00000002E+01
  0
ARC
  8
0
 62
4
 10
-1.02867125E+02
 20
4.28866941E+01
 40
4.98340176E-01
 50
8.98088454E+01
 51
1.80191155E+02
  0
ARC
  8
0
 62
4
 10
-1.05165259E+02
 20
4.03381657E+01
 40
5.00207143E-01
 50
1.79786293E+02
 51
2.39986760E+02
  0
ARC
  8
0
 62
4
 10
-1.04366611E+02
 20
4.08023872E+01
 40
4.98857363E-01
 50
1.80270562E+02
 51
2.09445368E+02
  0
ARC
  8
0
 62
4
 10
-1.01366875E+02
 20
4.56864438E+01
 40
9.98588677E-01
 50
8.99189656E+01
 51
1.80081034E+02
  0
ARC
  8
0
 62
4
 10
-9.83657155E+01
 20
4.56847787E+01
 40
1.00025280E+00
 50
1.44788446E-02
 51
9.00000002E+01
  0
LINE
  8
0
 62
4
 10
-1.03115463E+02
 20
4.11850315E+01
 11
-1.03115463E+02
 21
3.46850315E+01
  0
LINE
  8
0
 62
4
 10
-9.66154627E+01
 20
3.72850315E+01
 11
-9.66154627E+01
 21
3.46850315E+01
  0
LINE
  8
0
 62
4
 10
-9.66154627E+01
 20
3.72850315E+01
 11
-9.78154627E+01
 21
3.72850315E+01
  0
LINE
  8
0
 62
4
 10
-9.66154627E+01
 20
3.76850315E+01
 11
-9.78154627E+01
 21
3.76850315E+01
  0
LINE
  8
0
 62
4
 10
-9.66154627E+01
 20
4.11850315E+01
 11
-9.66154627E+01
 21
3.76850315E+01
  0
LINE
  8
0
 62
4
 10
-9.78154627E+01
 20
3.54850315E+01
 11
-1.01915463E+02
 21
3.54850315E+01
  0
LINE
  8
0
 62
4
 10
-9.78154627E+01
 20
3.94850315E+01
 11
-1.01915463E+02
 21
3.94850315E+01
  0
LINE
  8
0
 62
4
 10
-9.88654627E+01
 20
3.97850315E+01
 11
-1.00865463E+02
 21
3.97850315E+01
  0
LINE
  8
0
 62
4
 10
-9.88654627E+01
 20
3.97850315E+01
 11
-9.88654627E+01
 21
3.94850315E+01
  0
LINE
  8
0
 62
4
 10
-9.88654627E+01
 20
3.54850315E+01
 11
-9.88654627E+01
 21
3.51850315E+01
  0
LINE
  8
0
 62
4
 10
-9.78154627E+01
 20
3.94850315E+01
 11
-9.78154627E+01
 21
3.54850315E+01
  0
LINE
  8
0
 62
4
 10
-1.01915463E+02
 20
3.94850315E+01
 11
-1.01915463E+02
 21
3.54850315E+01
  0
LINE
  8
0
 62
4
 10
-1.00865463E+02
 20
3.97850315E+01
 11
-1.00865463E+02
 21
3.94850315E+01
  0
LINE
  8
0
 62
4
 10
-1.00865463E+02
 20
3.54850315E+01
 11
-1.00865463E+02
 21
3.51850315E+01
  0
LINE
  8
0
 62
4
 10
-9.83654627E+01
 20
4.25850315E+01
 11
-9.83654627E+01
 21
4.14850315E+01
  0
LINE
  8
0
 62
4
 10
-1.01365463E+02
 20
4.25850315E+01
 11
-1.01365463E+02
 21
4.14850315E+01
  0
LINE
  8
0
 62
6
 10
-9.86354627E+01
 20
4.25850315E+01
 11
-9.86354627E+01
 21
4.12150315E+01
  0
LINE
  8
0
 62
6
 10
-1.01095463E+02
 20
4.25850315E+01
 11
-1.01095463E+02
 21
4.12150315E+01
  0
LINE
  8
0
 62
4
 10
-1.05077501E+02
 20
3.97097649E+01
 11
-1.05415463E+02
 21
3.99050315E+01
  0
ARC
  8
0
 62
2
 10
-9.98654627E+01
 20
2.61850315E+01
 40
4.18800000E+00
 50
4.27674369E+01
 51
7.72325633E+01
  0
ARC
  8
0
 62
2
 10
-9.98654627E+01
 20
2.61850315E+01
 40
4.18800000E+00
 50
3.42767437E+02
 51
1.72325634E+01
  0
ARC
  8
0
 62
2
 10
-9.98654627E+01
 20
2.61850315E+01
 40
4.18800000E+00
 50
2.82767437E+02
 51
3.17232564E+02
  0
ARC
  8
0
 62
2
 10
-9.98654627E+01
 20
2.61850315E+01
 40
4.18800000E+00
 50
2.22767437E+02
 51
2.57232563E+02
  0
ARC
  8
0
 62
2
 10
-9.98654627E+01
 20
2.61850315E+01
 40
4.18800000E+00
 50
1.62767437E+02
 51
1.97232563E+02
  0
ARC
  8
0
 62
2
 10
-9.98654627E+01
 20
2.61850315E+01
 40
4.18800000E+00
 50
1.02767437E+02
 51
1.37232563E+02
  0
CIRCLE
  8
0
 62
7
 10
-9.98654627E+01
 20
2.61850315E+01
 40
5.00000000E+00
  0
LINE
  8
0
 62
4
 10
-9.98654627E+01
 20
3.42679368E+01
 11
-9.28654614E+01
 21
3.02264841E+01
  0
LINE
  8
0
 62
4
 10
-9.28654614E+01
 20
3.02264841E+01
 11
-9.28654614E+01
 21
2.21435788E+01
  0
LINE
  8
0
 62
4
 10
-9.28654614E+01
 20
2.21435788E+01
 11
-9.98654627E+01
 21
1.81021262E+01
  0
LINE
  8
0
 62
4
 10
-9.98654627E+01
 20
1.81021262E+01
 11
-1.06865464E+02
 21
2.21435788E+01
  0
LINE
  8
0
 62
4
 10
-1.06865464E+02
 20
2.21435788E+01
 11
-1.06865464E+02
 21
3.02264841E+01
  0
LINE
  8
0
 62
4
 10
-1.06865464E+02
 20
3.02264841E+01
 11
-9.98654627E+01
 21
3.42679368E+01
  0
LINE
  8
0
 62
4
 10
-1.03865464E+02
 20
2.38756296E+01
 11
-1.03865464E+02
 21
2.84944333E+01
  0
LINE
  8
0
 62
4
 10
-9.98654627E+01
 20
2.15662278E+01
 11
-1.03865464E+02
 21
2.38756296E+01
  0
LINE
  8
0
 62
4
 10
-9.58654614E+01
 20
2.38756296E+01
 11
-9.98654627E+01
 21
2.15662278E+01
  0
LINE
  8
0
 62
4
 10
-9.58654614E+01
 20
2.84944333E+01
 11
-9.58654614E+01
 21
2.38756296E+01
  0
LINE
  8
0
 62
4
 10
-9.98654627E+01
 20
3.08038351E+01
 11
-9.58654614E+01
 21
2.84944333E+01
  0
LINE
  8
0
 62
4
 10
-1.03865464E+02
 20
2.84944333E+01
 11
-9.98654626E+01
 21
3.08038351E+01
  0
CIRCLE
  8
0
 62
2
 10
-9.98654627E+01
 20
2.61850315E+01
 40
2.06700000E+00
  0
LINE
  8
0
 62
7
 10
-9.13654627E+01
 20
3.04350315E+01
 11
-9.13654627E+01
 21
2.19450315E+01
  0
LINE
  8
0
 62
7
 10
-1.08365463E+02
 20
3.04350315E+01
 11
-1.08365463E+02
 21
2.19450315E+01
  0
LINE
  8
0
 62
7
 10
-1.04105463E+02
 20
1.76850315E+01
 11
-9.56154627E+01
 21
1.76850315E+01
  0
LINE
  8
0
 62
7
 10
-1.04105463E+02
 20
3.46850315E+01
 11
-9.56154627E+01
 21
3.46850315E+01
  0
LINE
  8
0
  6
CENTER
 62
2
 10
-1.11123094E+02
 20
2.61850315E+01
 11
-8.92588787E+01
 21
2.61850315E+01
  0
CIRCLE
  8
0
 62
7
 10
-9.98654627E+01
 20
2.61850330E+01
 40
2.50000000E+00
  0
CIRCLE
  8
0
 62
7
 10
-9.98654627E+01
 20
2.61850330E+01
 40
8.50000000E+00
  0
ARC
  8
0
 62
7
 10
-9.98654619E+01
 20
2.61850322E+01
 40
9.50328788E+00
 50
2.65650491E+01
 51
6.34349507E+01
  0
ARC
  8
0
 62
7
 10
-9.98704558E+01
 20
2.61800481E+01
 40
9.50105392E+00
 50
1.16470741E+02
 51
1.53394604E+02
  0
ARC
  8
0
 62
7
 10
-9.98654619E+01
 20
2.61850322E+01
 40
9.49882200E+00
 50
2.06511102E+02
 51
2.43488897E+02
  0
ARC
  8
0
 62
7
 10
-9.98704476E+01
 20
2.61800399E+01
 40
9.50105596E+00
 50
2.96605401E+02
 51
3.33529254E+02
  0
CIRCLE
  8
0
 62
4
 10
-9.98654627E+01
 20
2.61850330E+01
 40
7.00000000E+00
  0
CIRCLE
  8
0
 62
4
 10
-9.98654627E+01
 20
2.61850330E+01
 40
4.00000000E+00
  0
LINE
  8
0
  6
CENTER
 62
2
 10
9.47945373E+01
 20
4.94950315E+01
 11
9.47945373E+01
 21
1.58154634E+01
  0
LINE
  8
0
 62
4
 10
9.32945373E+01
 20
4.14850315E+01
 11
9.35945373E+01
 21
4.11850315E+01
  0
LINE
  8
0
 62
4
 10
9.62945373E+01
 20
4.14850315E+01
 11
9.59945373E+01
 21
4.11850315E+01
  0
LINE
  8
0
 62
4
 10
9.32945373E+01
 20
4.14850315E+01
 11
9.35945373E+01
 21
4.11850315E+01
  0
LINE
  8
0
 62
4
 10
9.62945373E+01
 20
4.14850315E+01
 11
9.59945373E+01
 21
4.11850315E+01
  0
LINE
  8
0
 62
4
 10
9.37945373E+01
 20
3.51850315E+01
 11
9.57945373E+01
 21
3.51850315E+01
  0
LINE
  8
0
 62
4
 10
9.34945373E+01
 20
3.61850315E+01
 11
9.60945373E+01
 21
3.61850315E+01
  0
LINE
  8
0
 62
4
 10
9.34945373E+01
 20
3.61850315E+01
 11
9.27445373E+01
 21
3.54850315E+01
  0
LINE
  8
0
 62
4
 10
1.01700929E+02
 20
3.29045929E+01
 11
1.02176269E+02
 21
3.30596799E+01
  0
LINE
  8
0
 62
4
 10
1.00460233E+02
 20
3.67073122E+01
 11
1.00317631E+02
 21
3.66607861E+01
  0
LINE
  8
0
 62
4
 10
9.97195373E+01
 20
4.05895355E+01
 11
1.02176269E+02
 21
3.30596799E+01
  0
LINE
  8
0
 62
4
 10
1.00317646E+02
 20
3.66607413E+01
 11
1.02875316E+02
 21
2.88215100E+01
  0
LINE
  8
0
 62
4
 10
9.92195373E+01
 20
4.05100315E+01
 11
1.03017918E+02
 21
2.88680361E+01
  0
LINE
  8
0
 62
4
 10
9.12945373E+01
 20
3.76850315E+01
 11
8.72358736E+01
 21
3.03908729E+01
  0
LINE
  8
0
 62
4
 10
9.14445373E+01
 20
3.76850315E+01
 11
8.73576890E+01
 21
3.03012539E+01
  0
ARC
  8
0
 62
4
 10
9.47945373E+01
 20
2.61850315E+01
 40
8.65000000E+00
 50
1.50907274E+02
 51
1.80697136E+01
  0
CIRCLE
  8
0
 62
4
 10
9.47945373E+01
 20
3.74850315E+01
 40
1.30000000E+00
  0
LINE
  8
0
 62
4
 10
9.12945373E+01
 20
4.41850315E+01
 11
9.82945373E+01
 21
4.41850315E+01
  0
LINE
  8
0
 62
4
 10
9.82945373E+01
 20
4.28850315E+01
 11
9.82945373E+01
 21
3.69850315E+01
  0
LINE
  8
0
 62
4
 10
9.12945373E+01
 20
4.28850315E+01
 11
9.12945373E+01
 21
3.76850315E+01
  0
LINE
  8
0
 62
4
 10
9.90945373E+01
 20
3.91828092E+01
 11
9.95640556E+01
 21
3.94540865E+01
  0
LINE
  8
0
 62
4
 10
9.97945373E+01
 20
4.24850315E+01
 11
9.97945373E+01
 21
4.08000315E+01
  0
LINE
  8
0
 62
4
 10
9.97945373E+01
 20
4.24850315E+01
 11
1.00594537E+02
 21
4.24850315E+01
  0
LINE
  8
0
 62
4
 10
9.70795373E+01
 20
4.33850315E+01
 11
9.69395373E+01
 21
4.25850315E+01
  0
LINE
  8
0
 62
4
 10
9.25095373E+01
 20
4.33850315E+01
 11
9.26495373E+01
 21
4.25850315E+01
  0
LINE
  8
0
 62
4
 10
9.26495373E+01
 20
4.25850315E+01
 11
9.69395373E+01
 21
4.25850315E+01
  0
LINE
  8
0
 62
6
 10
9.60245373E+01
 20
4.46850315E+01
 11
9.60245373E+01
 21
4.41850315E+01
  0
LINE
  8
0
 62
6
 10
9.35645373E+01
 20
4.46850315E+01
 11
9.35645373E+01
 21
4.41850315E+01
  0
LINE
  8
0
 62
4
 10
9.04945373E+01
 20
4.33850315E+01
 11
9.04945373E+01
 21
3.76850315E+01
  0
LINE
  8
0
 62
4
 10
9.90945373E+01
 20
3.69850315E+01
 11
9.90945373E+01
 21
4.33850315E+01
  0
LINE
  8
0
 62
4
 10
9.17945373E+01
 20
4.33850315E+01
 11
9.77945373E+01
 21
4.33850315E+01
  0
LINE
  8
0
 62
4
 10
1.00594537E+02
 20
4.24850315E+01
 11
1.00594537E+02
 21
4.03400315E+01
  0
LINE
  8
0
 62
4
 10
9.90945373E+01
 20
4.01090315E+01
 11
9.93086421E+01
 21
4.02332122E+01
  0
LINE
  8
0
 62
4
 10
9.14445373E+01
 20
4.28850315E+01
 11
9.14445373E+01
 21
3.76850315E+01
  0
LINE
  8
0
 62
4
 10
9.12945373E+01
 20
4.28850315E+01
 11
9.14445373E+01
 21
4.28850315E+01
  0
LINE
  8
0
 62
4
 10
9.15445373E+01
 20
4.11850315E+01
 11
9.80445373E+01
 21
4.11850315E+01
  0
LINE
  8
0
 62
4
 10
9.15445373E+01
 20
4.04850315E+01
 11
9.80445373E+01
 21
4.04850315E+01
  0
LINE
  8
0
 62
4
 10
9.92195373E+01
 20
4.30100315E+01
 11
9.92195373E+01
 21
4.05100315E+01
  0
LINE
  8
0
 62
4
 10
9.97195373E+01
 20
4.30100315E+01
 11
9.97195373E+01
 21
4.05895355E+01
  0
LINE
  8
0
 62
4
 10
9.92195373E+01
 20
4.30100315E+01
 11
9.97195373E+01
 21
4.30100315E+01
  0
LINE
  8
0
 62
4
 10
9.62945373E+01
 20
4.51850315E+01
 11
9.62945373E+01
 21
4.41850315E+01
  0
LINE
  8
0
 62
4
 10
9.32945373E+01
 20
4.51850315E+01
 11
9.32945373E+01
 21
4.41850315E+01
  0
LINE
  8
0
 62
4
 10
9.04945373E+01
 20
3.76850315E+01
 11
9.12945373E+01
 21
3.76850315E+01
  0
LINE
  8
0
 62
4
 10
9.82945373E+01
 20
3.69850315E+01
 11
9.90945373E+01
 21
3.69850315E+01
  0
LINE
  8
0
 62
4
 10
9.22945373E+01
 20
4.51850315E+01
 11
9.72945373E+01
 21
4.51850315E+01
  0
LINE
  8
0
 62
4
 10
9.32945373E+01
 20
4.66850315E+01
 11
9.62945373E+01
 21
4.66850315E+01
  0
LINE
  8
0
 62
4
 10
9.22945373E+01
 20
4.56850315E+01
 11
9.22945373E+01
 21
4.51850315E+01
  0
LINE
  8
0
 62
4
 10
9.72945373E+01
 20
4.56850315E+01
 11
9.72945373E+01
 21
4.51850315E+01
  0
LINE
  8
0
 62
4
 10
9.32945373E+01
 20
4.46850315E+01
 11
9.62945373E+01
 21
4.46850315E+01
  0
ARC
  8
0
 62
4
 10
9.12945406E+01
 20
4.33850282E+01
 40
8.00003254E-01
 50
9.00000002E+01
 51
1.79999767E+02
  0
ARC
  8
0
 62
4
 10
9.82961999E+01
 20
4.33866941E+01
 40
7.98339134E-01
 50
3.59880678E+02
 51
9.01193227E+01
  0
ARC
  8
0
 62
4
 10
9.17945416E+01
 20
4.28850272E+01
 40
5.00004290E-01
 50
9.00000002E+01
 51
1.79999508E+02
  0
ARC
  8
0
 62
4
 10
9.77961999E+01
 20
4.28866941E+01
 40
4.98340176E-01
 50
3.59808845E+02
 51
9.01911544E+01
  0
ARC
  8
0
 62
4
 10
1.00094334E+02
 20
4.03381657E+01
 40
5.00207143E-01
 50
3.00013240E+02
 51
2.13706628E-01
  0
ARC
  8
0
 62
4
 10
9.92956855E+01
 20
4.08023872E+01
 40
4.98857363E-01
 50
3.30554632E+02
 51
3.59729437E+02
  0
ARC
  8
0
 62
4
 10
9.62959496E+01
 20
4.56864438E+01
 40
9.98588677E-01
 50
3.59918966E+02
 51
9.00810348E+01
  0
ARC
  8
0
 62
4
 10
9.32947901E+01
 20
4.56847787E+01
 40
1.00025280E+00
 50
9.00000002E+01
 51
1.79985521E+02
  0
LINE
  8
0
 62
4
 10
9.80445373E+01
 20
4.11850315E+01
 11
9.80445373E+01
 21
3.46850315E+01
  0
LINE
  8
0
 62
4
 10
9.75764195E+01
 20
3.42169136E+01
 11
9.80445373E+01
 21
3.46850315E+01
  0
LINE
  8
0
 62
4
 10
9.20126551E+01
 20
3.42169136E+01
 11
9.15445373E+01
 21
3.46850315E+01
  0
LINE
  8
0
 62
4
 10
9.15445373E+01
 20
3.72850315E+01
 11
9.15445373E+01
 21
3.46850315E+01
  0
LINE
  8
0
 62
4
 10
9.15445373E+01
 20
3.72850315E+01
 11
9.27445373E+01
 21
3.72850315E+01
  0
LINE
  8
0
 62
4
 10
9.15445373E+01
 20
3.76850315E+01
 11
9.27445373E+01
 21
3.76850315E+01
  0
LINE
  8
0
 62
4
 10
9.15445373E+01
 20
4.11850315E+01
 11
9.15445373E+01
 21
3.76850315E+01
  0
LINE
  8
0
 62
4
 10
9.27445373E+01
 20
3.54850315E+01
 11
9.68445373E+01
 21
3.54850315E+01
  0
LINE
  8
0
 62
4
 10
9.27445373E+01
 20
3.94850315E+01
 11
9.68445373E+01
 21
3.94850315E+01
  0
LINE
  8
0
 62
4
 10
9.37945373E+01
 20
3.97850315E+01
 11
9.57945373E+01
 21
3.97850315E+01
  0
LINE
  8
0
 62
4
 10
9.34945373E+01
 20
3.87850315E+01
 11
9.60945373E+01
 21
3.87850315E+01
  0
LINE
  8
0
 62
4
 10
9.37945373E+01
 20
3.97850315E+01
 11
9.37945373E+01
 21
3.94850315E+01
  0
LINE
  8
0
 62
4
 10
9.37945373E+01
 20
3.54850315E+01
 11
9.37945373E+01
 21
3.51850315E+01
  0
LINE
  8
0
 62
4
 10
9.27445373E+01
 20
3.94850315E+01
 11
9.27445373E+01
 21
3.54850315E+01
  0
LINE
  8
0
 62
4
 10
9.34945373E+01
 20
3.87850315E+01
 11
9.34945373E+01
 21
3.61850315E+01
  0
LINE
  8
0
 62
4
 10
9.27445373E+01
 20
3.94850315E+01
 11
9.34945373E+01
 21
3.87850315E+01
  0
LINE
  8
0
 62
4
 10
9.68445373E+01
 20
3.94850315E+01
 11
9.68445373E+01
 21
3.54850315E+01
  0
LINE
  8
0
 62
4
 10
9.57945373E+01
 20
3.97850315E+01
 11
9.57945373E+01
 21
3.94850315E+01
  0
LINE
  8
0
 62
4
 10
9.57945373E+01
 20
3.54850315E+01
 11
9.57945373E+01
 21
3.51850315E+01
  0
LINE
  8
0
 62
4
 10
9.60945373E+01
 20
3.87850315E+01
 11
9.60945373E+01
 21
3.61850315E+01
  0
LINE
  8
0
 62
4
 10
9.60945373E+01
 20
3.87850315E+01
 11
9.68445373E+01
 21
3.94850315E+01
  0
LINE
  8
0
 62
4
 10
9.60945373E+01
 20
3.61850315E+01
 11
9.68445373E+01
 21
3.54850315E+01
  0
LINE
  8
0
 62
4
 10
9.32945373E+01
 20
4.25850315E+01
 11
9.32945373E+01
 21
4.14850315E+01
  0
LINE
  8
0
 62
4
 10
9.62945373E+01
 20
4.25850315E+01
 11
9.62945373E+01
 21
4.14850315E+01
  0
LINE
  8
0
 62
6
 10
9.35645373E+01
 20
4.25850315E+01
 11
9.35645373E+01
 21
4.12150315E+01
  0
LINE
  8
0
 62
6
 10
9.60245373E+01
 20
4.25850315E+01
 11
9.60245373E+01
 21
4.12150315E+01
  0
LINE
  8
0
 62
4
 10
1.00006576E+02
 20
3.97097649E+01
 11
1.00344537E+02
 21
3.99050315E+01
  0
CIRCLE
  8
0
 62
4
 10
9.47945373E+01
 20
2.61850315E+01
 40
2.06700000E+00
  0
LINE
  8
0
  6
CENTER
 62
2
 10
8.47245373E+01
 20
2.61850315E+01
 11
1.04924537E+02
 21
2.61850315E+01
  0
CIRCLE
  8
0
 62
4
 10
9.48011938E+01
 20
2.61850330E+01
 40
8.50000000E+00
  0
CIRCLE
  8
0
 62
6
 10
9.48011938E+01
 20
2.61850330E+01
 40
2.50000000E+00
  0
CIRCLE
  8
0
 62
4
 10
9.48011938E+01
 20
2.61850330E+01
 40
8.00000000E+00
  0
LINE
  8
0
  6
CENTER
 62
6
 10
5.89453730E+00
 20
8.44950301E+01
 11
5.89453730E+00
 21
6.44950315E+01
  0
LINE
  8
0
 62
4
 10
-6.60546270E+00
 20
7.54950315E+01
 11
-5.60546270E+00
 21
7.64950315E+01
  0
LINE
  8
0
 62
4
 10
-1.10546270E+00
 20
7.12450315E+01
 11
-1.10546270E+00
 21
7.77450315E+01
  0
LINE
  8
0
 62
4
 10
-5.60546270E+00
 20
7.64950315E+01
 11
-5.60546270E+00
 21
7.24950315E+01
  0
LINE
  8
0
 62
4
 10
-5.60546270E+00
 20
7.64950315E+01
 11
-1.10546270E+00
 21
7.64950315E+01
  0
LINE
  8
0
 62
4
 10
-1.10546270E+00
 20
7.77450315E+01
 11
1.39453730E+00
 21
7.77450315E+01
  0
LINE
  8
0
 62
4
 10
-6.60546270E+00
 20
7.54950315E+01
 11
-6.60546270E+00
 21
7.34950315E+01
  0
LINE
  8
0
 62
4
 10
-6.60546270E+00
 20
7.34950315E+01
 11
-5.60546270E+00
 21
7.24950315E+01
  0
LINE
  8
0
 62
4
 10
-5.60546270E+00
 20
7.24950315E+01
 11
-1.10546270E+00
 21
7.24950315E+01
  0
LINE
  8
0
 62
4
 10
-1.10546270E+00
 20
7.12450315E+01
 11
1.39453730E+00
 21
7.12450315E+01
  0
CIRCLE
  8
0
 62
4
 10
5.89366206E+00
 20
7.44925730E+01
 40
2.50000000E+00
  0
LINE
  8
0
 62
4
 10
4.83197072E+00
 20
7.34324649E+01
 11
6.95197072E+00
 21
7.55524649E+01
  0
LINE
  8
0
 62
4
 10
6.90197072E+00
 20
7.34924649E+01
 11
4.83197072E+00
 21
7.55524649E+01
  0
LINE
  8
0
 62
4
 10
3.89453730E+00
 20
7.94200315E+01
 11
3.89453730E+00
 21
8.02950315E+01
  0
LINE
  8
0
 62
4
 10
1.39453730E+00
 20
6.58450315E+01
 11
1.39453730E+00
 21
8.31450315E+01
  0
LINE
  8
0
 62
4
 10
1.03945373E+01
 20
7.12450315E+01
 11
1.28945373E+01
 21
7.12450315E+01
  0
LINE
  8
0
 62
4
 10
1.28945373E+01
 20
7.24950315E+01
 11
1.83945373E+01
 21
7.24950315E+01
  0
LINE
  8
0
 62
4
 10
1.28945373E+01
 20
7.64950315E+01
 11
1.83945373E+01
 21
7.64950315E+01
  0
LINE
  8
0
 62
4
 10
1.28945373E+01
 20
7.12450315E+01
 11
1.28945373E+01
 21
7.77450315E+01
  0
LINE
  8
0
 62
4
 10
1.03945373E+01
 20
7.77450315E+01
 11
1.28945373E+01
 21
7.77450315E+01
  0
LINE
  8
0
 62
4
 10
1.83945373E+01
 20
7.64950315E+01
 11
1.83945373E+01
 21
7.24950315E+01
  0
LINE
  8
0
 62
4
 10
1.83945373E+01
 20
7.64950315E+01
 11
2.13945373E+01
 21
7.57950315E+01
  0
LINE
  8
0
 62
4
 10
2.13945373E+01
 20
7.57950315E+01
 11
2.63315364E+01
 21
7.57950315E+01
  0
LINE
  8
0
 62
4
 10
2.13945373E+01
 20
7.57950315E+01
 11
2.13945373E+01
 21
7.31950315E+01
  0
LINE
  8
0
 62
4
 10
1.83945373E+01
 20
7.24950315E+01
 11
2.13945373E+01
 21
7.31950315E+01
  0
LINE
  8
0
 62
4
 10
2.13945373E+01
 20
7.31950315E+01
 11
2.37315364E+01
 21
7.31950315E+01
  0
LINE
  8
0
 62
6
 10
2.63315364E+01
 20
7.57950315E+01
 11
2.37315364E+01
 21
7.31950315E+01
  0
LINE
  8
0
 62
4
 10
1.39453730E+00
 20
6.58450315E+01
 11
1.03945373E+01
 21
6.58450315E+01
  0
LINE
  8
0
 62
4
 10
1.39453733E+00
 20
7.01950315E+01
 11
1.03945373E+01
 21
7.01950315E+01
  0
LINE
  8
0
 62
4
 10
7.89453730E+00
 20
8.02950315E+01
 11
7.89453730E+00
 21
7.94200315E+01
  0
LINE
  8
0
 62
4
 10
1.39453730E+00
 20
8.31450315E+01
 11
1.03945373E+01
 21
8.31450315E+01
  0
LINE
  8
0
 62
4
 10
3.89453733E+00
 20
7.94950315E+01
 11
7.89453730E+00
 21
7.94950315E+01
  0
LINE
  8
0
 62
4
 10
3.89453733E+00
 20
8.02950315E+01
 11
7.89453733E+00
 21
8.02950315E+01
  0
LINE
  8
0
 62
4
 10
1.39453733E+00
 20
8.18700315E+01
 11
1.03945373E+01
 21
8.18700315E+01
  0
LINE
  8
0
 62
4
 10
1.39453733E+00
 20
7.89200315E+01
 11
1.03945373E+01
 21
7.89200315E+01
  0
LINE
  8
0
 62
4
 10
1.39453733E+00
 20
7.94200315E+01
 11
1.03945373E+01
 21
7.94200315E+01
  0
LINE
  8
0
 62
4
 10
1.39453733E+00
 20
7.87950315E+01
 11
1.03945373E+01
 21
7.87950315E+01
  0
LINE
  8
0
 62
4
 10
1.03945373E+01
 20
6.58450315E+01
 11
1.03945373E+01
 21
8.31450315E+01
  0
LINE
  8
0
  6
CENTER
 62
6
 10
-8.33166743E+00
 20
7.44950315E+01
 11
2.66964924E+01
 21
7.44950315E+01
  0
LINE
  8
0
  6
CENTER
 62
6
 10
-1.20326312E+02
 20
-5.60748853E+01
 11
-1.20326312E+02
 21
-6.23890238E+01
  0
LINE
  8
0
  6
CENTER
 62
6
 10
-9.11263117E+01
 20
-5.60748853E+01
 11
-9.11263117E+01
 21
-6.23890238E+01
  0
LINE
  8
0
 62
4
 10
-1.26726312E+02
 20
-6.06294654E+01
 11
-8.47263117E+01
 21
-6.06294654E+01
  0
LINE
  8
0
 62
4
 10
-8.47263117E+01
 20
-5.83294654E+01
 11
-8.47263117E+01
 21
-6.06294654E+01
  0
LINE
  8
0
 62
4
 10
-1.26726312E+02
 20
-5.83294654E+01
 11
-1.26726312E+02
 21
-6.06294654E+01
  0
LINE
  8
0
  6
CENTER
 62
6
 10
-1.05726312E+02
 20
-3.82307565E+01
 11
-1.05726312E+02
 21
-5.49052023E+01
  0
LINE
  8
0
  6
CENTER
 62
4
 10
-1.13226312E+02
 20
-4.66294654E+01
 11
-9.82263117E+01
 21
-4.66294654E+01
  0
CIRCLE
  8
0
 62
4
 10
-1.05726312E+02
 20
-4.66294654E+01
 40
5.00000000E+00
  0
LINE
  8
0
 62
4
 10
-1.26726312E+02
 20
-5.83294654E+01
 11
-8.47263117E+01
 21
-5.83294654E+01
  0
ARC
  8
0
 62
4
 10
-1.05726312E+02
 20
-4.66294654E+01
 40
1.00000000E+01
 50
3.62946002E+01
 51
1.43705400E+02
  0
LINE
  8
0
 62
4
 10
-8.47263117E+01
 20
-5.83294654E+01
 11
-9.76664710E+01
 21
-4.07100932E+01
  0
LINE
  8
0
 62
4
 10
-1.26726312E+02
 20
-5.83294654E+01
 11
-1.13786152E+02
 21
-4.07100932E+01
  0
LINE
  8
0
  6
CENTER
 62
6
 10
-7.28263117E+01
 20
-5.60748853E+01
 11
-7.28263117E+01
 21
-6.23890238E+01
  0
LINE
  8
0
 62
4
 10
-7.88263117E+01
 20
-5.83294654E+01
 11
-7.88263117E+01
 21
-6.06294654E+01
  0
LINE
  8
0
 62
4
 10
-7.02263117E+01
 20
-5.83294654E+01
 11
-7.02263117E+01
 21
-6.06294654E+01
  0
LINE
  8
0
 62
4
 10
-7.54263117E+01
 20
-5.83294654E+01
 11
-7.54263117E+01
 21
-6.06294654E+01
  0
LINE
  8
0
 62
4
 10
-6.38263117E+01
 20
-3.66294654E+01
 11
-6.38263117E+01
 21
-5.78531198E+01
  0
LINE
  8
0
 62
4
 10
-6.61263117E+01
 20
-3.66294654E+01
 11
-6.38263117E+01
 21
-3.66294654E+01
  0
LINE
  8
0
  6
CENTER
 62
6
 10
-6.86744785E+01
 20
-4.66294654E+01
 11
-6.13263117E+01
 21
-4.66294654E+01
  0
LINE
  8
0
 62
4
 10
-7.88263117E+01
 20
-6.06294654E+01
 11
-6.66026573E+01
 21
-6.06294654E+01
  0
LINE
  8
0
 62
4
 10
-6.61263117E+01
 20
-3.66294654E+01
 11
-6.61263117E+01
 21
-5.78531198E+01
  0
LINE
  8
0
 62
4
 10
-7.88263117E+01
 20
-5.83294654E+01
 11
-6.66026573E+01
 21
-5.83294654E+01
  0
ARC
  8
0
 62
4
 10
-6.66026573E+01
 20
-5.78531198E+01
 40
2.77634558E+00
 50
2.70000000E+02
 51
0.00000000E+00
  0
ARC
  8
0
 62
4
 10
-6.66026573E+01
 20
-5.78531198E+01
 40
4.76345585E-01
 50
2.70000000E+02
 51
0.00000000E+00
  0
LINE
  8
0
 62
4
 10
-1.26726312E+02
 20
-9.02946544E+00
 11
-8.47263117E+01
 21
-9.02946544E+00
  0
LINE
  8
0
 62
4
 10
-8.47263117E+01
 20
-6.72946544E+00
 11
-8.47263117E+01
 21
-1.31294654E+01
  0
LINE
  8
0
 62
4
 10
-1.26726312E+02
 20
-6.72946544E+00
 11
-8.47263117E+01
 21
-6.72946544E+00
  0
LINE
  8
0
 62
4
 10
-1.26726312E+02
 20
-2.17294654E+01
 11
-8.47263117E+01
 21
-2.17294654E+01
  0
LINE
  8
0
  6
CENTER
 62
6
 10
-1.05726312E+02
 20
-5.33946544E+00
 11
-1.05726312E+02
 21
-2.29694654E+01
  0
LINE
  8
0
  6
CENTER
 62
6
 10
-1.23629276E+02
 20
-1.57294654E+01
 11
-8.82916887E+01
 21
-1.57294654E+01
  0
LINE
  8
0
 62
4
 10
-8.47263117E+01
 20
-1.83294654E+01
 11
-8.47263117E+01
 21
-2.17294654E+01
  0
ARC
  8
0
 62
4
 10
-9.11263117E+01
 20
-1.57294654E+01
 40
2.60000000E+00
 50
9.00000002E+01
 51
2.70000000E+02
  0
LINE
  8
0
  6
CENTER
 62
6
 10
-9.11263117E+01
 20
-1.94024351E+01
 11
-9.11263117E+01
 21
-1.21829211E+01
  0
LINE
  8
0
 62
4
 10
-9.11263117E+01
 20
-1.83294654E+01
 11
-8.47263117E+01
 21
-1.83294654E+01
  0
LINE
  8
0
 62
4
 10
-9.11263117E+01
 20
-1.31294654E+01
 11
-8.47263117E+01
 21
-1.31294654E+01
  0
ARC
  8
0
 62
4
 10
-1.20326312E+02
 20
-1.57294654E+01
 40
2.60000000E+00
 50
2.70000000E+02
 51
9.00000002E+01
  0
LINE
  8
0
  6
CENTER
 62
6
 10
-1.20326312E+02
 20
-1.95628688E+01
 11
-1.20326312E+02
 21
-1.20759653E+01
  0
LINE
  8
0
 62
4
 10
-1.20326312E+02
 20
-1.83294654E+01
 11
-1.26726312E+02
 21
-1.83294654E+01
  0
LINE
  8
0
 62
4
 10
-1.20326312E+02
 20
-1.31294654E+01
 11
-1.26726312E+02
 21
-1.31294654E+01
  0
LINE
  8
0
 62
4
 10
-1.26726312E+02
 20
-1.83294654E+01
 11
-1.26726312E+02
 21
-2.17294654E+01
  0
LINE
  8
0
 62
4
 10
-1.26726312E+02
 20
-6.72946544E+00
 11
-1.26726312E+02
 21
-1.31294654E+01
  0
LINE
  8
0
  6
CENTER
 62
6
 10
-1.07263117E+01
 20
-4.39294654E+01
 11
-1.07263117E+01
 21
-5.84394654E+01
  0
ARC
  8
0
 62
4
 10
3.87368830E+00
 20
-5.11294654E+01
 40
2.60000000E+00
 50
9.00000002E+01
 51
2.70000000E+02
  0
ARC
  8
0
 62
4
 10
-2.53263117E+01
 20
-5.11294654E+01
 40
2.60000000E+00
 50
2.70000000E+02
 51
9.00000002E+01
  0
CIRCLE
  8
0
 62
4
 10
-1.07263117E+01
 20
-5.11294654E+01
 40
5.00000000E+00
  0
LINE
  8
0
  6
CENTER
 62
6
 10
-2.53263117E+01
 20
-4.73694202E+01
 11
-2.53263117E+01
 21
-5.50723884E+01
  0
LINE
  8
0
  6
CENTER
 62
6
 10
3.87368830E+00
 20
-4.73694202E+01
 11
3.87368830E+00
 21
-5.50723884E+01
  0
LINE
  8
0
  6
CENTER
 62
6
 10
-2.83663117E+01
 20
-5.11294654E+01
 11
6.54378496E+00
 21
-5.11294654E+01
  0
LINE
  8
0
 62
4
 10
-3.17263117E+01
 20
-5.37294654E+01
 11
-2.53263117E+01
 21
-5.37294654E+01
  0
LINE
  8
0
 62
4
 10
3.87368830E+00
 20
-5.37294654E+01
 11
1.02736883E+01
 21
-5.37294654E+01
  0
LINE
  8
0
 62
4
 10
-3.17263117E+01
 20
-6.11294654E+01
 11
1.02736883E+01
 21
-6.11294654E+01
  0
LINE
  8
0
 62
4
 10
1.02736883E+01
 20
-5.37294654E+01
 11
1.02736883E+01
 21
-6.11294654E+01
  0
LINE
  8
0
 62
4
 10
-3.17263117E+01
 20
-5.37294654E+01
 11
-3.17263117E+01
 21
-6.11294654E+01
  0
LINE
  8
0
 62
4
 10
1.02736883E+01
 20
-4.11294654E+01
 11
1.02736883E+01
 21
-4.85294654E+01
  0
LINE
  8
0
 62
4
 10
-3.17263117E+01
 20
-4.11294654E+01
 11
-3.17263117E+01
 21
-4.85294654E+01
  0
LINE
  8
0
 62
4
 10
-3.17263117E+01
 20
-4.85294654E+01
 11
-2.53263117E+01
 21
-4.85294654E+01
  0
LINE
  8
0
 62
4
 10
3.87368830E+00
 20
-4.85294654E+01
 11
1.02736883E+01
 21
-4.85294654E+01
  0
LINE
  8
0
 62
4
 10
-3.17263117E+01
 20
-4.11294654E+01
 11
1.02736883E+01
 21
-4.11294654E+01
  0
LINE
  8
0
 62
4
 10
2.02736883E+01
 20
-4.11294654E+01
 11
2.02736883E+01
 21
-6.11294654E+01
  0
LINE
  8
0
 62
4
 10
2.25736883E+01
 20
-4.11294654E+01
 11
2.25736883E+01
 21
-6.11294654E+01
  0
LINE
  8
0
 62
4
 10
2.02736883E+01
 20
-5.37294654E+01
 11
2.25736883E+01
 21
-5.37294654E+01
  0
LINE
  8
0
 62
4
 10
2.02736883E+01
 20
-6.11294654E+01
 11
2.25736883E+01
 21
-6.11294654E+01
  0
LINE
  8
0
 62
4
 10
2.02736883E+01
 20
-4.85294654E+01
 11
2.25736883E+01
 21
-4.85294654E+01
  0
LINE
  8
0
 62
4
 10
2.02736883E+01
 20
-4.11294654E+01
 11
2.25736883E+01
 21
-4.11294654E+01
  0
LINE
  8
0
  6
CENTER
 62
6
 10
1.78709590E+01
 20
-5.11294654E+01
 11
2.48100080E+01
 21
-5.11294654E+01
  0
LINE
  8
0
  6
CENTER
 62
6
 10
3.87368833E+00
 20
-1.56930513E+01
 11
3.87368833E+00
 21
-2.18945288E+01
  0
LINE
  8
0
  6
CENTER
 62
6
 10
-2.53263117E+01
 20
-1.56930513E+01
 11
-2.53263117E+01
 21
-2.18945288E+01
  0
LINE
  8
0
 62
4
 10
-3.17263117E+01
 20
-1.99294654E+01
 11
1.02736883E+01
 21
-1.99294654E+01
  0
LINE
  8
0
 62
4
 10
-3.17263117E+01
 20
-1.76294654E+01
 11
1.02736883E+01
 21
-1.76294654E+01
  0
LINE
  8
0
 62
4
 10
-3.17263117E+01
 20
-1.76294654E+01
 11
-3.17263117E+01
 21
-1.99294654E+01
  0
LINE
  8
0
 62
4
 10
1.02736883E+01
 20
-1.76294654E+01
 11
1.02736883E+01
 21
-1.99294654E+01
  0
LINE
  8
0
  6
CENTER
 62
6
 10
-1.07263117E+01
 20
-1.56930513E+01
 11
-1.07263117E+01
 21
-2.18945288E+01
  0
LINE
  8
0
 62
4
 10
8.77943298E+01
 20
-8.13784095E+00
 11
8.77943298E+01
 21
-2.51378410E+01
  0
LINE
  8
0
 62
4
 10
8.95443298E+01
 20
-8.13784095E+00
 11
8.95443298E+01
 21
-1.23978410E+01
  0
LINE
  8
0
 62
4
 10
8.95443298E+01
 20
-2.08878410E+01
 11
8.95443298E+01
 21
-2.51378410E+01
  0
LINE
  8
0
 62
4
 10
9.50443298E+01
 20
-2.08878410E+01
 11
9.50443298E+01
 21
-2.51378410E+01
  0
LINE
  8
0
 62
4
 10
9.50443298E+01
 20
-8.13784095E+00
 11
9.50443298E+01
 21
-1.23978410E+01
  0
LINE
  8
0
 62
4
 10
9.67943298E+01
 20
-8.13784095E+00
 11
9.67943298E+01
 21
-2.51378410E+01
  0
LINE
  8
0
  6
CENTER
 62
6
 10
6.17205006E+01
 20
-1.66378410E+01
 11
9.75943298E+01
 21
-1.66378410E+01
  0
CIRCLE
  8
0
 62
6
 10
9.22893268E+01
 20
-1.66378532E+01
 40
2.64999962E+00
  0
LINE
  8
0
 62
4
 10
8.95443298E+01
 20
-1.23978410E+01
 11
9.50443298E+01
 21
-1.23978410E+01
  0
LINE
  8
0
 62
4
 10
8.95443298E+01
 20
-2.08878410E+01
 11
9.50443298E+01
 21
-2.08878410E+01
  0
CIRCLE
  8
0
 62
4
 10
9.22943298E+01
 20
-1.66378410E+01
 40
2.06700000E+00
  0
LINE
  8
0
  6
CENTER
 62
6
 10
9.22943298E+01
 20
-1.30878410E+01
 11
9.22943298E+01
 21
-2.03178410E+01
  0
ARC
  8
0
 62
4
 10
9.07714725E+01
 20
-1.66428410E+01
 40
6.02306688E+00
 50
3.15187383E+02
 51
4.48126171E+01
  0
ARC
  8
0
 62
4
 10
9.38071810E+01
 20
-1.66428410E+01
 40
6.01597252E+00
 50
1.35120218E+02
 51
2.24879782E+02
  0
LINE
  8
0
 62
4
 10
8.77943298E+01
 20
-8.13784095E+00
 11
9.67943298E+01
 21
-8.13784095E+00
  0
LINE
  8
0
 62
4
 10
8.77943298E+01
 20
-2.51378410E+01
 11
9.67943298E+01
 21
-2.51378410E+01
  0
LINE
  8
0
 62
4
 10
1.09294537E+02
 20
-1.23978410E+01
 11
1.09294537E+02
 21
-2.08878410E+01
  0
LINE
  8
0
 62
4
 10
1.26294537E+02
 20
-1.23978410E+01
 11
1.26294537E+02
 21
-2.08878410E+01
  0
LINE
  8
0
  6
CENTER
 62
6
 10
1.06944537E+02
 20
-1.66378410E+01
 11
1.28994537E+02
 21
-1.66378410E+01
  0
LINE
  8
0
  6
CENTER
 62
6
 10
1.17794537E+02
 20
-5.78784095E+00
 11
1.17794537E+02
 21
-2.64378410E+01
  0
LINE
  8
0
 62
4
 10
1.13554537E+02
 20
-8.13784095E+00
 11
1.22034537E+02
 21
-8.13784095E+00
  0
LINE
  8
0
 62
4
 10
1.13554537E+02
 20
-2.51378410E+01
 11
1.22034537E+02
 21
-2.51378410E+01
  0
ARC
  8
0
 62
4
 10
1.17792037E+02
 20
-1.66403414E+01
 40
9.50217468E+00
 50
2.65178620E+01
 51
6.34821378E+01
  0
ARC
  8
0
 62
4
 10
1.17792050E+02
 20
-1.66353536E+01
 40
9.49548496E+00
 50
1.16504369E+02
 51
1.53495631E+02
  0
ARC
  8
0
 62
4
 10
1.17787050E+02
 20
-1.66353581E+01
 40
9.49770359E+00
 50
2.06598649E+02
 51
2.43536006E+02
  0
ARC
  8
0
 62
4
 10
1.17797046E+02
 20
-1.66303668E+01
 40
9.50439122E+00
 50
2.96477458E+02
 51
3.33387887E+02
  0
CIRCLE
  8
0
 62
4
 10
1.17789550E+02
 20
-1.66378532E+01
 40
8.50000000E+00
  0
ARC
  8
0
 62
4
 10
8.78969250E+01
 20
-5.01563509E+01
 40
5.25761248E+00
 50
3.37506029E+02
 51
3.59983763E+02
  0
ARC
  8
0
 62
4
 10
9.44231034E+01
 20
-5.01541711E+01
 40
5.26856735E+00
 50
1.80039910E+02
 51
2.02470298E+02
  0
LINE
  8
0
 62
4
 10
9.31545373E+01
 20
-5.01578410E+01
 11
9.31545373E+01
 21
-6.21278410E+01
  0
LINE
  8
0
 62
4
 10
8.91545373E+01
 20
-5.01578410E+01
 11
8.91545373E+01
 21
-6.21278410E+01
  0
LINE
  8
0
  6
CENTER
 62
6
 10
5.59619758E+01
 20
-5.61378410E+01
 11
9.79045373E+01
 21
-5.61378410E+01
  0
LINE
  8
0
 62
4
 10
8.67945373E+01
 20
-4.76378410E+01
 11
8.67945373E+01
 21
-6.46378410E+01
  0
LINE
  8
0
 62
4
 10
7.95545373E+01
 20
-4.76378410E+01
 11
7.95545373E+01
 21
-5.18978410E+01
  0
LINE
  8
0
 62
4
 10
8.50445373E+01
 20
-4.76378410E+01
 11
8.50445373E+01
 21
-5.18978410E+01
  0
LINE
  8
0
 62
4
 10
7.95545373E+01
 20
-6.03878410E+01
 11
7.95545373E+01
 21
-6.46378410E+01
  0
LINE
  8
0
 62
4
 10
8.50445373E+01
 20
-6.03878410E+01
 11
8.50445373E+01
 21
-6.46378410E+01
  0
ARC
  8
0
 62
4
 10
9.44220999E+01
 20
-6.21243708E+01
 40
5.26756375E+00
 50
1.80037745E+02
 51
2.02472463E+02
  0
ARC
  8
0
 62
4
 10
8.78979306E+01
 20
-6.21265511E+01
 40
5.25660688E+00
 50
3.37503852E+02
 51
3.59985940E+02
  0
LINE
  8
0
 62
4
 10
7.78045373E+01
 20
-4.76378410E+01
 11
7.78045373E+01
 21
-6.46378410E+01
  0
ARC
  8
0
 62
4
 10
8.38173935E+01
 20
-5.61428410E+01
 40
6.01597604E+00
 50
1.35120251E+02
 51
2.24879748E+02
  0
LINE
  8
0
 62
6
 10
9.31545373E+01
 20
-6.03258410E+01
 11
9.37945373E+01
 21
-6.03258410E+01
  0
LINE
  8
0
 62
6
 10
9.31545373E+01
 20
-5.19498410E+01
 11
9.37945373E+01
 21
-5.19498410E+01
  0
LINE
  8
0
 62
6
 10
8.82945373E+01
 20
-5.19498410E+01
 11
8.91545373E+01
 21
-5.19498410E+01
  0
LINE
  8
0
 62
6
 10
8.82945373E+01
 20
-6.03258410E+01
 11
8.91545373E+01
 21
-6.03258410E+01
  0
CIRCLE
  8
0
 62
4
 10
8.23045373E+01
 20
-5.61378410E+01
 40
2.06700000E+00
  0
LINE
  8
0
 62
4
 10
8.95545373E+01
 20
-6.01178410E+01
 11
9.27545373E+01
 21
-6.01178410E+01
  0
LINE
  8
0
 62
4
 10
8.95545373E+01
 20
-5.21678410E+01
 11
9.27545373E+01
 21
-5.21678410E+01
  0
LINE
  8
0
 62
4
 10
7.95545373E+01
 20
-5.18978410E+01
 11
8.50445373E+01
 21
-5.18978410E+01
  0
LINE
  8
0
 62
4
 10
7.95545373E+01
 20
-6.03878410E+01
 11
8.50445373E+01
 21
-6.03878410E+01
  0
LINE
  8
0
  6
CENTER
 62
6
 10
8.23045373E+01
 20
-5.25878410E+01
 11
8.23045373E+01
 21
-5.98178410E+01
  0
LINE
  8
0
 62
4
 10
8.67945373E+01
 20
-5.11378410E+01
 11
8.91545373E+01
 21
-5.11378410E+01
  0
LINE
  8
0
 62
4
 10
8.67945373E+01
 20
-6.11378410E+01
 11
8.91545373E+01
 21
-6.11378410E+01
  0
LINE
  8
0
 62
4
 10
9.47945373E+01
 20
-5.21378410E+01
 11
9.47945373E+01
 21
-6.01378410E+01
  0
LINE
  8
0
 62
4
 10
9.37945373E+01
 20
-5.11378410E+01
 11
9.47945373E+01
 21
-5.21378410E+01
  0
LINE
  8
0
 62
4
 10
9.37945373E+01
 20
-6.11378410E+01
 11
9.47945373E+01
 21
-6.01378410E+01
  0
LINE
  8
0
 62
4
 10
9.37945373E+01
 20
-5.11378410E+01
 11
9.37945373E+01
 21
-6.11378410E+01
  0
LINE
  8
0
 62
4
 10
9.31545373E+01
 20
-5.11378410E+01
 11
9.37945373E+01
 21
-5.11378410E+01
  0
LINE
  8
0
 62
4
 10
9.31545373E+01
 20
-6.11378410E+01
 11
9.37945373E+01
 21
-6.11378410E+01
  0
LINE
  8
0
 62
4
 10
8.82945373E+01
 20
-5.11378410E+01
 11
8.82945373E+01
 21
-6.11378410E+01
  0
ARC
  8
0
 62
4
 10
1.09112695E+02
 20
-5.61435873E+01
 40
1.99581583E+01
 50
1.68509581E+02
 51
1.79983503E+02
  0
ARC
  8
0
 62
4
 10
1.09113692E+02
 20
-5.61419963E+01
 40
1.99591548E+01
 50
1.79988071E+02
 51
1.91490126E+02
  0
ARC
  8
0
 62
4
 10
9.44211925E+01
 20
-6.21311305E+01
 40
5.26665618E+00
 50
1.57525579E+02
 51
1.79964213E+02
  0
ARC
  8
0
 62
4
 10
7.32076327E+01
 20
-5.61424535E+01
 40
1.99469051E+01
 50
1.32491591E-02
 51
1.14936665E+01
  0
ARC
  8
0
 62
4
 10
7.32066359E+01
 20
-5.61431272E+01
 40
1.99479021E+01
 50
3.48506619E+02
 51
1.51836672E-02
  0
CIRCLE
  8
0
 62
6
 10
8.22995373E+01
 20
-5.61378532E+01
 40
2.64999962E+00
  0
ARC
  8
0
 62
4
 10
8.78988399E+01
 20
-6.21289499E+01
 40
5.25569749E+00
 50
1.20891728E-02
 51
2.24981188E+01
  0
ARC
  8
0
 62
4
 10
8.07816812E+01
 20
-5.61428410E+01
 40
6.01597604E+00
 50
3.15120252E+02
 51
4.48797486E+01
  0
LINE
  8
0
 62
4
 10
7.78045373E+01
 20
-4.76378410E+01
 11
8.67945373E+01
 21
-4.76378410E+01
  0
ARC
  8
0
 62
4
 10
8.78979334E+01
 20
-5.01491487E+01
 40
5.25661112E+00
 50
3.59905256E+02
 51
2.24963394E+01
  0
ARC
  8
0
 62
4
 10
9.44221013E+01
 20
-5.01513190E+01
 40
5.26756798E+00
 50
1.57527464E+02
 51
1.80070940E+02
  0
LINE
  8
0
 62
4
 10
8.95545373E+01
 20
-4.81378410E+01
 11
9.27545373E+01
 21
-4.81378410E+01
  0
LINE
  8
0
 62
4
 10
7.78045373E+01
 20
-6.46378410E+01
 11
8.67945373E+01
 21
-6.46378410E+01
  0
LINE
  8
0
 62
4
 10
8.95545373E+01
 20
-6.41378410E+01
 11
9.27545373E+01
 21
-6.41378410E+01
  0
LINE
  8
0
  6
CENTER
 62
6
 10
1.17794537E+02
 20
-4.52878410E+01
 11
1.17794537E+02
 21
-6.59378410E+01
  0
CIRCLE
  8
0
 62
6
 10
1.17794537E+02
 20
-5.61378410E+01
 40
4.18800000E+00
  0
LINE
  8
0
 62
4
 10
1.09294537E+02
 20
-5.18978410E+01
 11
1.09294537E+02
 21
-6.03878410E+01
  0
LINE
  8
0
 62
4
 10
1.26294537E+02
 20
-5.18978410E+01
 11
1.26294537E+02
 21
-6.03878410E+01
  0
LINE
  8
0
  6
CENTER
 62
6
 10
1.06944537E+02
 20
-5.61378410E+01
 11
1.28994537E+02
 21
-5.61378410E+01
  0
LINE
  8
0
 62
4
 10
1.13554537E+02
 20
-4.76378410E+01
 11
1.22034537E+02
 21
-4.76378410E+01
  0
LINE
  8
0
 62
4
 10
1.13554537E+02
 20
-6.46378410E+01
 11
1.22034537E+02
 21
-6.46378410E+01
  0
CIRCLE
  8
0
 62
4
 10
1.17804527E+02
 20
-5.61378379E+01
 40
5.00000000E+00
  0
ARC
  8
0
 62
4
 10
1.17797031E+02
 20
-5.61353475E+01
 40
9.49547678E+00
 50
2.65043528E+01
 51
6.34956470E+01
  0
ARC
  8
0
 62
4
 10
1.17797044E+02
 20
-5.61403475E+01
 40
9.50218287E+00
 50
1.16517879E+02
 51
1.53482121E+02
  0
ARC
  8
0
 62
4
 10
1.17792035E+02
 20
-5.61303607E+01
 40
9.50439941E+00
 50
2.06612129E+02
 51
2.43522525E+02
  0
ARC
  8
0
 62
4
 10
1.17802031E+02
 20
-5.61353642E+01
 40
9.49769541E+00
 50
2.96463977E+02
 51
3.33401368E+02
  0
CIRCLE
  8
0
 62
4
 10
1.17799537E+02
 20
-5.61378532E+01
 40
8.50000000E+00
  0
CIRCLE
  8
0
 62
4
 10
1.17794537E+02
 20
-5.61378394E+01
 40
7.00000000E+00
  0
LINE
  8
0
 62
4
 10
1.17794537E+02
 20
-4.80549357E+01
 11
1.24794539E+02
 21
-5.20963883E+01
  0
LINE
  8
0
 62
4
 10
1.10794536E+02
 20
-5.20963883E+01
 11
1.17794537E+02
 21
-4.80549357E+01
  0
LINE
  8
0
 62
4
 10
1.10794536E+02
 20
-6.01792936E+01
 11
1.10794536E+02
 21
-5.20963883E+01
  0
LINE
  8
0
 62
4
 10
1.17794537E+02
 20
-6.42207462E+01
 11
1.10794536E+02
 21
-6.01792936E+01
  0
LINE
  8
0
 62
4
 10
1.24794539E+02
 20
-6.01792936E+01
 11
1.17794537E+02
 21
-6.42207462E+01
  0
LINE
  8
0
 62
4
 10
1.24794539E+02
 20
-5.20963883E+01
 11
1.24794539E+02
 21
-6.01792936E+01
  0
LINE
  8
0
 62
7
 10
7.06613771E+01
 20
-8.13784095E+00
 11
8.77943298E+01
 21
-8.13784095E+00
  0
LINE
  8
0
 62
7
 10
6.47694919E+01
 20
-4.76378410E+01
 11
7.78045373E+01
 21
-4.76378410E+01
  0
LINE
  8
0
 62
2
 10
5.49545373E+01
 20
-6.46378410E+01
 11
6.47694919E+01
 21
-4.76378410E+01
  0
LINE
  8
0
 62
7
 10
5.49545373E+01
 20
-6.46378410E+01
 11
7.78045373E+01
 21
-6.46378410E+01
  0
LINE
  8
0
 62
2
 10
6.08464225E+01
 20
-2.51378410E+01
 11
7.06613771E+01
 21
-8.13784095E+00
  0
LINE
  8
0
 62
7
 10
6.08464225E+01
 20
-2.51378410E+01
 11
8.77943298E+01
 21
-2.51378410E+01
  0
TEXT
  8
0
 62
7
 10
-1.03849994E+02
 20
-8.24000031E+01
 40
3.20000005E+00
  1
5
 41
1.00000000E+00
  7
MONOTXT
  0
TEXT
  8
0
 62
7
 10
-1.07049994E+02
 20
-8.84000031E+01
 40
3.20000005E+00
  1
-45
 41
1.00000000E+00
  7
MONOTXT
  0
TEXT
  8
0
 62
7
 10
-9.58499939E+01
 20
-8.24000031E+01
 40
3.20000005E+00
  1
10
 41
1.00000000E+00
  7
MONOTXT
  0
TEXT
  8
0
 62
7
 10
-9.74499940E+01
 20
-8.84000031E+01
 40
3.20000005E+00
  1
-40
 41
1.00000000E+00
  7
MONOTXT
  0
TEXT
  8
0
 62
7
 10
-8.62499939E+01
 20
-8.24000031E+01
 40
3.20000005E+00
  1
15
 41
1.00000000E+00
  7
MONOTXT
  0
TEXT
  8
0
 62
7
 10
-8.78499940E+01
 20
-8.84000031E+01
 40
3.20000005E+00
  1
-35
 41
1.00000000E+00
  7
MONOTXT
  0
TEXT
  8
0
 62
7
 10
-7.66499939E+01
 20
-8.24000031E+01
 40
3.20000005E+00
  1
20
 41
1.00000000E+00
  7
MONOTXT
  0
TEXT
  8
0
 62
7
 10
-7.82499940E+01
 20
-8.84000031E+01
 40
3.20000005E+00
  1
-25
 41
1.00000000E+00
  7
MONOTXT
  0
TEXT
  8
0
 62
7
 10
-6.70499939E+01
 20
-8.24000031E+01
 40
3.20000005E+00
  1
25
 41
1.00000000E+00
  7
MONOTXT
  0
TEXT
  8
0
 62
7
 10
-6.86499940E+01
 20
-8.84000031E+01
 40
3.20000005E+00
  1
-20
 41
1.00000000E+00
  7
MONOTXT
  0
TEXT
  8
0
 62
7
 10
-5.74499939E+01
 20
-8.24000031E+01
 40
3.20000005E+00
  1
30
 41
1.00000000E+00
  7
MONOTXT
  0
TEXT
  8
0
 62
7
 10
-5.90499940E+01
 20
-8.84000031E+01
 40
3.20000005E+00
  1
-15
 41
1.00000000E+00
  7
MONOTXT
  0
TEXT
  8
0
 62
7
 10
-4.78499939E+01
 20
-8.24000031E+01
 40
3.20000005E+00
  1
35
 41
1.00000000E+00
  7
MONOTXT
  0
TEXT
  8
0
 62
7
 10
-4.62499939E+01
 20
-8.84000031E+01
 40
3.20000005E+00
  1
0
 41
1.00000000E+00
  7
MONOTXT
  0
TEXT
  8
0
 62
7
 10
-3.82499939E+01
 20
-8.24000031E+01
 40
3.20000005E+00
  1
40
 41
1.00000000E+00
  7
MONOTXT
  0
TEXT
  8
0
 62
7
 10
-3.66499939E+01
 20
-8.84000031E+01
 40
3.20000005E+00
  1
5
 41
1.00000000E+00
  7
MONOTXT
  0
TEXT
  8
0
 62
7
 10
-2.86499939E+01
 20
-8.24000031E+01
 40
3.20000005E+00
  1
45
 41
1.00000000E+00
  7
MONOTXT
  0
TEXT
  8
0
 62
7
 10
-2.86499939E+01
 20
-8.84000031E+01
 40
3.20000005E+00
  1
10
 41
1.00000000E+00
  7
MONOTXT
  0
TEXT
  8
0
 62
7
 10
-1.90499939E+01
 20
-8.24000031E+01
 40
3.20000005E+00
  1
50
 41
1.00000000E+00
  7
MONOTXT
  0
TEXT
  8
0
 62
7
 10
-1.90499939E+01
 20
-8.84000031E+01
 40
3.20000005E+00
  1
15
 41
1.00000000E+00
  7
MONOTXT
  0
TEXT
  8
0
 62
7
 10
-9.44999392E+00
 20
-8.24000031E+01
 40
3.20000005E+00
  1
55
 41
1.00000000E+00
  7
MONOTXT
  0
TEXT
  8
0
 62
7
 10
-9.44999392E+00
 20
-8.84000031E+01
 40
3.20000005E+00
  1
20
 41
1.00000000E+00
  7
MONOTXT
  0
TEXT
  8
0
 62
7
 10
1.50006081E-01
 20
-8.24000031E+01
 40
3.20000005E+00
  1
60
 41
1.00000000E+00
  7
MONOTXT
  0
TEXT
  8
0
 62
7
 10
1.50006081E-01
 20
-8.84000031E+01
 40
3.20000005E+00
  1
25
 41
1.00000000E+00
  7
MONOTXT
  0
TEXT
  8
0
 62
7
 10
-8.12810173E+01
 20
-7.58649018E+01
 40
3.20000005E+00
  1
STRETCH LIST
 41
1.05263158E+00
  7
MONOTXT
  0
TEXT
  8
0
 62
7
 10
-3.35968753E+00
 20
-7.68384232E+01
 40
3.20000005E+00
  1
(mm)
 41
1.00000000E+00
  7
MONOTXT
  0
TEXT
  8
0
 62
7
 10
-1.31249994E+02
 20
-8.84000031E+01
 40
3.20000005E+00
  1
STRETCH
 41
1.00000000E+00
  7
MONOTXT
  0
TEXT
  8
0
 62
7
 10
-1.29649994E+02
 20
-8.24000031E+01
 40
3.20000005E+00
  1
STROKE
 41
1.00000000E+00
  7
MONOTXT
  0
TEXT
  8
0
 62
7
 10
1.50006081E-01
 20
-8.24000031E+01
 40
3.20000005E+00
  1
60
 41
1.00000000E+00
  7
MONOTXT
  0
LINE
  8
0
 62
7
 10
7.80000610E+00
 20
-8.98000031E+01
 11
7.80000610E+00
 21
-7.78000031E+01
  0
TEXT
  8
0
 62
7
 10
-9.44999392E+00
 20
-8.24000031E+01
 40
3.20000005E+00
  1
55
 41
1.00000000E+00
  7
MONOTXT
  0
LINE
  8
0
 62
7
 10
-1.79999390E+00
 20
-8.98000031E+01
 11
-1.79999390E+00
 21
-7.78000031E+01
  0
TEXT
  8
0
 62
7
 10
-1.90499939E+01
 20
-8.24000031E+01
 40
3.20000005E+00
  1
50
 41
1.00000000E+00
  7
MONOTXT
  0
LINE
  8
0
 62
7
 10
-1.13999939E+01
 20
-8.98000031E+01
 11
-1.13999939E+01
 21
-7.78000031E+01
  0
TEXT
  8
0
 62
7
 10
-2.86499939E+01
 20
-8.24000031E+01
 40
3.20000005E+00
  1
45
 41
1.00000000E+00
  7
MONOTXT
  0
LINE
  8
0
 62
7
 10
-2.09999939E+01
 20
-8.98000031E+01
 11
-2.09999939E+01
 21
-7.78000031E+01
  0
TEXT
  8
0
 62
7
 10
-3.82499939E+01
 20
-8.24000031E+01
 40
3.20000005E+00
  1
40
 41
1.00000000E+00
  7
MONOTXT
  0
LINE
  8
0
 62
7
 10
-3.05999939E+01
 20
-8.98000031E+01
 11
-3.05999939E+01
 21
-7.78000031E+01
  0
TEXT
  8
0
 62
7
 10
-4.78499939E+01
 20
-8.24000031E+01
 40
3.20000005E+00
  1
35
 41
1.00000000E+00
  7
MONOTXT
  0
LINE
  8
0
 62
7
 10
-4.01999939E+01
 20
-8.98000031E+01
 11
-4.01999939E+01
 21
-7.78000031E+01
  0
TEXT
  8
0
 62
7
 10
-5.74499939E+01
 20
-8.24000031E+01
 40
3.20000005E+00
  1
30
 41
1.00000000E+00
  7
MONOTXT
  0
LINE
  8
0
 62
7
 10
-4.97999939E+01
 20
-8.98000031E+01
 11
-4.97999939E+01
 21
-7.78000031E+01
  0
TEXT
  8
0
 62
7
 10
-6.70499939E+01
 20
-8.24000031E+01
 40
3.20000005E+00
  1
25
 41
1.00000000E+00
  7
MONOTXT
  0
LINE
  8
0
 62
7
 10
-5.93999939E+01
 20
-8.98000031E+01
 11
-5.93999939E+01
 21
-7.78000031E+01
  0
TEXT
  8
0
 62
7
 10
-7.66499939E+01
 20
-8.24000031E+01
 40
3.20000005E+00
  1
20
 41
1.00000000E+00
  7
MONOTXT
  0
LINE
  8
0
 62
7
 10
-6.89999939E+01
 20
-8.98000031E+01
 11
-6.89999939E+01
 21
-7.78000031E+01
  0
TEXT
  8
0
 62
7
 10
-8.62499939E+01
 20
-8.24000031E+01
 40
3.20000005E+00
  1
15
 41
1.00000000E+00
  7
MONOTXT
  0
LINE
  8
0
 62
7
 10
-7.85999939E+01
 20
-8.98000031E+01
 11
-7.85999939E+01
 21
-7.78000031E+01
  0
TEXT
  8
0
 62
7
 10
-9.58499939E+01
 20
-8.24000031E+01
 40
3.20000005E+00
  1
10
 41
1.00000000E+00
  7
MONOTXT
  0
LINE
  8
0
 62
7
 10
-8.81999939E+01
 20
-8.98000031E+01
 11
-8.81999939E+01
 21
-7.78000031E+01
  0
TEXT
  8
0
 62
7
 10
-1.03849994E+02
 20
-8.24000031E+01
 40
3.20000005E+00
  1
5
 41
1.00000000E+00
  7
MONOTXT
  0
LINE
  8
0
 62
7
 10
-1.33399994E+02
 20
-7.78000031E+01
 11
7.80000610E+00
 21
-7.78000031E+01
  0
LINE
  8
0
 62
7
 10
-9.77999939E+01
 20
-8.98000031E+01
 11
-9.77999939E+01
 21
-7.78000031E+01
  0
LINE
  8
0
 62
7
 10
-1.07399994E+02
 20
-8.98000031E+01
 11
-1.07399994E+02
 21
-7.78000031E+01
  0
LINE
  8
0
 62
7
 10
-1.33399994E+02
 20
-8.38000031E+01
 11
7.80000610E+00
 21
-8.38000031E+01
  0
LINE
  8
0
 62
7
 10
-1.33399994E+02
 20
-8.98000031E+01
 11
-1.33399994E+02
 21
-7.78000031E+01
  0
LINE
  8
0
 62
7
 10
-1.33399994E+02
 20
-8.98000031E+01
 11
7.80000610E+00
 21
-8.98000031E+01
  0
TEXT
  8
0
 10
7.84187887E+00
 20
5.29570079E+01
 40
3.20000005E+00
  1
STRETCH LINE
 41
1.05263158E+00
  7
MONOTXT
  0
LINE
  8
0
 62
7
 10
-1.38399994E+02
 20
9.45000000E+01
 11
1.38350006E+02
 21
9.45000000E+01
  0
LINE
  8
0
 62
7
 10
1.38350006E+02
 20
9.45000000E+01
 11
1.38350006E+02
 21
-9.48000031E+01
  0
LINE
  8
0
 62
7
 10
-1.38399994E+02
 20
-9.48000031E+01
 11
1.38350006E+02
 21
-9.48000031E+01
  0
LINE
  8
0
 62
7
 10
-1.38399994E+02
 20
9.45000000E+01
 11
-1.38399994E+02
 21
-9.48000031E+01
  0
LINE
  8
0
 62
7
 10
7.33500061E+01
 20
-8.48000031E+01
 11
1.38350006E+02
 21
-8.48000031E+01
  0
LINE
  8
0
 62
7
 10
-1.38399994E+02
 20
8.45000000E+01
 11
-7.33999939E+01
 21
8.45000000E+01
  0
LINE
  8
0
 62
7
 10
7.33500061E+01
 20
8.45000000E+01
 11
1.38350006E+02
 21
8.45000000E+01
  0
LINE
  8
0
 62
7
 10
7.33500061E+01
 20
-8.48000031E+01
 11
7.33500061E+01
 21
-9.48000031E+01
  0
LINE
  8
0
 62
7
 10
7.33500061E+01
 20
9.45000000E+01
 11
7.33500061E+01
 21
8.45000000E+01
  0
LINE
  8
0
 62
7
 10
-7.33999939E+01
 20
9.45000000E+01
 11
-7.33999939E+01
 21
8.45000000E+01
  0
TEXT
  8
0
 62
7
 10
7.72426624E+01
 20
-9.20500031E+01
 40
4.50000000E+00
  1
KOGANEI CORP.
 41
1.04838710E+00
  7
MONOTXT
  0
TEXT
  8
0
 62
7
 10
9.35071483E+01
 20
8.79000000E+01
 40
3.20000005E+00
  1
Ver. 1.1
 41
1.08108108E+00
  7
MONOTXT
  0
TEXT
  8
0
 62
7
 10
-1.31042852E+02
 20
8.79000000E+01
 40
3.20000005E+00
  1
NEW PEN CYLINDER
 41
1.08108108E+00
  7
MONOTXT
  0
TEXT
  8
0
 62
7
 10
-1.29085994E+02
 20
7.29000000E+01
 40
3.20000005E+00
  1
MODEL:PBSAS16*ST(35)-ZC230
 41
1.00000000E+00
  7
MONOTXT
  0
ENDSEC
  0
EOF
