  0
SECTION
  2
HEADER
  9
$ACADVER
  1
AC1003
  9
$EXTMIN
 10
-1.38399994E+02
 20
-9.48000031E+01
  9
$EXTMAX
 10
1.38350006E+02
 20
9.45000000E+01
  9
$LIMMIN
 10
-1.38400994E+02
 20
-9.48010031E+01
  9
$LIMMAX
 10
1.38351006E+02
 20
9.45010000E+01
  9
$SNAPUNIT
 10
1
 20
1
  9
$SNAPBASE
 10
0
 20
0
  9
$GRIDMODE
 70
0
  9
$GRIDUNIT
 10
0
 20
0
  9
$LTSCALE
 40
4.61250000E+00
  9
$TEXTSIZE
 40
3.2
  9
$DIMTAD
 70
0
  9
$LUNITS
 70
2
  9
$LUPREC
 70
4
  9
$FILLETRAD
 40
0
  9
$AUNITS
 70
0
  9
$AUPREC
 70
0
  0
ENDSEC
  0
SECTION
  2
TABLES
  0
TABLE
  2
LTYPE
 70
2
  0
LTYPE
  2
CONTINUOUS
 70
64
  3
Solid-Line
 72
65
 73
0
 40
0
  0
LTYPE
  2
DASHED
 70
64
  3
DASHED
 72
65
 73
2
 40
.75
 49
.5
 49
-.25
  0
LTYPE
  2
HIDDEN
 70
64
  3
HIDDEN
 72
65
 73
2
 40
.375
 49
.25
 49
-.125
  0
LTYPE
  2
CENTER
 70
64
  3
CENTER
 72
65
 73
4
 40
2
 49
1.25
 49
-.25
 49
.25
 49
-.25
  0
LTYPE
  2
PHANTOM
 70
64
  3
PHANTOM
 72
65
 73
6
 40
2.5
 49
1.25
 49
-.25
 49
.25
 49
-.25
 49
.25
 49
-.25
  0
ENDTAB
  0
TABLE
  2
LAYER
 70
1
  0
LAYER
  2
1
 70
0
 62
7
  6
CONTINUOUS
 0
ENDTAB
  0
TABLE
  2
STYLE
 70
2
  0
STYLE
  2
MONOTXT
 70
0
 40
0
 41
1
 50
0
 71
0
 42
.2
  3
monotxt
  0
STYLE
  2
BIGFONT
 70
0
 40
0
 41
1
 50
0
 71
0
 42
.2
  3
txt
  4
bigfont
  0
ENDTAB
  0
ENDSEC
  0
SECTION
  2
ENTITIES
  0
LINE
  8
0
  6
CENTER
 62
6
 10
-7.45698760E+00
 20
4.33289387E+01
 11
-7.45698760E+00
 21
1.58989387E+01
  0
LINE
  8
0
 62
4
 10
-2.95698760E+00
 20
3.18189387E+01
 11
-2.95698760E+00
 21
3.83189387E+01
  0
LINE
  8
0
 62
4
 10
-1.19569876E+01
 20
3.18189387E+01
 11
-1.19569876E+01
 21
3.83189387E+01
  0
LINE
  8
0
  6
CENTER
 62
6
 10
2.75330124E+01
 20
4.33289387E+01
 11
2.75330124E+01
 21
1.58989387E+01
  0
LINE
  8
0
 62
4
 10
3.20330124E+01
 20
3.18189387E+01
 11
3.20330124E+01
 21
3.83189387E+01
  0
LINE
  8
0
 62
4
 10
2.30330124E+01
 20
3.18189387E+01
 11
2.30330124E+01
 21
3.83189387E+01
  0
LINE
  8
0
  6
CENTER
 10
1.39497337E+01
 20
9.25555557E+00
 11
1.39497337E+01
 21
4.09936921E+01
  0
TEXT
  8
0
 62
7
 10
4.57074899E-01
 20
1.89189387E+01
 40
1.50000000E+00
  1
PBSAS10-7
 41
1.00000000E+00
  7
MONOTXT
  0
LINE
  8
0
 62
7
 10
5.90330124E+01
 20
2.35748072E+01
 11
5.90330124E+01
 21
1.73189387E+01
  0
ARC
  8
0
 62
7
 10
5.44503143E+01
 20
2.33189387E+01
 40
4.58871205E+00
 50
2.93373625E+00
 51
5.18794002E+01
  0
ARC
  8
0
 62
7
 10
-3.98770481E+01
 20
2.33189387E+01
 40
5.08409939E+00
 50
1.82317942E+02
 51
2.25239548E+02
  0
LINE
  8
0
 62
4
 10
3.45330124E+01
 20
3.36189387E+01
 11
4.00330124E+01
 21
3.36189387E+01
  0
LINE
  8
0
 62
4
 10
3.45330124E+01
 20
2.96189387E+01
 11
4.00330124E+01
 21
2.96189387E+01
  0
LINE
  8
0
 62
4
 10
2.05330124E+01
 20
3.14189387E+01
 11
2.05330124E+01
 21
2.83189387E+01
  0
LINE
  8
0
 62
4
 10
3.45330124E+01
 20
3.14189387E+01
 11
3.45330124E+01
 21
2.83189387E+01
  0
LINE
  8
0
 62
4
 10
2.30330124E+01
 20
3.18189387E+01
 11
3.20330124E+01
 21
3.18189387E+01
  0
LINE
  8
0
 62
4
 10
3.20330124E+01
 20
3.14189387E+01
 11
3.45330124E+01
 21
3.14189387E+01
  0
LINE
  8
0
 62
4
 10
3.20330124E+01
 20
3.46189387E+01
 11
3.45330124E+01
 21
3.46189387E+01
  0
LINE
  8
0
 62
4
 10
2.05330124E+01
 20
3.46189387E+01
 11
2.30330124E+01
 21
3.46189387E+01
  0
LINE
  8
0
 62
4
 10
2.05330124E+01
 20
3.18189387E+01
 11
2.30330124E+01
 21
3.18189387E+01
  0
LINE
  8
0
 62
4
 10
2.05330124E+01
 20
3.14189387E+01
 11
2.30330124E+01
 21
3.14189387E+01
  0
LINE
  8
0
 62
4
 10
2.30330124E+01
 20
1.76728860E+01
 11
3.20330124E+01
 21
1.76728860E+01
  0
LINE
  8
0
 62
4
 10
2.05330124E+01
 20
3.36189387E+01
 11
1.60330124E+01
 21
3.36189387E+01
  0
LINE
  8
0
 62
4
 10
3.20330124E+01
 20
3.18189387E+01
 11
3.20330124E+01
 21
1.76689387E+01
  0
LINE
  8
0
 62
4
 10
2.30330124E+01
 20
3.18189387E+01
 11
2.30330124E+01
 21
1.76689387E+01
  0
LINE
  8
0
 62
4
 10
3.20330124E+01
 20
3.18189387E+01
 11
3.45330124E+01
 21
3.18189387E+01
  0
LINE
  8
0
 62
4
 10
2.30330124E+01
 20
1.76689387E+01
 11
3.20330124E+01
 21
1.76689387E+01
  0
LINE
  8
0
 62
4
 10
1.50330124E+01
 20
3.26189387E+01
 11
1.50330124E+01
 21
3.06189387E+01
  0
LINE
  8
0
 62
4
 10
1.60330124E+01
 20
2.96189387E+01
 11
2.05330124E+01
 21
2.96189387E+01
  0
LINE
  8
0
 62
4
 10
1.60330124E+01
 20
3.36189387E+01
 11
1.60330124E+01
 21
2.96189387E+01
  0
LINE
  8
0
 62
4
 10
1.50330124E+01
 20
3.26189387E+01
 11
1.60330124E+01
 21
3.36189387E+01
  0
LINE
  8
0
 62
4
 10
1.50330124E+01
 20
3.06189387E+01
 11
1.60330124E+01
 21
2.96189387E+01
  0
LINE
  8
0
 62
4
 10
3.45330124E+01
 20
3.46189387E+01
 11
3.45330124E+01
 21
3.18189387E+01
  0
LINE
  8
0
 62
4
 10
2.05330124E+01
 20
3.46189387E+01
 11
2.05330124E+01
 21
3.18189387E+01
  0
LINE
  8
0
 62
4
 10
2.05330124E+01
 20
2.83189387E+01
 11
2.30330124E+01
 21
2.83189387E+01
  0
LINE
  8
0
 62
4
 10
3.20330124E+01
 20
2.83189387E+01
 11
3.45330124E+01
 21
2.83189387E+01
  0
LINE
  8
0
 62
4
 10
4.30330124E+01
 20
3.29189387E+01
 11
4.79700115E+01
 21
3.29189387E+01
  0
LINE
  8
0
 62
4
 10
4.30330124E+01
 20
3.03189387E+01
 11
4.53700115E+01
 21
3.03189387E+01
  0
LINE
  8
0
 62
4
 10
4.00330124E+01
 20
2.96189387E+01
 11
4.30330124E+01
 21
3.03189387E+01
  0
LINE
  8
0
 62
4
 10
4.00330124E+01
 20
3.36189387E+01
 11
4.30330124E+01
 21
3.29189387E+01
  0
LINE
  8
0
 62
4
 10
4.00330124E+01
 20
3.36189387E+01
 11
4.00330124E+01
 21
2.96189387E+01
  0
LINE
  8
0
 62
4
 10
4.30330124E+01
 20
3.29189387E+01
 11
4.30330124E+01
 21
3.03189387E+01
  0
LINE
  8
0
 62
6
 10
4.79700115E+01
 20
3.29189387E+01
 11
4.53700115E+01
 21
3.03189387E+01
  0
LINE
  8
0
 62
4
 10
-4.56987601E-01
 20
3.36189387E+01
 11
5.04301240E+00
 21
3.36189387E+01
  0
LINE
  8
0
 62
4
 10
-4.56987601E-01
 20
2.96189387E+01
 11
5.04301240E+00
 21
2.96189387E+01
  0
LINE
  8
0
 62
4
 10
-1.44569876E+01
 20
3.14189387E+01
 11
-1.44569876E+01
 21
2.83189387E+01
  0
LINE
  8
0
 62
4
 10
-4.56987601E-01
 20
3.14189387E+01
 11
-4.56987601E-01
 21
2.83189387E+01
  0
LINE
  8
0
 62
4
 10
-1.19569876E+01
 20
3.18189387E+01
 11
-2.95698760E+00
 21
3.18189387E+01
  0
LINE
  8
0
 62
4
 10
-2.95698760E+00
 20
3.14189387E+01
 11
-4.56987610E-01
 21
3.14189387E+01
  0
LINE
  8
0
 62
4
 10
-2.95698760E+00
 20
3.46189387E+01
 11
-4.56987610E-01
 21
3.46189387E+01
  0
LINE
  8
0
 62
4
 10
-1.44569876E+01
 20
3.46189387E+01
 11
-1.19569876E+01
 21
3.46189387E+01
  0
LINE
  8
0
 62
4
 10
-1.44569876E+01
 20
3.18189387E+01
 11
-1.19569876E+01
 21
3.18189387E+01
  0
LINE
  8
0
 62
4
 10
-1.44569876E+01
 20
3.14189387E+01
 11
-1.19569876E+01
 21
3.14189387E+01
  0
LINE
  8
0
 62
4
 10
-1.19569876E+01
 20
1.76728860E+01
 11
-2.95698761E+00
 21
1.76728860E+01
  0
LINE
  8
0
 62
4
 10
-1.44569876E+01
 20
3.36189387E+01
 11
-1.89569876E+01
 21
3.36189387E+01
  0
LINE
  8
0
 62
4
 10
-2.95698760E+00
 20
3.18189387E+01
 11
-2.95698760E+00
 21
1.76689387E+01
  0
LINE
  8
0
 62
4
 10
-1.19569876E+01
 20
3.18189387E+01
 11
-1.19569876E+01
 21
1.76689387E+01
  0
LINE
  8
0
 62
4
 10
-2.95698760E+00
 20
3.18189387E+01
 11
-4.56987601E-01
 21
3.18189387E+01
  0
LINE
  8
0
 62
4
 10
-1.19569876E+01
 20
1.76689387E+01
 11
-2.95698760E+00
 21
1.76689387E+01
  0
LINE
  8
0
 62
4
 10
-1.99569876E+01
 20
3.26189387E+01
 11
-1.99569876E+01
 21
3.06189387E+01
  0
LINE
  8
0
 62
4
 10
-1.89569876E+01
 20
2.96189387E+01
 11
-1.44569876E+01
 21
2.96189387E+01
  0
LINE
  8
0
 62
4
 10
-1.89569876E+01
 20
3.36189387E+01
 11
-1.89569876E+01
 21
2.96189387E+01
  0
LINE
  8
0
 62
4
 10
-1.99569876E+01
 20
3.26189387E+01
 11
-1.89569876E+01
 21
3.36189387E+01
  0
LINE
  8
0
 62
4
 10
-1.99569876E+01
 20
3.06189387E+01
 11
-1.89569876E+01
 21
2.96189387E+01
  0
LINE
  8
0
 62
4
 10
-4.56987601E-01
 20
3.46189387E+01
 11
-4.56987601E-01
 21
3.18189387E+01
  0
LINE
  8
0
 62
4
 10
-1.44569876E+01
 20
3.46189387E+01
 11
-1.44569876E+01
 21
3.18189387E+01
  0
LINE
  8
0
 62
4
 10
-1.44569876E+01
 20
2.83189387E+01
 11
-1.19569876E+01
 21
2.83189387E+01
  0
LINE
  8
0
 62
4
 10
-2.95698760E+00
 20
2.83189387E+01
 11
-4.56987601E-01
 21
2.83189387E+01
  0
LINE
  8
0
 62
4
 10
8.04301239E+00
 20
3.29189387E+01
 11
1.29800115E+01
 21
3.29189387E+01
  0
LINE
  8
0
 62
4
 10
8.04301239E+00
 20
3.03189387E+01
 11
1.03800115E+01
 21
3.03189387E+01
  0
LINE
  8
0
 62
4
 10
5.04301240E+00
 20
2.96189387E+01
 11
8.04301239E+00
 21
3.03189387E+01
  0
LINE
  8
0
 62
4
 10
5.04301240E+00
 20
3.36189387E+01
 11
8.04301240E+00
 21
3.29189387E+01
  0
LINE
  8
0
 62
4
 10
5.04301240E+00
 20
3.36189387E+01
 11
5.04301240E+00
 21
2.96189387E+01
  0
LINE
  8
0
 62
4
 10
8.04301240E+00
 20
3.29189387E+01
 11
8.04301240E+00
 21
3.03189387E+01
  0
LINE
  8
0
 62
6
 10
1.29800115E+01
 20
3.29189387E+01
 11
1.03800115E+01
 21
3.03189387E+01
  0
LINE
  8
0
 62
7
 10
-2.95698760E+00
 20
1.78189387E+01
 11
2.30330124E+01
 21
1.78189387E+01
  0
LINE
  8
0
 62
7
 10
-4.56987601E-01
 20
2.88189387E+01
 11
2.05330124E+01
 21
2.88189387E+01
  0
LINE
  8
0
 62
7
 10
3.20330124E+01
 20
1.78189387E+01
 11
3.70430124E+01
 21
1.78189387E+01
  0
LINE
  8
0
 62
7
 10
3.45330124E+01
 20
2.88189387E+01
 11
3.70430124E+01
 21
2.88189387E+01
  0
LINE
  8
0
 62
7
 10
-4.19569876E+01
 20
2.88189387E+01
 11
-1.44569876E+01
 21
2.88189387E+01
  0
LINE
  8
0
 62
7
 10
-4.19569876E+01
 20
1.78189387E+01
 11
-1.19569876E+01
 21
1.78189387E+01
  0
LINE
  8
0
 62
7
 10
3.87740154E+01
 20
1.97089387E+01
 11
3.87740154E+01
 21
1.73189387E+01
  0
ARC
  8
0
 62
7
 10
4.16728343E+01
 20
2.33189387E+01
 40
4.62982188E+00
 50
1.28764356E+02
 51
2.31235644E+02
  0
LINE
  8
0
 62
7
 10
3.87740154E+01
 20
2.93189387E+01
 11
3.87740154E+01
 21
2.69289387E+01
  0
LINE
  8
0
 62
2
 10
-6.01769876E+01
 20
2.16979387E+01
 11
-5.29569876E+01
 21
2.16979387E+01
  0
LINE
  8
0
 62
2
 10
-6.01769876E+01
 20
2.49399387E+01
 11
-5.29569876E+01
 21
2.49399387E+01
  0
LINE
  8
0
 62
2
 10
-5.28334876E+01
 20
1.99954387E+01
 11
-4.64569876E+01
 21
1.99954387E+01
  0
LINE
  8
0
 62
7
 10
-5.21569876E+01
 20
1.93189387E+01
 11
-4.49569876E+01
 21
1.93189387E+01
  0
LINE
  8
0
 62
7
 10
-5.29569876E+01
 20
2.01189387E+01
 11
-5.21569876E+01
 21
1.93189387E+01
  0
LINE
  8
0
 62
7
 10
-5.29569876E+01
 20
2.65189387E+01
 11
-5.29569876E+01
 21
2.01189387E+01
  0
LINE
  8
0
 62
7
 10
-4.64569876E+01
 20
2.73189387E+01
 11
-4.64569876E+01
 21
1.93189387E+01
  0
LINE
  8
0
 62
2
 10
-5.28334876E+01
 20
2.66424387E+01
 11
-4.64569876E+01
 21
2.66424387E+01
  0
LINE
  8
0
 62
7
 10
-5.21569876E+01
 20
2.73189387E+01
 11
-4.49569876E+01
 21
2.73189387E+01
  0
LINE
  8
0
 62
7
 10
-5.21569876E+01
 20
2.73189387E+01
 11
-5.29569876E+01
 21
2.65189387E+01
  0
LINE
  8
0
 62
7
 10
-5.21569876E+01
 20
2.73189387E+01
 11
-5.21569876E+01
 21
1.93189387E+01
  0
LINE
  8
0
 62
7
 10
-4.19569876E+01
 20
2.93189387E+01
 11
-4.19569876E+01
 21
1.73189387E+01
  0
LINE
  8
0
 62
7
 10
-4.49569876E+01
 20
2.93189387E+01
 11
-4.19569876E+01
 21
2.93189387E+01
  0
LINE
  8
0
 62
7
 10
-4.49569876E+01
 20
1.73189387E+01
 11
-4.19569876E+01
 21
1.73189387E+01
  0
LINE
  8
0
 62
7
 10
-4.49569876E+01
 20
2.93189387E+01
 11
-4.49569876E+01
 21
1.73189387E+01
  0
LINE
  8
0
 62
4
 10
-6.33769876E+01
 20
2.67189387E+01
 11
-6.33769876E+01
 21
1.99189387E+01
  0
LINE
  8
0
 62
4
 10
-6.01769876E+01
 20
2.67189387E+01
 11
-6.01769876E+01
 21
1.99189387E+01
  0
LINE
  8
0
 62
4
 10
-6.30069876E+01
 20
2.73589387E+01
 11
-6.05469876E+01
 21
2.73589387E+01
  0
LINE
  8
0
 62
4
 10
-6.30069876E+01
 20
1.92789387E+01
 11
-6.05469876E+01
 21
1.92789387E+01
  0
LINE
  8
0
 62
4
 10
-6.30069876E+01
 20
2.53389387E+01
 11
-6.05469876E+01
 21
2.53389387E+01
  0
LINE
  8
0
 62
4
 10
-6.30069876E+01
 20
2.12989387E+01
 11
-6.05469876E+01
 21
2.12989387E+01
  0
LINE
  8
0
 62
7
 10
-6.01769876E+01
 20
2.53189387E+01
 11
-5.29569876E+01
 21
2.53189387E+01
  0
LINE
  8
0
 62
7
 10
-6.01769876E+01
 20
2.13189387E+01
 11
-5.29569876E+01
 21
2.13189387E+01
  0
LINE
  8
0
 62
4
 10
-6.33769876E+01
 20
2.67189387E+01
 11
-6.30069876E+01
 21
2.73589387E+01
  0
LINE
  8
0
 62
4
 10
-6.05469876E+01
 20
2.73589387E+01
 11
-6.01769876E+01
 21
2.67189387E+01
  0
LINE
  8
0
 62
4
 10
-6.33769876E+01
 20
1.99189387E+01
 11
-6.30069876E+01
 21
1.92789387E+01
  0
LINE
  8
0
 62
4
 10
-6.05469876E+01
 20
1.92789387E+01
 11
-6.01769876E+01
 21
1.99189387E+01
  0
LINE
  8
0
 62
7
 10
5.90330124E+01
 20
2.93189387E+01
 11
5.90330124E+01
 21
2.35748072E+01
  0
LINE
  8
0
  6
CENTER
 62
2
 10
4.15330124E+01
 20
3.13089387E+01
 11
4.15330124E+01
 21
2.69289387E+01
  0
LINE
  8
0
  6
CENTER
 62
2
 10
5.40330124E+01
 20
2.69289387E+01
 11
5.40330124E+01
 21
1.97089387E+01
  0
LINE
  8
0
 62
7
 10
3.70430124E+01
 20
2.93189387E+01
 11
3.70430124E+01
 21
1.73189387E+01
  0
LINE
  8
0
 62
7
 10
3.70430124E+01
 20
2.93189387E+01
 11
5.90330124E+01
 21
2.93189387E+01
  0
LINE
  8
0
 62
7
 10
3.87740154E+01
 20
2.69289387E+01
 11
5.72830124E+01
 21
2.69289387E+01
  0
LINE
  8
0
 62
7
 10
3.87740154E+01
 20
1.97089387E+01
 11
5.72830124E+01
 21
1.97089387E+01
  0
LINE
  8
0
 62
7
 10
3.70430124E+01
 20
1.73189387E+01
 11
5.90330124E+01
 21
1.73189387E+01
  0
LINE
  8
0
  6
CENTER
 62
2
 10
-4.34569876E+01
 20
3.13089387E+01
 11
-4.34569876E+01
 21
2.69289387E+01
  0
LINE
  8
0
 62
7
 10
5.72830124E+01
 20
2.93189387E+01
 11
5.72830124E+01
 21
2.69289387E+01
  0
LINE
  8
0
 62
7
 10
5.72830124E+01
 20
1.97089387E+01
 11
5.72830124E+01
 21
1.73189387E+01
  0
LINE
  8
0
 62
7
 10
-4.34569876E+01
 20
2.93189387E+01
 11
-4.34569876E+01
 21
2.69289387E+01
  0
LINE
  8
0
 62
7
 10
-4.34569876E+01
 20
1.97089387E+01
 11
-4.34569876E+01
 21
1.73189387E+01
  0
ARC
  8
0
 62
4
 10
-6.18203139E+01
 20
2.63489387E+01
 40
1.55829855E+00
 50
1.39598276E+02
 51
2.20401723E+02
  0
ARC
  8
0
 62
4
 10
-5.76856263E+01
 20
2.33189387E+01
 40
5.69186140E+00
 50
1.59213132E+02
 51
2.00786868E+02
  0
ARC
  8
0
 62
4
 10
-6.58818126E+01
 20
2.33189387E+01
 40
5.70445074E+00
 50
3.39261125E+02
 51
2.07388754E+01
  0
ARC
  8
0
 62
4
 10
-6.17471250E+01
 20
2.63489387E+01
 40
1.56857571E+00
 50
3.19917031E+02
 51
4.00829695E+01
  0
ARC
  8
0
 62
4
 10
-6.18203086E+01
 20
2.02889387E+01
 40
1.55830260E+00
 50
1.39598403E+02
 51
2.20401597E+02
  0
ARC
  8
0
 62
4
 10
-6.17471303E+01
 20
2.02889387E+01
 40
1.56857978E+00
 50
3.19917156E+02
 51
4.00828446E+01
  0
CIRCLE
  8
0
 62
7
 10
5.40396028E+01
 20
2.33139379E+01
 40
1.59999943E+00
  0
ARC
  8
0
 62
7
 10
5.44503143E+01
 20
2.33189387E+01
 40
4.58871205E+00
 50
3.08120600E+02
 51
3.57066264E+02
  0
ARC
  8
0
 62
7
 10
-3.98770481E+01
 20
2.33189387E+01
 40
5.08409939E+00
 50
1.34760453E+02
 51
1.77682058E+02
  0
ARC
  8
0
 62
7
 10
-4.70437233E+01
 20
2.33189387E+01
 40
5.08888723E+00
 50
3.14814785E+02
 51
4.51852144E+01
  0
LINE
  8
0
  6
CENTER
 62
2
 10
-6.98787461E+01
 20
2.33189387E+01
 11
6.31988249E+01
 21
2.33189387E+01
  0
LINE
  8
0
 62
6
 10
-8.68698760E+00
 20
3.93189387E+01
 11
-8.68698760E+00
 21
3.83189387E+01
  0
LINE
  8
0
 62
6
 10
-6.22698760E+00
 20
3.93189387E+01
 11
-6.22698760E+00
 21
3.83189387E+01
  0
LINE
  8
0
 62
4
 10
-8.95698760E+00
 20
3.93189387E+01
 11
-8.95698760E+00
 21
3.83189387E+01
  0
LINE
  8
0
 62
4
 10
-5.95698760E+00
 20
3.93189387E+01
 11
-5.95698760E+00
 21
3.83189387E+01
  0
LINE
  8
0
 62
4
 10
-1.19569876E+01
 20
3.83189387E+01
 11
-2.95698760E+00
 21
3.83189387E+01
  0
LINE
  8
0
 62
4
 10
-9.95698760E+00
 20
3.93189387E+01
 11
-4.95698760E+00
 21
3.93189387E+01
  0
LINE
  8
0
 62
4
 10
-8.95698760E+00
 20
4.08189387E+01
 11
-5.95698760E+00
 21
4.08189387E+01
  0
LINE
  8
0
 62
4
 10
-4.95698760E+00
 20
3.98189387E+01
 11
-4.95698760E+00
 21
3.93189387E+01
  0
LINE
  8
0
 62
4
 10
-9.95698760E+00
 20
3.98189387E+01
 11
-9.95698760E+00
 21
3.93189387E+01
  0
ARC
  8
0
 62
4
 10
-8.95619611E+00
 20
3.98181472E+01
 40
1.00079180E+00
 50
9.00000002E+01
 51
1.79954687E+02
  0
ARC
  8
0
 62
4
 10
-5.95865326E+00
 20
3.98172730E+01
 40
1.00166704E+00
 50
9.52762946E-02
 51
8.99047236E+01
  0
LINE
  8
0
 62
6
 10
2.63030124E+01
 20
3.93189387E+01
 11
2.63030124E+01
 21
3.83189387E+01
  0
LINE
  8
0
 62
6
 10
2.87630124E+01
 20
3.93189387E+01
 11
2.87630124E+01
 21
3.83189387E+01
  0
LINE
  8
0
 62
4
 10
2.60330124E+01
 20
3.93189387E+01
 11
2.60330124E+01
 21
3.83189387E+01
  0
LINE
  8
0
 62
4
 10
2.90330124E+01
 20
3.93189387E+01
 11
2.90330124E+01
 21
3.83189387E+01
  0
LINE
  8
0
 62
4
 10
2.30330124E+01
 20
3.83189387E+01
 11
3.20330124E+01
 21
3.83189387E+01
  0
LINE
  8
0
 62
4
 10
2.50330124E+01
 20
3.93189387E+01
 11
3.00330124E+01
 21
3.93189387E+01
  0
LINE
  8
0
 62
4
 10
2.60330124E+01
 20
4.08189387E+01
 11
2.90330124E+01
 21
4.08189387E+01
  0
LINE
  8
0
 62
4
 10
3.00330124E+01
 20
3.98189387E+01
 11
3.00330124E+01
 21
3.93189387E+01
  0
LINE
  8
0
 62
4
 10
2.50330124E+01
 20
3.98189387E+01
 11
2.50330124E+01
 21
3.93189387E+01
  0
ARC
  8
0
 62
4
 10
2.60338039E+01
 20
3.98181472E+01
 40
1.00079180E+00
 50
9.00000002E+01
 51
1.79954687E+02
  0
ARC
  8
0
 62
4
 10
2.90313467E+01
 20
3.98172730E+01
 40
1.00166704E+00
 50
9.52762946E-02
 51
8.99047236E+01
  0
LINE
  8
0
 62
7
 10
-6.72574877E+01
 20
2.53189387E+01
 11
-6.33774877E+01
 21
2.53189387E+01
  0
LINE
  8
0
 62
2
 10
-6.76364877E+01
 20
2.49399387E+01
 11
-6.33774877E+01
 21
2.49399387E+01
  0
LINE
  8
0
 62
7
 10
-6.72574877E+01
 20
2.13189387E+01
 11
-6.33774877E+01
 21
2.13189387E+01
  0
LINE
  8
0
 62
2
 10
-6.76364877E+01
 20
2.16979387E+01
 11
-6.33774877E+01
 21
2.16979387E+01
  0
LINE
  8
0
 62
7
 10
-6.72574877E+01
 20
2.53189387E+01
 11
-6.72574877E+01
 21
2.13189387E+01
  0
LINE
  8
0
 62
7
 10
-6.79574877E+01
 20
2.46189387E+01
 11
-6.79574877E+01
 21
2.20189387E+01
  0
LINE
  8
0
 62
7
 10
-6.72574877E+01
 20
2.53189387E+01
 11
-6.79574877E+01
 21
2.46189387E+01
  0
LINE
  8
0
 62
7
 10
-6.79574877E+01
 20
2.20189387E+01
 11
-6.72574877E+01
 21
2.13189387E+01
  0
LINE
  8
0
 62
4
 10
-9.59069876E+01
 20
2.96189387E+01
 11
-9.69569876E+01
 21
3.06189387E+01
  0
LINE
  8
0
 62
4
 10
-1.00006988E+02
 20
2.96189387E+01
 11
-9.89569876E+01
 21
3.06189387E+01
  0
LINE
  8
0
 62
4
 10
-1.00006988E+02
 20
3.36189387E+01
 11
-9.89569876E+01
 21
3.26189387E+01
  0
LINE
  8
0
 62
4
 10
-9.59069876E+01
 20
3.36189387E+01
 11
-9.69569876E+01
 21
3.26189387E+01
  0
LINE
  8
0
 62
4
 10
-9.69569876E+01
 20
3.26189387E+01
 11
-9.69569876E+01
 21
3.06189387E+01
  0
LINE
  8
0
 62
4
 10
-9.89569876E+01
 20
3.26189387E+01
 11
-9.89569876E+01
 21
3.06189387E+01
  0
LINE
  8
0
 62
4
 10
-9.69569876E+01
 20
3.06189387E+01
 11
-9.89569876E+01
 21
3.06189387E+01
  0
LINE
  8
0
 62
4
 10
-9.69569876E+01
 20
3.26189387E+01
 11
-9.89569876E+01
 21
3.26189387E+01
  0
LINE
  8
0
 62
4
 10
-9.64569876E+01
 20
3.56189387E+01
 11
-9.67569876E+01
 21
3.53189387E+01
  0
LINE
  8
0
 62
4
 10
-9.94569876E+01
 20
3.56189387E+01
 11
-9.91569876E+01
 21
3.53189387E+01
  0
LINE
  8
0
 62
4
 10
-1.02306535E+02
 20
3.69528931E+01
 11
-1.02804183E+02
 21
3.70013352E+01
  0
LINE
  8
0
 62
4
 10
-1.02804183E+02
 20
3.70013352E+01
 11
-1.03753797E+02
 21
2.72459016E+01
  0
LINE
  8
0
 62
4
 10
-1.02786988E+02
 20
3.04689387E+01
 11
-1.02936282E+02
 21
3.04834713E+01
  0
LINE
  8
0
 62
4
 10
-1.02306535E+02
 20
3.69528931E+01
 11
-1.03179988E+02
 21
2.79798715E+01
  0
LINE
  8
0
 62
4
 10
-1.02786988E+02
 20
3.04689387E+01
 11
-1.03011607E+02
 21
2.81614123E+01
  0
LINE
  8
0
 62
4
 10
-9.44569876E+01
 20
3.18189387E+01
 11
-9.36223324E+01
 21
2.88185354E+01
  0
LINE
  8
0
 62
4
 10
-9.46069876E+01
 20
3.18189387E+01
 11
-9.38154937E+01
 21
2.89653774E+01
  0
LINE
  8
0
 62
4
 10
-1.01206988E+02
 20
3.53189387E+01
 11
-1.01206988E+02
 21
2.93189387E+01
  0
LINE
  8
0
 62
4
 10
-9.47069876E+01
 20
3.53189387E+01
 11
-9.47069876E+01
 21
3.18189387E+01
  0
LINE
  8
0
 62
4
 10
-9.47069876E+01
 20
3.53189387E+01
 11
-1.01206988E+02
 21
3.53189387E+01
  0
LINE
  8
0
 62
4
 10
-9.59069876E+01
 20
2.96189387E+01
 11
-1.00006988E+02
 21
2.96189387E+01
  0
LINE
  8
0
 62
4
 10
-1.00006988E+02
 20
3.36189387E+01
 11
-1.00006988E+02
 21
2.96189387E+01
  0
LINE
  8
0
 62
4
 10
-9.59069876E+01
 20
3.36189387E+01
 11
-1.00006988E+02
 21
3.36189387E+01
  0
LINE
  8
0
 62
4
 10
-9.69569876E+01
 20
3.39189387E+01
 11
-9.69569876E+01
 21
3.36189387E+01
  0
LINE
  8
0
 62
4
 10
-9.89569876E+01
 20
3.39189387E+01
 11
-9.89569876E+01
 21
3.36189387E+01
  0
LINE
  8
0
 62
4
 10
-9.69569876E+01
 20
3.39189387E+01
 11
-9.89569876E+01
 21
3.39189387E+01
  0
LINE
  8
0
 62
4
 10
-9.89569876E+01
 20
2.93189387E+01
 11
-9.69569876E+01
 21
2.93189387E+01
  0
LINE
  8
0
 62
4
 10
-9.69569876E+01
 20
2.96189387E+01
 11
-9.69569876E+01
 21
2.93189387E+01
  0
LINE
  8
0
 62
4
 10
-9.89569876E+01
 20
2.96189387E+01
 11
-9.89569876E+01
 21
2.93189387E+01
  0
LINE
  8
0
 62
4
 10
-9.47069876E+01
 20
3.46189387E+01
 11
-1.01206988E+02
 21
3.46189387E+01
  0
LINE
  8
0
 62
4
 10
-9.47069876E+01
 20
3.14189387E+01
 11
-9.59069876E+01
 21
3.14189387E+01
  0
LINE
  8
0
 62
4
 10
-9.47069876E+01
 20
3.18189387E+01
 11
-9.59069876E+01
 21
3.18189387E+01
  0
LINE
  8
0
 62
4
 10
-9.47069876E+01
 20
3.14189387E+01
 11
-9.47069876E+01
 21
2.93189387E+01
  0
LINE
  8
0
 62
4
 10
-9.59069876E+01
 20
3.36189387E+01
 11
-9.59069876E+01
 21
2.96189387E+01
  0
LINE
  8
0
 62
4
 10
-1.01456988E+02
 20
3.70189387E+01
 11
-1.01456988E+02
 21
3.11189387E+01
  0
LINE
  8
0
 62
4
 10
-9.44569876E+01
 20
3.70189387E+01
 11
-9.44569876E+01
 21
3.18189387E+01
  0
LINE
  8
0
 62
4
 10
-9.54569876E+01
 20
3.93189387E+01
 11
-1.00456988E+02
 21
3.93189387E+01
  0
LINE
  8
0
 62
4
 10
-9.44569876E+01
 20
3.83189387E+01
 11
-1.01456988E+02
 21
3.83189387E+01
  0
LINE
  8
0
 62
4
 10
-9.59569876E+01
 20
3.68189387E+01
 11
-9.99569876E+01
 21
3.68189387E+01
  0
LINE
  8
0
 62
4
 10
-9.49569876E+01
 20
3.75189387E+01
 11
-1.00956988E+02
 21
3.75189387E+01
  0
LINE
  8
0
 62
4
 10
-1.02256988E+02
 20
3.75189387E+01
 11
-1.02256988E+02
 21
3.11189387E+01
  0
LINE
  8
0
 62
4
 10
-9.36569876E+01
 20
3.75189387E+01
 11
-9.36569876E+01
 21
3.18189387E+01
  0
LINE
  8
0
 62
4
 10
-1.00016988E+02
 20
3.75189387E+01
 11
-9.99569876E+01
 21
3.68189387E+01
  0
LINE
  8
0
 62
4
 10
-9.58969876E+01
 20
3.75189387E+01
 11
-9.59569876E+01
 21
3.68189387E+01
  0
LINE
  8
0
 62
4
 10
-9.36569876E+01
 20
3.18189387E+01
 11
-9.44569876E+01
 21
3.18189387E+01
  0
LINE
  8
0
 62
4
 10
-1.01456988E+02
 20
3.11189387E+01
 11
-1.02256988E+02
 21
3.11189387E+01
  0
LINE
  8
0
 62
4
 10
-1.02256988E+02
 20
3.33189387E+01
 11
-1.02638602E+02
 21
3.35415473E+01
  0
LINE
  8
0
 62
4
 10
-1.03856988E+02
 20
3.66189387E+01
 11
-1.03856988E+02
 21
3.42489387E+01
  0
LINE
  8
0
 62
4
 10
-1.03056988E+02
 20
3.66189387E+01
 11
-1.03856988E+02
 21
3.66189387E+01
  0
LINE
  8
0
 62
4
 10
-1.03056988E+02
 20
3.66189387E+01
 11
-1.03056988E+02
 21
3.47089387E+01
  0
LINE
  8
0
 62
4
 10
-1.02256988E+02
 20
3.42489387E+01
 11
-1.02553698E+02
 21
3.44137776E+01
  0
LINE
  8
0
 62
4
 10
-9.46069876E+01
 20
3.70189387E+01
 11
-9.46069876E+01
 21
3.18189387E+01
  0
LINE
  8
0
 62
4
 10
-9.44569876E+01
 20
3.70189387E+01
 11
-9.46069876E+01
 21
3.70189387E+01
  0
LINE
  8
0
 62
4
 10
-1.03029137E+02
 20
3.46903714E+01
 11
-1.03056988E+02
 21
3.47089387E+01
  0
LINE
  8
0
 62
4
 10
-1.03114879E+02
 20
3.38095325E+01
 11
-1.03856988E+02
 21
3.42489387E+01
  0
LINE
  8
0
 62
4
 10
-9.64569876E+01
 20
3.93189387E+01
 11
-9.64569876E+01
 21
3.83189387E+01
  0
LINE
  8
0
 62
4
 10
-9.94569876E+01
 20
3.93189387E+01
 11
-9.94569876E+01
 21
3.83189387E+01
  0
LINE
  8
0
 62
6
 10
-9.91869876E+01
 20
3.93189387E+01
 11
-9.91869876E+01
 21
3.83189387E+01
  0
LINE
  8
0
 62
6
 10
-9.67269876E+01
 20
3.93189387E+01
 11
-9.67269876E+01
 21
3.83189387E+01
  0
LINE
  8
0
 62
4
 10
-1.00456988E+02
 20
3.98189387E+01
 11
-1.00456988E+02
 21
3.93189387E+01
  0
LINE
  8
0
 62
4
 10
-9.54569876E+01
 20
3.98189387E+01
 11
-9.54569876E+01
 21
3.93189387E+01
  0
LINE
  8
0
 62
4
 10
-9.64569876E+01
 20
4.08189387E+01
 11
-9.94569876E+01
 21
4.08189387E+01
  0
LINE
  8
0
 62
4
 10
-9.64569876E+01
 20
3.68189387E+01
 11
-9.64569876E+01
 21
3.56189387E+01
  0
LINE
  8
0
 62
6
 10
-9.67269876E+01
 20
3.68189387E+01
 11
-9.67269876E+01
 21
3.53489387E+01
  0
LINE
  8
0
 62
6
 10
-9.91869876E+01
 20
3.68189387E+01
 11
-9.91869876E+01
 21
3.53489387E+01
  0
LINE
  8
0
 62
4
 10
-9.94569876E+01
 20
3.68189387E+01
 11
-9.94569876E+01
 21
3.56189387E+01
  0
ARC
  8
0
 62
4
 10
-9.49571478E+01
 20
3.70187785E+01
 40
5.00160181E-01
 50
1.83465799E-02
 51
9.00000002E+01
  0
ARC
  8
0
 62
4
 10
-1.00964613E+02
 20
3.70265639E+01
 40
4.92433852E-01
 50
8.91127567E+01
 51
1.80887243E+02
  0
ARC
  8
0
 62
4
 10
-9.44571259E+01
 20
3.75188003E+01
 40
8.00138358E-01
 50
9.90662024E-03
 51
9.00000002E+01
  0
ARC
  8
0
 62
4
 10
-1.01464613E+02
 20
3.75265639E+01
 40
7.92411497E-01
 50
8.94486475E+01
 51
1.80551352E+02
  0
ARC
  8
0
 62
4
 10
-9.64571172E+01
 20
3.98188091E+01
 40
1.00012957E+00
 50
7.42247612E-03
 51
9.00000002E+01
  0
ARC
  8
0
 62
4
 10
-9.94646143E+01
 20
3.98265654E+01
 40
9.92402587E-01
 50
8.95596718E+01
 51
1.80440329E+02
  0
CIRCLE
  8
0
 62
2
 10
-9.79569876E+01
 20
2.33189387E+01
 40
1.62100000E+00
  0
LINE
  8
0
  6
CENTER
 62
2
 10
-1.05956988E+02
 20
2.33189387E+01
 11
-8.99569876E+01
 21
2.33189387E+01
  0
LINE
  8
0
  6
CENTER
 62
2
 10
-9.79569876E+01
 20
4.20861473E+01
 11
-9.79569876E+01
 21
1.56724974E+01
  0
LINE
  8
0
 62
4
 10
-9.79569876E+01
 20
2.73589387E+01
 11
-1.01456988E+02
 21
2.53389387E+01
  0
LINE
  8
0
 62
4
 10
-1.01456988E+02
 20
2.53389387E+01
 11
-1.01456988E+02
 21
2.12989387E+01
  0
LINE
  8
0
 62
4
 10
-1.01456988E+02
 20
2.12989387E+01
 11
-9.79569876E+01
 21
1.92789387E+01
  0
LINE
  8
0
 62
4
 10
-9.79569876E+01
 20
1.92789387E+01
 11
-9.44569876E+01
 21
2.12989387E+01
  0
LINE
  8
0
 62
4
 10
-9.44569876E+01
 20
2.12989387E+01
 11
-9.44569876E+01
 21
2.53389387E+01
  0
LINE
  8
0
 62
4
 10
-9.44569876E+01
 20
2.53389387E+01
 11
-9.79569876E+01
 21
2.73589387E+01
  0
LINE
  8
0
 62
7
 10
-1.01566988E+02
 20
1.73189387E+01
 11
-9.43569876E+01
 21
1.73189387E+01
  0
LINE
  8
0
 62
7
 10
-1.01566988E+02
 20
2.93189387E+01
 11
-9.43569876E+01
 21
2.93189387E+01
  0
LINE
  8
0
 62
7
 10
-1.03956988E+02
 20
2.69289387E+01
 11
-1.03956988E+02
 21
1.97089387E+01
  0
LINE
  8
0
 62
7
 10
-9.19569876E+01
 20
2.69289387E+01
 11
-9.19569876E+01
 21
1.97089387E+01
  0
CIRCLE
  8
0
 62
7
 10
-9.79640286E+01
 20
2.33239389E+01
 40
2.00000000E+00
  0
CIRCLE
  8
0
 62
4
 10
-9.79640286E+01
 20
2.33239389E+01
 40
3.50000000E+00
  0
ARC
  8
0
 62
7
 10
-9.79640259E+01
 20
2.33189387E+01
 40
3.99554522E+00
 50
1.50952093E+02
 51
2.09047906E+02
  0
ARC
  8
0
 62
7
 10
-9.79568184E+01
 20
2.33197721E+01
 40
4.00163661E+00
 50
2.10997298E+02
 51
2.68852053E+02
  0
ARC
  8
0
 62
7
 10
-9.79681795E+01
 20
2.33215380E+01
 40
4.00342272E+00
 50
2.71162073E+02
 51
3.28988576E+02
  0
ARC
  8
0
 62
7
 10
-9.79640313E+01
 20
2.33189387E+01
 40
4.00786175E+00
 50
3.31049840E+02
 51
2.89501602E+01
  0
ARC
  8
0
 62
7
 10
-9.79638413E+01
 20
2.33238304E+01
 40
3.99584741E+00
 50
3.09514121E+01
 51
8.88979394E+01
  0
ARC
  8
0
 62
7
 10
-9.79611584E+01
 20
2.33255996E+01
 40
3.99405895E+00
 50
9.10878539E+01
 51
1.49062795E+02
  0
ARC
  8
0
 62
7
 10
-9.79504695E+01
 20
2.33104003E+01
 40
7.00111741E+00
 50
3.11212950E+01
 51
5.91179354E+01
  0
ARC
  8
0
 62
7
 10
-9.79630081E+01
 20
2.33249592E+01
 40
6.99403020E+00
 50
1.21017086E+02
 51
1.48982914E+02
  0
ARC
  8
0
 62
7
 10
-9.79580045E+01
 20
2.33179218E+01
 40
7.00089694E+00
 50
2.11031080E+02
 51
2.38968920E+02
  0
ARC
  8
0
 62
7
 10
-9.79554589E+01
 20
2.33324872E+01
 40
7.00797842E+00
 50
3.00896048E+02
 51
3.28864721E+02
  0
CIRCLE
  8
0
 62
7
 10
-9.79640286E+01
 20
2.33239389E+01
 40
6.00000000E+00
  0
LINE
  8
0
  6
CENTER
 62
2
 10
8.40176543E+01
 20
2.33189387E+01
 11
1.02503128E+02
 21
2.33189387E+01
  0
LINE
  8
0
 62
4
 10
9.17330124E+01
 20
3.56189387E+01
 11
9.20330124E+01
 21
3.53189387E+01
  0
LINE
  8
0
 62
4
 10
9.47330124E+01
 20
3.56189387E+01
 11
9.44330124E+01
 21
3.53189387E+01
  0
LINE
  8
0
 62
4
 10
9.75825595E+01
 20
3.69528931E+01
 11
9.80802073E+01
 21
3.70013352E+01
  0
LINE
  8
0
 62
4
 10
9.80802073E+01
 20
3.70013352E+01
 11
9.90298091E+01
 21
2.72460333E+01
  0
LINE
  8
0
 62
4
 10
9.80630124E+01
 20
3.04689387E+01
 11
9.82123067E+01
 21
3.04834713E+01
  0
LINE
  8
0
 62
4
 10
9.75825595E+01
 20
3.69528931E+01
 11
9.84559873E+01
 21
2.79801295E+01
  0
LINE
  8
0
 62
4
 10
9.80630124E+01
 20
3.04689387E+01
 11
9.82876067E+01
 21
2.81616709E+01
  0
LINE
  8
0
 62
4
 10
8.97330124E+01
 20
3.18189387E+01
 11
8.88983978E+01
 21
2.88186814E+01
  0
LINE
  8
0
 62
4
 10
8.98830124E+01
 20
3.18189387E+01
 11
8.90915419E+01
 21
2.89654617E+01
  0
CIRCLE
  8
0
 62
4
 10
9.32330124E+01
 20
3.16189387E+01
 40
1.30000000E+00
  0
LINE
  8
0
 62
4
 10
9.64830124E+01
 20
3.53189387E+01
 11
9.64830124E+01
 21
2.93189387E+01
  0
LINE
  8
0
 62
4
 10
8.99830124E+01
 20
3.53189387E+01
 11
8.99830124E+01
 21
3.18189387E+01
  0
LINE
  8
0
 62
4
 10
8.99830124E+01
 20
3.53189387E+01
 11
9.64830124E+01
 21
3.53189387E+01
  0
LINE
  8
0
 62
4
 10
9.11830124E+01
 20
2.96189387E+01
 11
9.52830124E+01
 21
2.96189387E+01
  0
LINE
  8
0
 62
4
 10
9.52830124E+01
 20
3.36189387E+01
 11
9.52830124E+01
 21
2.96189387E+01
  0
LINE
  8
0
 62
4
 10
9.11830124E+01
 20
3.36189387E+01
 11
9.52830124E+01
 21
3.36189387E+01
  0
LINE
  8
0
 62
4
 10
9.22330124E+01
 20
3.39189387E+01
 11
9.22330124E+01
 21
3.36189387E+01
  0
LINE
  8
0
 62
4
 10
9.42330124E+01
 20
3.39189387E+01
 11
9.42330124E+01
 21
3.36189387E+01
  0
LINE
  8
0
 62
4
 10
9.22330124E+01
 20
3.39189387E+01
 11
9.42330124E+01
 21
3.39189387E+01
  0
LINE
  8
0
 62
4
 10
9.22330124E+01
 20
2.93189387E+01
 11
9.42330124E+01
 21
2.93189387E+01
  0
LINE
  8
0
 62
4
 10
9.22330124E+01
 20
2.96189387E+01
 11
9.22330124E+01
 21
2.93189387E+01
  0
LINE
  8
0
 62
4
 10
9.42330124E+01
 20
2.96189387E+01
 11
9.42330124E+01
 21
2.93189387E+01
  0
LINE
  8
0
 62
4
 10
8.99830124E+01
 20
3.46189387E+01
 11
9.64830124E+01
 21
3.46189387E+01
  0
LINE
  8
0
 62
4
 10
8.99830124E+01
 20
3.14189387E+01
 11
9.11830124E+01
 21
3.14189387E+01
  0
LINE
  8
0
 62
4
 10
8.99830124E+01
 20
3.18189387E+01
 11
9.11830124E+01
 21
3.18189387E+01
  0
LINE
  8
0
 62
4
 10
8.99830124E+01
 20
3.14189387E+01
 11
8.99830124E+01
 21
2.93189387E+01
  0
LINE
  8
0
 62
4
 10
9.11830124E+01
 20
3.36189387E+01
 11
9.11830124E+01
 21
2.96189387E+01
  0
LINE
  8
0
 62
4
 10
9.67330124E+01
 20
3.70189387E+01
 11
9.67330124E+01
 21
3.11189387E+01
  0
LINE
  8
0
 62
4
 10
8.97330124E+01
 20
3.70189387E+01
 11
8.97330124E+01
 21
3.18189387E+01
  0
LINE
  8
0
 62
4
 10
9.07330124E+01
 20
3.93189387E+01
 11
9.57330124E+01
 21
3.93189387E+01
  0
LINE
  8
0
 62
4
 10
8.97330124E+01
 20
3.83189387E+01
 11
9.67330124E+01
 21
3.83189387E+01
  0
LINE
  8
0
 62
4
 10
9.12330124E+01
 20
3.68189387E+01
 11
9.52330124E+01
 21
3.68189387E+01
  0
LINE
  8
0
 62
4
 10
9.02330124E+01
 20
3.75189387E+01
 11
9.62330124E+01
 21
3.75189387E+01
  0
LINE
  8
0
 62
4
 10
9.75330124E+01
 20
3.75189387E+01
 11
9.75330124E+01
 21
3.11189387E+01
  0
LINE
  8
0
 62
4
 10
8.89330124E+01
 20
3.75189387E+01
 11
8.89330124E+01
 21
3.18189387E+01
  0
LINE
  8
0
 62
4
 10
9.52930124E+01
 20
3.75189387E+01
 11
9.52330124E+01
 21
3.68189387E+01
  0
LINE
  8
0
 62
4
 10
9.11730124E+01
 20
3.75189387E+01
 11
9.12330124E+01
 21
3.68189387E+01
  0
LINE
  8
0
 62
4
 10
8.89330124E+01
 20
3.18189387E+01
 11
8.97330124E+01
 21
3.18189387E+01
  0
LINE
  8
0
 62
4
 10
9.67330124E+01
 20
3.11189387E+01
 11
9.75330124E+01
 21
3.11189387E+01
  0
LINE
  8
0
 62
4
 10
9.75330124E+01
 20
3.33189387E+01
 11
9.79146272E+01
 21
3.35415473E+01
  0
LINE
  8
0
 62
4
 10
9.91330124E+01
 20
3.66189387E+01
 11
9.91330124E+01
 21
3.42489387E+01
  0
LINE
  8
0
 62
4
 10
9.83330124E+01
 20
3.66189387E+01
 11
9.91330124E+01
 21
3.66189387E+01
  0
LINE
  8
0
 62
4
 10
9.83330124E+01
 20
3.66189387E+01
 11
9.83330124E+01
 21
3.47089387E+01
  0
LINE
  8
0
 62
4
 10
9.75330124E+01
 20
3.42489387E+01
 11
9.78297224E+01
 21
3.44137776E+01
  0
LINE
  8
0
 62
4
 10
8.98830124E+01
 20
3.70189387E+01
 11
8.98830124E+01
 21
3.18189387E+01
  0
LINE
  8
0
 62
4
 10
8.97330124E+01
 20
3.70189387E+01
 11
8.98830124E+01
 21
3.70189387E+01
  0
LINE
  8
0
 62
4
 10
9.83051615E+01
 20
3.46903714E+01
 11
9.83330124E+01
 21
3.47089387E+01
  0
LINE
  8
0
 62
4
 10
9.83909042E+01
 20
3.38095325E+01
 11
9.91330124E+01
 21
3.42489387E+01
  0
LINE
  8
0
 62
4
 10
9.17330124E+01
 20
3.93189387E+01
 11
9.17330124E+01
 21
3.83189387E+01
  0
LINE
  8
0
 62
4
 10
9.47330124E+01
 20
3.93189387E+01
 11
9.47330124E+01
 21
3.83189387E+01
  0
LINE
  8
0
 62
6
 10
9.44630124E+01
 20
3.93189387E+01
 11
9.44630124E+01
 21
3.83189387E+01
  0
LINE
  8
0
 62
6
 10
9.20030124E+01
 20
3.93189387E+01
 11
9.20030124E+01
 21
3.83189387E+01
  0
LINE
  8
0
 62
4
 10
9.57330124E+01
 20
3.98189387E+01
 11
9.57330124E+01
 21
3.93189387E+01
  0
LINE
  8
0
 62
4
 10
9.07330124E+01
 20
3.98189387E+01
 11
9.07330124E+01
 21
3.93189387E+01
  0
LINE
  8
0
 62
4
 10
9.17330124E+01
 20
4.08189387E+01
 11
9.47330124E+01
 21
4.08189387E+01
  0
LINE
  8
0
 62
4
 10
9.17330124E+01
 20
3.68189387E+01
 11
9.17330124E+01
 21
3.56189387E+01
  0
LINE
  8
0
 62
6
 10
9.20030124E+01
 20
3.68189387E+01
 11
9.20030124E+01
 21
3.53489387E+01
  0
LINE
  8
0
 62
6
 10
9.44630124E+01
 20
3.68189387E+01
 11
9.44630124E+01
 21
3.53489387E+01
  0
LINE
  8
0
 62
4
 10
9.47330124E+01
 20
3.68189387E+01
 11
9.47330124E+01
 21
3.56189387E+01
  0
LINE
  8
0
 62
4
 10
9.19330124E+01
 20
3.03189387E+01
 11
9.45330124E+01
 21
3.03189387E+01
  0
LINE
  8
0
 62
4
 10
9.19330124E+01
 20
3.29189387E+01
 11
9.45330124E+01
 21
3.29189387E+01
  0
LINE
  8
0
 62
4
 10
9.45330124E+01
 20
3.29189387E+01
 11
9.45330124E+01
 21
3.03189387E+01
  0
LINE
  8
0
 62
4
 10
9.19330124E+01
 20
3.29189387E+01
 11
9.19330124E+01
 21
3.03189387E+01
  0
LINE
  8
0
 62
4
 10
9.11830124E+01
 20
3.36189387E+01
 11
9.19330124E+01
 21
3.29189387E+01
  0
LINE
  8
0
 62
4
 10
9.45330124E+01
 20
3.29189387E+01
 11
9.52830124E+01
 21
3.36189387E+01
  0
LINE
  8
0
 62
4
 10
9.19330124E+01
 20
3.03189387E+01
 11
9.11830124E+01
 21
2.96189387E+01
  0
LINE
  8
0
 62
4
 10
9.45330124E+01
 20
3.03189387E+01
 11
9.52830124E+01
 21
2.96189387E+01
  0
ARC
  8
0
 62
4
 10
9.02331726E+01
 20
3.70187785E+01
 40
5.00160181E-01
 50
9.00000002E+01
 51
1.79981654E+02
  0
ARC
  8
0
 62
4
 10
9.62406376E+01
 20
3.70265639E+01
 40
4.92433852E-01
 50
3.59112757E+02
 51
9.08872431E+01
  0
ARC
  8
0
 62
4
 10
8.97331507E+01
 20
3.75188003E+01
 40
8.00138358E-01
 50
9.00000002E+01
 51
1.79990093E+02
  0
ARC
  8
0
 62
4
 10
9.67406376E+01
 20
3.75265639E+01
 40
7.92411497E-01
 50
3.59448647E+02
 51
9.05513523E+01
  0
ARC
  8
0
 62
4
 10
9.17331420E+01
 20
3.98188091E+01
 40
1.00012957E+00
 50
9.00000002E+01
 51
1.79992578E+02
  0
ARC
  8
0
 62
4
 10
9.47406391E+01
 20
3.98265654E+01
 40
9.92402587E-01
 50
3.59559672E+02
 51
9.04403286E+01
  0
ARC
  8
0
 62
7
 10
9.32332677E+01
 20
2.33240187E+01
 40
7.00469417E+00
 50
3.00985939E+02
 51
3.28929398E+02
  0
LINE
  8
0
 62
7
 10
9.92330124E+01
 20
2.69289387E+01
 11
9.92330124E+01
 21
1.97089387E+01
  0
LINE
  8
0
  6
CENTER
 62
2
 10
9.32330124E+01
 20
4.21332595E+01
 11
9.32330124E+01
 21
1.53189387E+01
  0
LINE
  8
0
 62
7
 10
8.72330124E+01
 20
2.69289387E+01
 11
8.72330124E+01
 21
1.97089387E+01
  0
LINE
  8
0
 62
7
 10
8.96230124E+01
 20
2.93189387E+01
 11
9.68330124E+01
 21
2.93189387E+01
  0
LINE
  8
0
 62
7
 10
8.96230124E+01
 20
1.73189387E+01
 11
9.68330124E+01
 21
1.73189387E+01
  0
LINE
  8
0
 62
7
 10
9.48330124E+01
 20
2.93189387E+01
 11
9.48330124E+01
 21
1.73189387E+01
  0
LINE
  8
0
 62
7
 10
9.16330124E+01
 20
2.93189387E+01
 11
9.16330124E+01
 21
1.73189387E+01
  0
ARC
  8
0
 62
7
 10
9.32336953E+01
 20
2.33189387E+01
 40
5.99754832E+00
 50
1.05479260E+02
 51
2.54520740E+02
  0
ARC
  8
0
 62
7
 10
9.32302773E+01
 20
2.33189487E+01
 40
7.00087420E+00
 50
1.21014783E+02
 51
1.48941962E+02
  0
ARC
  8
0
 62
7
 10
9.32336942E+01
 20
2.33189387E+01
 40
5.99718423E+00
 50
2.85466694E+02
 51
7.45333053E+01
  0
ARC
  8
0
 62
7
 10
9.32433848E+01
 20
2.33142708E+01
 40
6.99581746E+00
 50
3.11104736E+01
 51
5.91287569E+01
  0
ARC
  8
0
 62
7
 10
9.32332677E+01
 20
2.33240187E+01
 40
7.00469417E+00
 50
2.11062510E+02
 51
2.39014061E+02
  0
LINE
  8
0
  6
CENTER
 10
1.39497337E+01
 20
4.09936921E+01
 11
1.39497337E+01
 21
6.79978883E+01
  0
TEXT
  8
0
 62
7
 10
4.57074899E-01
 20
5.09189387E+01
 40
1.50000000E+00
  1
PBSAS10-7
 41
1.00000000E+00
  7
MONOTXT
  0
ARC
  8
0
 62
7
 10
-3.98770481E+01
 20
5.53189387E+01
 40
5.08409939E+00
 50
1.82317942E+02
 51
2.25239548E+02
  0
LINE
  8
0
  6
CENTER
 62
6
 10
2.75330124E+01
 20
6.26189387E+01
 11
2.75330124E+01
 21
4.71389387E+01
  0
LINE
  8
0
 62
4
 10
2.95330124E+01
 20
6.11834176E+01
 11
2.95330124E+01
 21
6.01661336E+01
  0
LINE
  8
0
 62
4
 10
3.20330124E+01
 20
4.96689387E+01
 11
3.20330124E+01
 21
6.11834176E+01
  0
LINE
  8
0
 62
4
 10
2.30330124E+01
 20
4.96689387E+01
 11
2.30330124E+01
 21
6.11834176E+01
  0
LINE
  8
0
 62
4
 10
2.30330124E+01
 20
6.01661336E+01
 11
3.20330124E+01
 21
6.01661336E+01
  0
LINE
  8
0
 62
6
 10
4.79700115E+01
 20
5.66189387E+01
 11
4.53700115E+01
 21
5.40189387E+01
  0
LINE
  8
0
 62
4
 10
4.00330124E+01
 20
5.33189387E+01
 11
4.30330124E+01
 21
5.40189387E+01
  0
LINE
  8
0
 62
4
 10
4.30330124E+01
 20
5.66189387E+01
 11
4.30330124E+01
 21
5.40189387E+01
  0
LINE
  8
0
 62
4
 10
4.30330124E+01
 20
5.40189387E+01
 11
4.53700115E+01
 21
5.40189387E+01
  0
LINE
  8
0
 62
4
 10
4.30330124E+01
 20
5.66189387E+01
 11
4.79700115E+01
 21
5.66189387E+01
  0
LINE
  8
0
 62
4
 10
4.00330124E+01
 20
5.73189387E+01
 11
4.30330124E+01
 21
5.66189387E+01
  0
LINE
  8
0
 62
4
 10
2.30330124E+01
 20
5.96189754E+01
 11
3.20330124E+01
 21
5.96189754E+01
  0
LINE
  8
0
 62
4
 10
2.30330124E+01
 20
5.10189387E+01
 11
3.20330124E+01
 21
5.10189387E+01
  0
LINE
  8
0
 62
4
 10
2.05330124E+01
 20
5.20689387E+01
 11
2.05330124E+01
 21
5.85689387E+01
  0
LINE
  8
0
 62
4
 10
2.30330124E+01
 20
4.96689387E+01
 11
3.20330124E+01
 21
4.96689387E+01
  0
LINE
  8
0
 62
4
 10
2.86430124E+01
 20
5.42189387E+01
 11
2.85930124E+01
 21
5.42589387E+01
  0
LINE
  8
0
 62
4
 10
2.64730124E+01
 20
5.42589387E+01
 11
2.85930124E+01
 21
5.63789387E+01
  0
LINE
  8
0
 62
4
 10
2.85430124E+01
 20
5.43189387E+01
 11
2.64730124E+01
 21
5.63789387E+01
  0
LINE
  8
0
 62
4
 10
4.00330124E+01
 20
5.73189387E+01
 11
4.00330124E+01
 21
5.33189387E+01
  0
LINE
  8
0
 62
4
 10
1.50330124E+01
 20
5.63189387E+01
 11
1.50330124E+01
 21
5.43189387E+01
  0
LINE
  8
0
 62
4
 10
1.60330124E+01
 20
5.33189387E+01
 11
2.05330124E+01
 21
5.33189387E+01
  0
LINE
  8
0
 62
4
 10
1.60330124E+01
 20
5.73189387E+01
 11
2.05330124E+01
 21
5.73189387E+01
  0
LINE
  8
0
 62
4
 10
1.60330124E+01
 20
5.73189387E+01
 11
1.60330124E+01
 21
5.33189387E+01
  0
LINE
  8
0
 62
4
 10
1.50330124E+01
 20
5.63189387E+01
 11
1.60330124E+01
 21
5.73189387E+01
  0
LINE
  8
0
 62
4
 10
1.50330124E+01
 20
5.43189387E+01
 11
1.60330124E+01
 21
5.33189387E+01
  0
LINE
  8
0
 62
4
 10
2.05330124E+01
 20
5.20689387E+01
 11
2.30330124E+01
 21
5.20689387E+01
  0
LINE
  8
0
 62
4
 10
2.05330124E+01
 20
5.85689387E+01
 11
2.30330124E+01
 21
5.85689387E+01
  0
LINE
  8
0
 62
4
 10
3.45330124E+01
 20
5.20689387E+01
 11
3.45330124E+01
 21
5.85689387E+01
  0
LINE
  8
0
 62
4
 10
3.20330124E+01
 20
5.85689387E+01
 11
3.45330124E+01
 21
5.85689387E+01
  0
LINE
  8
0
 62
4
 10
3.20330124E+01
 20
5.20689387E+01
 11
3.45330124E+01
 21
5.20689387E+01
  0
LINE
  8
0
 62
4
 10
3.45330124E+01
 20
5.73189387E+01
 11
4.00330124E+01
 21
5.73189387E+01
  0
LINE
  8
0
 62
4
 10
3.45330124E+01
 20
5.33189387E+01
 11
4.00330124E+01
 21
5.33189387E+01
  0
CIRCLE
  8
0
 62
4
 10
2.75321372E+01
 20
5.53164802E+01
 40
2.50000000E+00
  0
LINE
  8
0
 62
4
 10
2.55330124E+01
 20
6.04189387E+01
 11
2.95330124E+01
 21
6.04189387E+01
  0
LINE
  8
0
 62
4
 10
2.30330124E+01
 20
6.11834176E+01
 11
3.20330124E+01
 21
6.11834176E+01
  0
LINE
  8
0
 62
4
 10
2.55330124E+01
 20
6.01661336E+01
 11
2.55330124E+01
 21
6.11834176E+01
  0
LINE
  8
0
  6
CENTER
 62
6
 10
-7.45698760E+00
 20
6.26189387E+01
 11
-7.45698760E+00
 21
4.71389387E+01
  0
LINE
  8
0
 62
4
 10
-5.45698760E+00
 20
6.11834176E+01
 11
-5.45698760E+00
 21
6.01661336E+01
  0
LINE
  8
0
 62
4
 10
-2.95698760E+00
 20
4.96689387E+01
 11
-2.95698760E+00
 21
6.11834176E+01
  0
LINE
  8
0
 62
4
 10
-1.19569876E+01
 20
4.96689387E+01
 11
-1.19569876E+01
 21
6.11834176E+01
  0
LINE
  8
0
 62
4
 10
-1.19569876E+01
 20
6.01661336E+01
 11
-2.95698758E+00
 21
6.01661336E+01
  0
LINE
  8
0
 62
6
 10
1.29800115E+01
 20
5.66189387E+01
 11
1.03800115E+01
 21
5.40189387E+01
  0
LINE
  8
0
 62
4
 10
5.04301240E+00
 20
5.33189387E+01
 11
8.04301239E+00
 21
5.40189387E+01
  0
LINE
  8
0
 62
4
 10
8.04301240E+00
 20
5.66189387E+01
 11
8.04301240E+00
 21
5.40189387E+01
  0
LINE
  8
0
 62
4
 10
8.04301239E+00
 20
5.40189387E+01
 11
1.03800115E+01
 21
5.40189387E+01
  0
LINE
  8
0
 62
4
 10
8.04301239E+00
 20
5.66189387E+01
 11
1.29800115E+01
 21
5.66189387E+01
  0
LINE
  8
0
 62
4
 10
5.04301240E+00
 20
5.73189387E+01
 11
8.04301240E+00
 21
5.66189387E+01
  0
LINE
  8
0
 62
4
 10
-1.19569876E+01
 20
5.96189754E+01
 11
-2.95698760E+00
 21
5.96189754E+01
  0
LINE
  8
0
 62
4
 10
-1.19569876E+01
 20
5.10189387E+01
 11
-2.95698760E+00
 21
5.10189387E+01
  0
LINE
  8
0
 62
4
 10
-1.44569876E+01
 20
5.20689387E+01
 11
-1.44569876E+01
 21
5.85689387E+01
  0
LINE
  8
0
 62
4
 10
-1.19569876E+01
 20
4.96689387E+01
 11
-2.95698760E+00
 21
4.96689387E+01
  0
LINE
  8
0
 62
4
 10
-6.34698760E+00
 20
5.42189387E+01
 11
-6.39698760E+00
 21
5.42589387E+01
  0
LINE
  8
0
 62
4
 10
-8.51698760E+00
 20
5.42589387E+01
 11
-6.39698760E+00
 21
5.63789387E+01
  0
LINE
  8
0
 62
4
 10
-6.44698760E+00
 20
5.43189387E+01
 11
-8.51698760E+00
 21
5.63789387E+01
  0
LINE
  8
0
 62
4
 10
5.04301240E+00
 20
5.73189387E+01
 11
5.04301240E+00
 21
5.33189387E+01
  0
LINE
  8
0
 62
4
 10
-1.99569876E+01
 20
5.63189387E+01
 11
-1.99569876E+01
 21
5.43189387E+01
  0
LINE
  8
0
 62
4
 10
-1.89569876E+01
 20
5.33189387E+01
 11
-1.44569876E+01
 21
5.33189387E+01
  0
LINE
  8
0
 62
4
 10
-1.89569876E+01
 20
5.73189387E+01
 11
-1.44569876E+01
 21
5.73189387E+01
  0
LINE
  8
0
 62
4
 10
-1.89569876E+01
 20
5.73189387E+01
 11
-1.89569876E+01
 21
5.33189387E+01
  0
LINE
  8
0
 62
4
 10
-1.99569876E+01
 20
5.63189387E+01
 11
-1.89569876E+01
 21
5.73189387E+01
  0
LINE
  8
0
 62
4
 10
-1.99569876E+01
 20
5.43189387E+01
 11
-1.89569876E+01
 21
5.33189387E+01
  0
LINE
  8
0
 62
4
 10
-1.44569876E+01
 20
5.20689387E+01
 11
-1.19569876E+01
 21
5.20689387E+01
  0
LINE
  8
0
 62
4
 10
-1.44569876E+01
 20
5.85689387E+01
 11
-1.19569876E+01
 21
5.85689387E+01
  0
LINE
  8
0
 62
4
 10
-4.56987601E-01
 20
5.20689387E+01
 11
-4.56987601E-01
 21
5.85689387E+01
  0
LINE
  8
0
 62
4
 10
-2.95698760E+00
 20
5.85689387E+01
 11
-4.56987601E-01
 21
5.85689387E+01
  0
LINE
  8
0
 62
4
 10
-2.95698760E+00
 20
5.20689387E+01
 11
-4.56987601E-01
 21
5.20689387E+01
  0
LINE
  8
0
 62
4
 10
-4.56987601E-01
 20
5.73189387E+01
 11
5.04301240E+00
 21
5.73189387E+01
  0
LINE
  8
0
 62
4
 10
-4.56987601E-01
 20
5.33189387E+01
 11
5.04301240E+00
 21
5.33189387E+01
  0
CIRCLE
  8
0
 62
4
 10
-7.45786284E+00
 20
5.53164802E+01
 40
2.50000000E+00
  0
LINE
  8
0
 62
4
 10
-9.45698761E+00
 20
6.04189387E+01
 11
-5.45698761E+00
 21
6.04189387E+01
  0
LINE
  8
0
 62
4
 10
-1.19569876E+01
 20
6.11834176E+01
 11
-2.95698758E+00
 21
6.11834176E+01
  0
LINE
  8
0
 62
4
 10
-9.45698760E+00
 20
6.01661336E+01
 11
-9.45698760E+00
 21
6.11834176E+01
  0
LINE
  8
0
 62
7
 10
3.70330124E+01
 20
5.33189387E+01
 11
3.70330124E+01
 21
4.93189387E+01
  0
ARC
  8
0
 62
7
 10
4.16618312E+01
 20
5.53189387E+01
 40
4.62982188E+00
 50
2.05593413E+02
 51
2.31235644E+02
  0
ARC
  8
0
 62
2
 10
4.15395914E+01
 20
5.53239389E+01
 40
2.50000000E+00
 50
2.33231127E+02
 51
3.28533492E+02
  0
ARC
  8
0
 62
7
 10
4.15330124E+01
 20
5.53189387E+01
 40
2.06700000E+00
 50
3.89712842E+01
 51
1.15844950E+02
  0
LINE
  8
0
 62
7
 10
4.60330124E+01
 20
5.46819396E+01
 11
4.60330124E+01
 21
5.37189387E+01
  0
LINE
  8
0
 62
7
 10
-2.95698760E+00
 20
6.08189387E+01
 11
2.30330124E+01
 21
6.08189387E+01
  0
LINE
  8
0
 62
7
 10
-2.95698760E+00
 20
4.98189387E+01
 11
2.30330124E+01
 21
4.98189387E+01
  0
LINE
  8
0
 62
7
 10
3.20330124E+01
 20
6.08189387E+01
 11
3.70330124E+01
 21
6.08189387E+01
  0
LINE
  8
0
 62
7
 10
3.20330124E+01
 20
4.98189387E+01
 11
3.70330124E+01
 21
4.98189387E+01
  0
LINE
  8
0
 62
7
 10
-4.19569876E+01
 20
6.13189387E+01
 11
-4.19569876E+01
 21
4.93189387E+01
  0
LINE
  8
0
 62
7
 10
-4.34569876E+01
 20
5.17089387E+01
 11
-4.34569876E+01
 21
4.93189387E+01
  0
ARC
  8
0
 62
7
 10
-4.70437233E+01
 20
5.53189387E+01
 40
5.08888723E+00
 50
3.14814785E+02
 51
4.51852144E+01
  0
LINE
  8
0
 62
7
 10
-4.34569876E+01
 20
6.13189387E+01
 11
-4.34569876E+01
 21
5.89289387E+01
  0
ARC
  8
0
 62
7
 10
-3.98770481E+01
 20
5.53189387E+01
 40
5.08409939E+00
 50
1.34760453E+02
 51
1.77682058E+02
  0
ARC
  8
0
 62
4
 10
-6.45005011E+01
 20
5.35689387E+01
 40
4.32351351E+00
 50
3.36123699E+02
 51
2.38763010E+01
  0
ARC
  8
0
 62
4
 10
-6.45005011E+01
 20
5.70689387E+01
 40
4.32351351E+00
 50
3.36123699E+02
 51
2.38763010E+01
  0
ARC
  8
0
 62
4
 10
-5.90534741E+01
 20
5.35689387E+01
 40
4.32351351E+00
 50
1.56123699E+02
 51
2.03876301E+02
  0
ARC
  8
0
 62
4
 10
-5.90534741E+01
 20
5.70689387E+01
 40
4.32351351E+00
 50
1.56123699E+02
 51
2.03876301E+02
  0
LINE
  8
0
 62
4
 10
-6.30069876E+01
 20
5.53189387E+01
 11
-6.05469876E+01
 21
5.53189387E+01
  0
LINE
  8
0
 62
4
 10
-6.33769876E+01
 20
5.18189387E+01
 11
-6.01769876E+01
 21
5.18189387E+01
  0
LINE
  8
0
 62
4
 10
-6.33769876E+01
 20
5.88189387E+01
 11
-6.01769876E+01
 21
5.88189387E+01
  0
LINE
  8
0
 62
4
 10
-6.01769876E+01
 20
5.88189387E+01
 11
-6.01769876E+01
 21
5.18189387E+01
  0
LINE
  8
0
 62
4
 10
-6.33769876E+01
 20
5.88189387E+01
 11
-6.33769876E+01
 21
5.18189387E+01
  0
CIRCLE
  8
0
 62
7
 10
-4.34569876E+01
 20
5.53189387E+01
 40
5.00000000E-01
  0
LINE
  8
0
  6
CENTER
 62
2
 10
-4.34569876E+01
 20
5.70770079E+01
 11
-4.34569876E+01
 21
5.37852804E+01
  0
LINE
  8
0
 62
7
 10
-4.64569876E+01
 20
5.93189387E+01
 11
-4.64569876E+01
 21
5.13189387E+01
  0
LINE
  8
0
 62
7
 10
-5.29569876E+01
 20
5.21189387E+01
 11
-5.21569876E+01
 21
5.13189387E+01
  0
LINE
  8
0
 62
2
 10
-5.28334876E+01
 20
5.19954387E+01
 11
-4.64569876E+01
 21
5.19954387E+01
  0
LINE
  8
0
 62
7
 10
-5.21569876E+01
 20
5.13189387E+01
 11
-4.49569876E+01
 21
5.13189387E+01
  0
LINE
  8
0
 62
7
 10
-5.21569876E+01
 20
5.93189387E+01
 11
-5.29569876E+01
 21
5.85189387E+01
  0
LINE
  8
0
 62
2
 10
-5.28334876E+01
 20
5.86424387E+01
 11
-4.64569876E+01
 21
5.86424387E+01
  0
LINE
  8
0
 62
7
 10
-5.21569876E+01
 20
5.93189387E+01
 11
-4.49569876E+01
 21
5.93189387E+01
  0
LINE
  8
0
 62
7
 10
-5.21569876E+01
 20
5.93189387E+01
 11
-5.21569876E+01
 21
5.13189387E+01
  0
LINE
  8
0
 62
7
 10
-4.19569876E+01
 20
4.98189387E+01
 11
-1.19569876E+01
 21
4.98189387E+01
  0
LINE
  8
0
 62
7
 10
-4.19569876E+01
 20
6.08189387E+01
 11
-1.19569876E+01
 21
6.08189387E+01
  0
LINE
  8
0
 62
7
 10
-4.49569876E+01
 20
6.13189387E+01
 11
-4.19569876E+01
 21
6.13189387E+01
  0
LINE
  8
0
 62
7
 10
-4.49569876E+01
 20
4.93189387E+01
 11
-4.19569876E+01
 21
4.93189387E+01
  0
LINE
  8
0
 62
7
 10
-4.49569876E+01
 20
6.13189387E+01
 11
-4.49569876E+01
 21
4.93189387E+01
  0
LINE
  8
0
 62
7
 10
-6.79569876E+01
 20
5.66189387E+01
 11
-6.79569876E+01
 21
5.40189387E+01
  0
LINE
  8
0
 62
7
 10
-5.29569876E+01
 20
5.85189387E+01
 11
-5.29569876E+01
 21
5.21189387E+01
  0
LINE
  8
0
 62
7
 10
-6.72569876E+01
 20
5.73189387E+01
 11
-6.33769876E+01
 21
5.73189387E+01
  0
LINE
  8
0
 62
7
 10
-6.72569876E+01
 20
5.33189387E+01
 11
-6.33769876E+01
 21
5.33189387E+01
  0
LINE
  8
0
 62
7
 10
-6.72569876E+01
 20
5.73189387E+01
 11
-6.79569876E+01
 21
5.66189387E+01
  0
LINE
  8
0
 62
7
 10
-6.79569876E+01
 20
5.40189387E+01
 11
-6.72569876E+01
 21
5.33189387E+01
  0
LINE
  8
0
 62
7
 10
-6.72569876E+01
 20
5.73189387E+01
 11
-6.72569876E+01
 21
5.33189387E+01
  0
LINE
  8
0
 62
7
 10
-6.01769876E+01
 20
5.73189387E+01
 11
-5.29569876E+01
 21
5.73189387E+01
  0
LINE
  8
0
 62
7
 10
-6.01769876E+01
 20
5.33189387E+01
 11
-5.29569876E+01
 21
5.33189387E+01
  0
LINE
  8
0
 62
7
 10
5.90330124E+01
 20
6.13189387E+01
 11
5.90330124E+01
 21
5.69189387E+01
  0
LINE
  8
0
 62
7
 10
3.70330124E+01
 20
6.13189387E+01
 11
5.90330124E+01
 21
6.13189387E+01
  0
LINE
  8
0
 62
7
 10
3.87630124E+01
 20
5.89289387E+01
 11
5.73030124E+01
 21
5.89289387E+01
  0
LINE
  8
0
 62
7
 10
3.87630124E+01
 20
5.17089387E+01
 11
5.73030124E+01
 21
5.17089387E+01
  0
LINE
  8
0
 62
7
 10
3.70330124E+01
 20
4.93189387E+01
 11
5.90330124E+01
 21
4.93189387E+01
  0
LINE
  8
0
 62
7
 10
5.73030124E+01
 20
6.13189387E+01
 11
5.73030124E+01
 21
5.89289387E+01
  0
LINE
  8
0
 62
7
 10
5.73030124E+01
 20
5.17089387E+01
 11
5.73030124E+01
 21
4.93189387E+01
  0
LINE
  8
0
  6
CENTER
 62
2
 10
4.15330124E+01
 20
5.86989387E+01
 11
4.15330124E+01
 21
5.15389387E+01
  0
LINE
  8
0
  6
CENTER
 62
2
 10
5.40330124E+01
 20
6.35172216E+01
 11
5.40330124E+01
 21
4.69372535E+01
  0
LINE
  8
0
 62
7
 10
3.70330124E+01
 20
6.13189387E+01
 11
3.70330124E+01
 21
5.73189387E+01
  0
LINE
  8
0
 62
7
 10
3.87630124E+01
 20
6.13189387E+01
 11
3.87630124E+01
 21
5.89289387E+01
  0
LINE
  8
0
 62
7
 10
3.87630124E+01
 20
5.17089387E+01
 11
3.87630124E+01
 21
4.93189387E+01
  0
LINE
  8
0
 62
7
 10
4.60330124E+01
 20
5.37189387E+01
 11
5.90330124E+01
 21
5.37189387E+01
  0
LINE
  8
0
 62
7
 10
4.60330124E+01
 20
5.69189387E+01
 11
5.90330124E+01
 21
5.69189387E+01
  0
LINE
  8
0
 62
7
 10
4.60330124E+01
 20
5.69189387E+01
 11
4.60330124E+01
 21
5.66189387E+01
  0
LINE
  8
0
 62
7
 10
5.90330124E+01
 20
5.37189387E+01
 11
5.90330124E+01
 21
4.93189387E+01
  0
ARC
  8
0
 62
7
 10
5.44148494E+01
 20
5.53204493E+01
 40
4.62433716E+00
 50
3.08649693E+02
 51
3.39737471E+02
  0
ARC
  8
0
 62
2
 10
4.15395914E+01
 20
5.53239389E+01
 40
2.50000000E+00
 50
3.11981857E+01
 51
1.27060029E+02
  0
ARC
  8
0
 62
7
 10
4.16618312E+01
 20
5.53189387E+01
 40
4.62982188E+00
 50
1.28764356E+02
 51
1.54406588E+02
  0
ARC
  8
0
 62
7
 10
5.44195938E+01
 20
5.53208506E+01
 40
4.61870138E+00
 50
2.02430813E+01
 51
5.13697542E+01
  0
ARC
  8
0
 62
7
 10
4.15330124E+01
 20
5.53189387E+01
 40
2.06700000E+00
 50
2.44155050E+02
 51
3.21028716E+02
  0
LINE
  8
0
 62
2
 10
-6.01769876E+01
 20
5.36979387E+01
 11
-5.29569876E+01
 21
5.36979387E+01
  0
LINE
  8
0
 62
2
 10
-6.01769876E+01
 20
5.69399387E+01
 11
-5.29569876E+01
 21
5.69399387E+01
  0
LINE
  8
0
 62
2
 10
-6.76359876E+01
 20
5.36979387E+01
 11
-6.33769876E+01
 21
5.36979387E+01
  0
LINE
  8
0
 62
2
 10
-6.76359876E+01
 20
5.69399387E+01
 11
-6.33769876E+01
 21
5.69399387E+01
  0
LINE
  8
0
  6
CENTER
 62
2
 10
-6.98787461E+01
 20
5.53189387E+01
 11
6.13193719E+01
 21
5.53189387E+01
  0
LINE
  8
0
 62
4
 10
-7.28160120E+01
 20
-3.95654895E+01
 11
-7.28160120E+01
 21
-4.10654895E+01
  0
LINE
  8
0
 62
4
 10
-8.08160120E+01
 20
-3.95654895E+01
 11
-7.28160120E+01
 21
-3.95654895E+01
  0
LINE
  8
0
 62
4
 10
-8.08160120E+01
 20
-3.45654895E+01
 11
-7.28160120E+01
 21
-3.45654895E+01
  0
LINE
  8
0
 62
4
 10
-7.28160120E+01
 20
-3.30654895E+01
 11
-7.28160120E+01
 21
-3.45654895E+01
  0
LINE
  8
0
  6
CENTER
 62
6
 10
-6.88160120E+01
 20
-3.39867902E+01
 11
-6.88160120E+01
 21
-4.02937755E+01
  0
LINE
  8
0
 62
4
 10
-7.28160120E+01
 20
-4.10654895E+01
 11
-6.78160120E+01
 21
-4.10654895E+01
  0
LINE
  8
0
 62
4
 10
-7.28160120E+01
 20
-3.30654895E+01
 11
-6.78160120E+01
 21
-3.30654895E+01
  0
CIRCLE
  8
0
 62
4
 10
-6.88160120E+01
 20
-3.70654895E+01
 40
1.10000000E+00
  0
CIRCLE
  8
0
 62
4
 10
-6.88160120E+01
 20
-3.70654895E+01
 40
1.59999943E+00
  0
LINE
  8
0
 62
4
 10
-8.58160120E+01
 20
-4.35654895E+01
 11
-8.08160120E+01
 21
-4.35654895E+01
  0
LINE
  8
0
 62
4
 10
-8.08160120E+01
 20
-3.08354895E+01
 11
-8.08160120E+01
 21
-4.35654895E+01
  0
LINE
  8
0
 62
4
 10
-8.58160120E+01
 20
-3.08354895E+01
 11
-8.58160120E+01
 21
-4.35654895E+01
  0
LINE
  8
0
 62
4
 10
-8.58160120E+01
 20
-3.27354895E+01
 11
-8.08160120E+01
 21
-3.27354895E+01
  0
LINE
  8
0
 62
4
 10
-8.58160120E+01
 20
-3.08354895E+01
 11
-8.08160120E+01
 21
-3.08354895E+01
  0
LINE
  8
0
 62
4
 10
-8.58160120E+01
 20
-3.11954895E+01
 11
-8.08160120E+01
 21
-3.11954895E+01
  0
LINE
  8
0
  6
CENTER
 62
6
 10
-8.77993214E+01
 20
-3.70654895E+01
 11
-6.19585109E+01
 21
-3.70654895E+01
  0
ARC
  8
0
 62
4
 10
-6.78160120E+01
 20
-3.70654895E+01
 40
4.00000000E+00
 50
2.70000000E+02
 51
9.00000002E+01
  0
LINE
  8
0
  6
CENTER
 62
6
 10
-2.65325910E+01
 20
-3.10844001E+01
 11
-2.65325910E+01
 21
-4.64764274E+01
  0
LINE
  8
0
  6
CENTER
 62
6
 10
-3.61131858E+01
 20
-3.70654895E+01
 11
-1.73131011E+01
 21
-3.70654895E+01
  0
LINE
  8
0
 62
4
 10
-2.04325910E+01
 20
-4.10654895E+01
 11
-2.00325910E+01
 21
-4.10654895E+01
  0
LINE
  8
0
 62
4
 10
-3.34325910E+01
 20
-3.54654895E+01
 11
-3.34325910E+01
 21
-3.86654895E+01
  0
LINE
  8
0
 62
4
 10
-3.34325910E+01
 20
-3.54654895E+01
 11
-3.39325910E+01
 21
-3.59654895E+01
  0
LINE
  8
0
 62
4
 10
-3.39325910E+01
 20
-3.59654895E+01
 11
-3.39325910E+01
 21
-3.81654895E+01
  0
LINE
  8
0
 62
4
 10
-3.34325910E+01
 20
-3.86654895E+01
 11
-3.39325910E+01
 21
-3.81654895E+01
  0
LINE
  8
0
 62
4
 10
-3.34325910E+01
 20
-3.86654895E+01
 11
-2.04325910E+01
 21
-3.86654895E+01
  0
LINE
  8
0
 62
4
 10
-3.34325910E+01
 20
-3.54654895E+01
 11
-2.04325910E+01
 21
-3.54654895E+01
  0
ARC
  8
0
 62
4
 10
-2.65353260E+01
 20
-3.70654794E+01
 40
7.00087420E+00
 50
1.47744798E+02
 51
1.66788784E+02
  0
ARC
  8
0
 62
4
 10
-2.65323357E+01
 20
-3.70604095E+01
 40
7.00469417E+00
 50
1.93246650E+02
 51
3.30552688E+02
  0
ARC
  8
0
 62
4
 10
-2.65427892E+01
 20
-3.71014374E+01
 40
6.99693101E+00
 50
3.38502920E+02
 51
3.52080472E+02
  0
ARC
  8
0
 62
4
 10
-2.65353240E+01
 20
-3.70705290E+01
 40
7.49903105E+00
 50
3.30128328E+02
 51
3.52375597E+02
  0
LINE
  8
0
 62
4
 10
-2.00325910E+01
 20
-3.80654895E+01
 11
-1.89325910E+01
 21
-3.80654895E+01
  0
LINE
  8
0
 62
4
 10
-1.89325910E+01
 20
-3.60654895E+01
 11
-1.89325910E+01
 21
-3.80654895E+01
  0
LINE
  8
0
 62
4
 10
-2.00325910E+01
 20
-3.60654895E+01
 11
-1.89325910E+01
 21
-3.60654895E+01
  0
ARC
  8
0
 62
4
 10
-2.65322735E+01
 20
-3.70594145E+01
 40
7.49587013E+00
 50
7.61965181E+00
 51
2.98764230E+01
  0
LINE
  8
0
 62
4
 10
-2.04325910E+01
 20
-3.30654895E+01
 11
-2.00325910E+01
 21
-3.30654895E+01
  0
ARC
  8
0
 62
4
 10
-1.97337348E+01
 20
-3.28522186E+01
 40
5.05997495E-01
 50
1.35170308E+02
 51
2.04928438E+02
  0
ARC
  8
0
 62
4
 10
-1.97329970E+01
 20
-3.28492237E+01
 40
9.99382529E-01
 50
1.35237547E+02
 51
2.25570897E+02
  0
ARC
  8
0
 62
4
 10
-2.65402835E+01
 20
-3.70288837E+01
 40
6.99435861E+00
 50
7.91701914E+00
 51
2.14995887E+01
  0
LINE
  8
0
 62
4
 10
-2.00325910E+01
 20
-3.30654895E+01
 11
-2.00325910E+01
 21
-4.10654895E+01
  0
LINE
  8
0
 62
4
 10
-2.04425910E+01
 20
-3.21454895E+01
 11
-1.91425910E+01
 21
-3.08354895E+01
  0
LINE
  8
0
 62
4
 10
-1.91425910E+01
 20
-3.08354895E+01
 11
-1.87925910E+01
 21
-3.11954895E+01
  0
LINE
  8
0
 62
4
 10
-2.00925910E+01
 20
-3.24954895E+01
 11
-1.87925910E+01
 21
-3.11954895E+01
  0
ARC
  8
0
 62
4
 10
-2.65332981E+01
 20
-3.70596208E+01
 40
7.50010334E+00
 50
1.48272703E+02
 51
3.27716530E+02
  0
ARC
  8
0
 62
4
 10
-3.33301640E+01
 20
-3.28547057E+01
 40
9.94784285E-01
 50
3.28431721E+02
 51
4.54741939E+01
  0
ARC
  8
0
 62
4
 10
-3.33308944E+01
 20
-3.28487657E+01
 40
4.96104207E-01
 50
3.27477101E+02
 51
4.54060996E+01
  0
LINE
  8
0
 62
4
 10
-3.39325910E+01
 20
-3.08354895E+01
 11
-3.42825910E+01
 21
-3.11954895E+01
  0
LINE
  8
0
 62
4
 10
-3.39325910E+01
 20
-3.08354895E+01
 11
-3.26325910E+01
 21
-3.21454895E+01
  0
LINE
  8
0
 62
4
 10
-3.42825910E+01
 20
-3.11954895E+01
 11
-3.29825910E+01
 21
-3.24954895E+01
  0
LINE
  8
0
 62
4
 10
-2.04325910E+01
 20
-3.30654895E+01
 11
-2.04325910E+01
 21
-4.10654895E+01
  0
LINE
  8
0
  6
CENTER
 62
6
 10
9.48642961E+01
 20
-6.83716428E+01
 11
9.48642961E+01
 21
-7.63716428E+01
  0
LINE
  8
0
  6
CENTER
 62
6
 10
6.46642961E+01
 20
-6.83716428E+01
 11
6.46642961E+01
 21
-7.63716428E+01
  0
LINE
  8
0
  6
CENTER
 62
6
 10
7.97642961E+01
 20
-3.43716428E+01
 11
7.97642961E+01
 21
-7.63716428E+01
  0
LINE
  8
0
 62
4
 10
6.97642961E+01
 20
-7.13716428E+01
 11
5.97642961E+01
 21
-7.13716428E+01
  0
LINE
  8
0
 62
4
 10
6.97642961E+01
 20
-7.33716428E+01
 11
5.97642961E+01
 21
-7.33716428E+01
  0
ARC
  8
0
 62
4
 10
8.97642961E+01
 20
-7.03716428E+01
 40
3.00000000E+00
 50
1.80000000E+02
 51
2.70000000E+02
  0
ARC
  8
0
 62
4
 10
8.97642961E+01
 20
-7.03716428E+01
 40
1.00000000E+00
 50
1.80000000E+02
 51
2.70000000E+02
  0
ARC
  8
0
 62
4
 10
6.97642961E+01
 20
-7.03716428E+01
 40
1.00000000E+00
 50
2.70000000E+02
 51
0.00000000E+00
  0
ARC
  8
0
 62
4
 10
6.97642961E+01
 20
-7.03716428E+01
 40
3.00000000E+00
 50
2.70000000E+02
 51
0.00000000E+00
  0
LINE
  8
0
 62
4
 10
7.56642961E+01
 20
-6.83716428E+01
 11
8.38642961E+01
 21
-6.83716428E+01
  0
LINE
  8
0
 62
4
 10
7.56642961E+01
 20
-7.33716428E+01
 11
8.38642961E+01
 21
-7.33716428E+01
  0
LINE
  8
0
 62
4
 10
7.27642961E+01
 20
-6.83716428E+01
 11
7.27642961E+01
 21
-7.03716428E+01
  0
LINE
  8
0
 62
4
 10
7.07642961E+01
 20
-6.83716428E+01
 11
7.07642961E+01
 21
-7.03716428E+01
  0
LINE
  8
0
 62
4
 10
8.97642961E+01
 20
-7.33716428E+01
 11
9.97642961E+01
 21
-7.33716428E+01
  0
LINE
  8
0
 62
4
 10
8.67642961E+01
 20
-6.83716428E+01
 11
8.67642961E+01
 21
-7.03716428E+01
  0
LINE
  8
0
 62
4
 10
8.87642961E+01
 20
-6.83716428E+01
 11
8.87642961E+01
 21
-7.03716428E+01
  0
LINE
  8
0
 62
4
 10
9.97642961E+01
 20
-7.13716428E+01
 11
9.97642961E+01
 21
-7.33716428E+01
  0
LINE
  8
0
 62
4
 10
8.97642961E+01
 20
-7.13716428E+01
 11
9.97642961E+01
 21
-7.13716428E+01
  0
LINE
  8
0
 62
4
 10
7.82142961E+01
 20
-3.89816428E+01
 11
8.13142961E+01
 21
-3.89816428E+01
  0
LINE
  8
0
 62
4
 10
7.37642961E+01
 20
-5.63716428E+01
 11
7.37642961E+01
 21
-6.53716428E+01
  0
LINE
  8
0
 62
4
 10
7.82142961E+01
 20
-5.63716428E+01
 11
7.37642961E+01
 21
-5.63716428E+01
  0
LINE
  8
0
 62
4
 10
7.82142961E+01
 20
-3.73716428E+01
 11
7.82142961E+01
 21
-5.63716428E+01
  0
LINE
  8
0
 62
4
 10
7.37642961E+01
 20
-6.73716428E+01
 11
8.57642961E+01
 21
-6.73716428E+01
  0
LINE
  8
0
 62
4
 10
7.37642961E+01
 20
-6.53716428E+01
 11
8.57642961E+01
 21
-6.53716428E+01
  0
LINE
  8
0
 62
4
 10
8.13142961E+01
 20
-3.73716428E+01
 11
8.13142961E+01
 21
-5.63716428E+01
  0
LINE
  8
0
 62
4
 10
8.57642961E+01
 20
-5.63716428E+01
 11
8.57642961E+01
 21
-6.53716428E+01
  0
LINE
  8
0
 62
4
 10
7.82142961E+01
 20
-3.73716428E+01
 11
8.13142961E+01
 21
-3.73716428E+01
  0
LINE
  8
0
  6
CENTER
 62
6
 10
7.52142961E+01
 20
-4.43716428E+01
 11
8.43142961E+01
 21
-4.43716428E+01
  0
LINE
  8
0
 62
4
 10
8.13142961E+01
 20
-5.63716428E+01
 11
8.57642961E+01
 21
-5.63716428E+01
  0
LINE
  8
0
 62
4
 10
7.56642961E+01
 20
-6.73716428E+01
 11
7.56642961E+01
 21
-7.33716428E+01
  0
LINE
  8
0
 62
4
 10
8.38642961E+01
 20
-6.73716428E+01
 11
8.38642961E+01
 21
-7.33716428E+01
  0
ARC
  8
0
 62
4
 10
7.37642961E+01
 20
-6.83716428E+01
 40
1.00000000E+00
 50
9.00000002E+01
 51
1.80000000E+02
  0
ARC
  8
0
 62
4
 10
7.37642961E+01
 20
-6.83716428E+01
 40
3.00000000E+00
 50
9.00000002E+01
 51
1.80000000E+02
  0
ARC
  8
0
 62
4
 10
8.57642961E+01
 20
-6.83716428E+01
 40
1.00000000E+00
 50
0.00000000E+00
 51
9.00000002E+01
  0
ARC
  8
0
 62
4
 10
8.57642961E+01
 20
-6.83716428E+01
 40
3.00000000E+00
 50
0.00000000E+00
 51
9.00000002E+01
  0
LINE
  8
0
 62
4
 10
5.97642961E+01
 20
-7.13716428E+01
 11
5.97642961E+01
 21
-7.33716428E+01
  0
LINE
  8
0
  6
CENTER
 62
6
 10
2.87642961E+01
 20
-3.43666426E+01
 11
2.87642961E+01
 21
-7.63666426E+01
  0
LINE
  8
0
  6
CENTER
 62
6
 10
3.47642961E+01
 20
-6.83666426E+01
 11
3.47642961E+01
 21
-7.63666426E+01
  0
LINE
  8
0
  6
CENTER
 62
6
 10
2.27642961E+01
 20
-6.83666426E+01
 11
2.27642961E+01
 21
-7.63666426E+01
  0
LINE
  8
0
 62
4
 10
2.48642961E+01
 20
-7.13666426E+01
 11
2.48642961E+01
 21
-7.33666426E+01
  0
LINE
  8
0
 62
4
 10
2.06642961E+01
 20
-7.13666426E+01
 11
2.06642961E+01
 21
-7.33666426E+01
  0
LINE
  8
0
 62
4
 10
3.68642961E+01
 20
-7.13666426E+01
 11
3.68642961E+01
 21
-7.33666426E+01
  0
LINE
  8
0
 62
4
 10
3.26642961E+01
 20
-7.13666426E+01
 11
3.26642961E+01
 21
-7.33666426E+01
  0
LINE
  8
0
 62
4
 10
1.77642961E+01
 20
-7.33666426E+01
 11
3.97642961E+01
 21
-7.33666426E+01
  0
LINE
  8
0
 62
4
 10
1.77642961E+01
 20
-7.13666426E+01
 11
3.97642961E+01
 21
-7.13666426E+01
  0
ARC
  8
0
 62
4
 10
2.87642961E+01
 20
-4.93666445E+01
 40
1.19980057E+01
 50
5.99945013E+01
 51
1.20005499E+02
  0
CIRCLE
  8
0
 62
4
 10
2.87642961E+01
 20
-4.43666426E+01
 40
1.64999962E+00
  0
LINE
  8
0
 62
4
 10
2.27642961E+01
 20
-3.89766426E+01
 11
2.27642961E+01
 21
-6.53666426E+01
  0
LINE
  8
0
 62
4
 10
3.47642961E+01
 20
-3.89766426E+01
 11
3.47642961E+01
 21
-6.53666426E+01
  0
LINE
  8
0
 62
4
 10
1.77642961E+01
 20
-6.53666426E+01
 11
3.97642961E+01
 21
-6.53666426E+01
  0
LINE
  8
0
 62
4
 10
2.27642961E+01
 20
-5.63666426E+01
 11
3.47642961E+01
 21
-5.63666426E+01
  0
LINE
  8
0
  6
CENTER
 62
6
 10
1.97642961E+01
 20
-4.43666426E+01
 11
3.77642961E+01
 21
-4.43666426E+01
  0
LINE
  8
0
 62
4
 10
3.97642961E+01
 20
-6.53666426E+01
 11
3.97642961E+01
 21
-7.33666426E+01
  0
LINE
  8
0
 62
4
 10
1.77642961E+01
 20
-6.53666426E+01
 11
1.77642961E+01
 21
-7.33666426E+01
  0
ARC
  8
0
 62
4
 10
9.48642961E+01
 20
-8.37164848E+00
 40
2.10000000E+00
 50
9.00000002E+01
 51
2.70000000E+02
  0
ARC
  8
0
 62
4
 10
6.46642961E+01
 20
-8.37164848E+00
 40
2.10000000E+00
 50
2.70000000E+02
 51
9.00000002E+01
  0
ARC
  8
0
 62
4
 10
6.46642961E+01
 20
-2.03716485E+01
 40
2.10000000E+00
 50
2.70000000E+02
 51
9.00000002E+01
  0
ARC
  8
0
 62
4
 10
9.48642961E+01
 20
-2.03716485E+01
 40
2.10000000E+00
 50
9.00000002E+01
 51
2.70000000E+02
  0
LINE
  8
0
  6
CENTER
 62
6
 10
6.97642961E+01
 20
-2.03716485E+01
 11
5.67642961E+01
 21
-2.03716485E+01
  0
LINE
  8
0
  6
CENTER
 62
6
 10
6.97642961E+01
 20
-8.37164848E+00
 11
5.67642961E+01
 21
-8.37164848E+00
  0
LINE
  8
0
  6
CENTER
 62
6
 10
6.46642961E+01
 20
-2.66410813E+00
 11
6.46642961E+01
 21
-2.62890869E+01
  0
LINE
  8
0
  6
CENTER
 62
6
 10
9.48642961E+01
 20
-2.48096876E+00
 11
9.48642961E+01
 21
-2.62890869E+01
  0
LINE
  8
0
 62
4
 10
5.97642961E+01
 20
-2.24716485E+01
 11
5.97642961E+01
 21
-2.53716485E+01
  0
LINE
  8
0
 62
4
 10
5.97642961E+01
 20
-1.04716485E+01
 11
5.97642961E+01
 21
-1.82716485E+01
  0
LINE
  8
0
 62
4
 10
9.97642961E+01
 20
-2.24716485E+01
 11
9.97642961E+01
 21
-2.53716485E+01
  0
LINE
  8
0
 62
4
 10
9.97642961E+01
 20
-1.04716485E+01
 11
9.97642961E+01
 21
-1.82716485E+01
  0
LINE
  8
0
 62
4
 10
6.46642961E+01
 20
-2.24716485E+01
 11
5.97642961E+01
 21
-2.24716485E+01
  0
LINE
  8
0
 62
4
 10
6.46642961E+01
 20
-1.82716485E+01
 11
5.97642961E+01
 21
-1.82716485E+01
  0
LINE
  8
0
 62
4
 10
6.46642961E+01
 20
-1.04716485E+01
 11
5.97642961E+01
 21
-1.04716485E+01
  0
LINE
  8
0
 62
4
 10
6.46642961E+01
 20
-6.27164848E+00
 11
5.97642961E+01
 21
-6.27164848E+00
  0
LINE
  8
0
  6
CENTER
 62
6
 10
1.02764296E+02
 20
-2.03716485E+01
 11
8.97642961E+01
 21
-2.03716485E+01
  0
LINE
  8
0
  6
CENTER
 62
6
 10
1.02764296E+02
 20
-8.37164848E+00
 11
8.97642961E+01
 21
-8.37164848E+00
  0
LINE
  8
0
 62
4
 10
7.82142961E+01
 20
-8.37164848E+00
 11
7.82142961E+01
 21
-2.03716485E+01
  0
LINE
  8
0
 62
4
 10
8.13142961E+01
 20
-8.37164848E+00
 11
8.13142961E+01
 21
-2.03716485E+01
  0
LINE
  8
0
 62
4
 10
9.97642961E+01
 20
-2.24716485E+01
 11
9.48642961E+01
 21
-2.24716485E+01
  0
LINE
  8
0
 62
4
 10
9.97642961E+01
 20
-1.82716485E+01
 11
9.48642961E+01
 21
-1.82716485E+01
  0
LINE
  8
0
 62
4
 10
9.97642961E+01
 20
-1.04716485E+01
 11
9.48642961E+01
 21
-1.04716485E+01
  0
LINE
  8
0
 62
4
 10
9.97642961E+01
 20
-6.27164848E+00
 11
9.48642961E+01
 21
-6.27164848E+00
  0
LINE
  8
0
 62
4
 10
9.97642961E+01
 20
-3.37164848E+00
 11
5.97642961E+01
 21
-3.37164848E+00
  0
LINE
  8
0
 62
4
 10
8.57642961E+01
 20
-8.37164848E+00
 11
7.37642961E+01
 21
-8.37164848E+00
  0
LINE
  8
0
 62
4
 10
9.97642961E+01
 20
-2.53716485E+01
 11
5.97642961E+01
 21
-2.53716485E+01
  0
LINE
  8
0
 62
4
 10
8.57642961E+01
 20
-2.03716485E+01
 11
7.37642961E+01
 21
-2.03716485E+01
  0
LINE
  8
0
  6
CENTER
 62
6
 10
1.02764296E+02
 20
-1.43716485E+01
 11
5.67642961E+01
 21
-1.43716485E+01
  0
LINE
  8
0
 62
4
 10
9.97642961E+01
 20
-3.37164848E+00
 11
9.97642961E+01
 21
-6.27164848E+00
  0
LINE
  8
0
 62
4
 10
8.87642961E+01
 20
-3.37164848E+00
 11
8.87642961E+01
 21
-2.53716485E+01
  0
LINE
  8
0
 62
4
 10
8.57642961E+01
 20
-8.37164848E+00
 11
8.57642961E+01
 21
-2.03716485E+01
  0
LINE
  8
0
  6
CENTER
 62
6
 10
7.97642961E+01
 20
-2.66410813E+00
 11
7.97642961E+01
 21
-2.62890869E+01
  0
LINE
  8
0
 62
4
 10
7.37642961E+01
 20
-8.37164848E+00
 11
7.37642961E+01
 21
-2.03716485E+01
  0
LINE
  8
0
 62
4
 10
7.07642961E+01
 20
-3.37164848E+00
 11
7.07642961E+01
 21
-2.53716485E+01
  0
LINE
  8
0
 62
4
 10
5.97642961E+01
 20
-3.37164848E+00
 11
5.97642961E+01
 21
-6.27164848E+00
  0
TEXT
  8
0
 62
7
 10
-1.31249994E+02
 20
-8.84000031E+01
 40
3.20000005E+00
  1
STRETCH
 41
1.00000000E+00
  7
MONOTXT
  0
TEXT
  8
0
 62
7
 10
-1.29649994E+02
 20
-8.24000031E+01
 40
3.20000005E+00
  1
STROKE
 41
1.00000000E+00
  7
MONOTXT
  0
TEXT
  8
0
 10
-4.90026652E+00
 20
7.06555556E+01
 40
3.20000005E+00
  1
STRETCH LINE
 41
1.05263158E+00
  7
MONOTXT
  0
TEXT
  8
0
 62
7
 10
-8.12810173E+01
 20
-7.58649018E+01
 40
3.20000005E+00
  1
STRETCH LIST
 41
1.05263158E+00
  7
MONOTXT
  0
TEXT
  8
0
 62
7
 10
1.50006081E-01
 20
-8.24000031E+01
 40
3.20000005E+00
  1
60
 41
1.00000000E+00
  7
MONOTXT
  0
LINE
  8
0
 62
7
 10
7.80000610E+00
 20
-8.98000031E+01
 11
7.80000610E+00
 21
-7.78000031E+01
  0
TEXT
  8
0
 62
7
 10
1.50006081E-01
 20
-8.84000031E+01
 40
3.20000005E+00
  1
25
 41
1.00000000E+00
  7
MONOTXT
  0
TEXT
  8
0
 62
7
 10
-9.44999392E+00
 20
-8.24000031E+01
 40
3.20000005E+00
  1
55
 41
1.00000000E+00
  7
MONOTXT
  0
LINE
  8
0
 62
7
 10
-1.79999390E+00
 20
-8.98000031E+01
 11
-1.79999390E+00
 21
-7.78000031E+01
  0
TEXT
  8
0
 62
7
 10
-9.44999392E+00
 20
-8.84000031E+01
 40
3.20000005E+00
  1
20
 41
1.00000000E+00
  7
MONOTXT
  0
TEXT
  8
0
 62
7
 10
-1.90499939E+01
 20
-8.24000031E+01
 40
3.20000005E+00
  1
50
 41
1.00000000E+00
  7
MONOTXT
  0
LINE
  8
0
 62
7
 10
-1.13999939E+01
 20
-8.98000031E+01
 11
-1.13999939E+01
 21
-7.78000031E+01
  0
TEXT
  8
0
 62
7
 10
-1.90499939E+01
 20
-8.84000031E+01
 40
3.20000005E+00
  1
15
 41
1.00000000E+00
  7
MONOTXT
  0
TEXT
  8
0
 62
7
 10
-2.86499939E+01
 20
-8.24000031E+01
 40
3.20000005E+00
  1
45
 41
1.00000000E+00
  7
MONOTXT
  0
LINE
  8
0
 62
7
 10
-2.09999939E+01
 20
-8.98000031E+01
 11
-2.09999939E+01
 21
-7.78000031E+01
  0
TEXT
  8
0
 62
7
 10
-2.86499939E+01
 20
-8.84000031E+01
 40
3.20000005E+00
  1
10
 41
1.00000000E+00
  7
MONOTXT
  0
TEXT
  8
0
 62
7
 10
-3.82499939E+01
 20
-8.24000031E+01
 40
3.20000005E+00
  1
40
 41
1.00000000E+00
  7
MONOTXT
  0
LINE
  8
0
 62
7
 10
-3.05999939E+01
 20
-8.98000031E+01
 11
-3.05999939E+01
 21
-7.78000031E+01
  0
TEXT
  8
0
 62
7
 10
-3.66499939E+01
 20
-8.84000031E+01
 40
3.20000005E+00
  1
5
 41
1.00000000E+00
  7
MONOTXT
  0
TEXT
  8
0
 62
7
 10
-4.78499939E+01
 20
-8.24000031E+01
 40
3.20000005E+00
  1
35
 41
1.00000000E+00
  7
MONOTXT
  0
LINE
  8
0
 62
7
 10
-4.01999939E+01
 20
-8.98000031E+01
 11
-4.01999939E+01
 21
-7.78000031E+01
  0
TEXT
  8
0
 62
7
 10
-4.62499939E+01
 20
-8.84000031E+01
 40
3.20000005E+00
  1
0
 41
1.00000000E+00
  7
MONOTXT
  0
TEXT
  8
0
 62
7
 10
-5.74499939E+01
 20
-8.24000031E+01
 40
3.20000005E+00
  1
30
 41
1.00000000E+00
  7
MONOTXT
  0
LINE
  8
0
 62
7
 10
-4.97999939E+01
 20
-8.98000031E+01
 11
-4.97999939E+01
 21
-7.78000031E+01
  0
TEXT
  8
0
 62
7
 10
-5.90499940E+01
 20
-8.84000031E+01
 40
3.20000005E+00
  1
-15
 41
1.00000000E+00
  7
MONOTXT
  0
TEXT
  8
0
 62
7
 10
-6.70499939E+01
 20
-8.24000031E+01
 40
3.20000005E+00
  1
25
 41
1.00000000E+00
  7
MONOTXT
  0
LINE
  8
0
 62
7
 10
-5.93999939E+01
 20
-8.98000031E+01
 11
-5.93999939E+01
 21
-7.78000031E+01
  0
TEXT
  8
0
 62
7
 10
-6.86499940E+01
 20
-8.84000031E+01
 40
3.20000005E+00
  1
-20
 41
1.00000000E+00
  7
MONOTXT
  0
TEXT
  8
0
 62
7
 10
-7.66499939E+01
 20
-8.24000031E+01
 40
3.20000005E+00
  1
20
 41
1.00000000E+00
  7
MONOTXT
  0
LINE
  8
0
 62
7
 10
-6.89999939E+01
 20
-8.98000031E+01
 11
-6.89999939E+01
 21
-7.78000031E+01
  0
TEXT
  8
0
 62
7
 10
-7.82499940E+01
 20
-8.84000031E+01
 40
3.20000005E+00
  1
-25
 41
1.00000000E+00
  7
MONOTXT
  0
TEXT
  8
0
 62
7
 10
-8.62499939E+01
 20
-8.24000031E+01
 40
3.20000005E+00
  1
15
 41
1.00000000E+00
  7
MONOTXT
  0
LINE
  8
0
 62
7
 10
-7.85999939E+01
 20
-8.98000031E+01
 11
-7.85999939E+01
 21
-7.78000031E+01
  0
TEXT
  8
0
 62
7
 10
-8.78499940E+01
 20
-8.84000031E+01
 40
3.20000005E+00
  1
-35
 41
1.00000000E+00
  7
MONOTXT
  0
TEXT
  8
0
 62
7
 10
-9.58499939E+01
 20
-8.24000031E+01
 40
3.20000005E+00
  1
10
 41
1.00000000E+00
  7
MONOTXT
  0
LINE
  8
0
 62
7
 10
-8.81999939E+01
 20
-8.98000031E+01
 11
-8.81999939E+01
 21
-7.78000031E+01
  0
TEXT
  8
0
 62
7
 10
-9.74499940E+01
 20
-8.84000031E+01
 40
3.20000005E+00
  1
-40
 41
1.00000000E+00
  7
MONOTXT
  0
TEXT
  8
0
 62
7
 10
-1.03849994E+02
 20
-8.24000031E+01
 40
3.20000005E+00
  1
5
 41
1.00000000E+00
  7
MONOTXT
  0
TEXT
  8
0
 62
7
 10
-1.07049994E+02
 20
-8.84000031E+01
 40
3.20000005E+00
  1
-45
 41
1.00000000E+00
  7
MONOTXT
  0
LINE
  8
0
 62
7
 10
-1.33399994E+02
 20
-7.78000031E+01
 11
7.80000610E+00
 21
-7.78000031E+01
  0
LINE
  8
0
 62
7
 10
-9.77999939E+01
 20
-8.98000031E+01
 11
-9.77999939E+01
 21
-7.78000031E+01
  0
LINE
  8
0
 62
7
 10
-1.07399994E+02
 20
-8.98000031E+01
 11
-1.07399994E+02
 21
-7.78000031E+01
  0
LINE
  8
0
 62
7
 10
-1.33399994E+02
 20
-8.38000031E+01
 11
7.80000610E+00
 21
-8.38000031E+01
  0
LINE
  8
0
 62
7
 10
-1.33399994E+02
 20
-8.98000031E+01
 11
-1.33399994E+02
 21
-7.78000031E+01
  0
LINE
  8
0
 62
7
 10
-1.33399994E+02
 20
-8.98000031E+01
 11
7.80000610E+00
 21
-8.98000031E+01
  0
LINE
  8
0
 62
7
 10
-1.38399994E+02
 20
9.45000000E+01
 11
1.38350006E+02
 21
9.45000000E+01
  0
LINE
  8
0
 62
7
 10
1.38350006E+02
 20
9.45000000E+01
 11
1.38350006E+02
 21
-9.48000031E+01
  0
LINE
  8
0
 62
7
 10
-1.38399994E+02
 20
-9.48000031E+01
 11
1.38350006E+02
 21
-9.48000031E+01
  0
LINE
  8
0
 62
7
 10
-1.38399994E+02
 20
9.45000000E+01
 11
-1.38399994E+02
 21
-9.48000031E+01
  0
LINE
  8
0
 62
7
 10
7.33500061E+01
 20
-8.48000031E+01
 11
1.38350006E+02
 21
-8.48000031E+01
  0
LINE
  8
0
 62
7
 10
-1.38399994E+02
 20
8.45000000E+01
 11
-7.33999939E+01
 21
8.45000000E+01
  0
LINE
  8
0
 62
7
 10
7.33500061E+01
 20
8.45000000E+01
 11
1.38350006E+02
 21
8.45000000E+01
  0
LINE
  8
0
 62
7
 10
7.33500061E+01
 20
-8.48000031E+01
 11
7.33500061E+01
 21
-9.48000031E+01
  0
LINE
  8
0
 62
7
 10
7.33500061E+01
 20
9.45000000E+01
 11
7.33500061E+01
 21
8.45000000E+01
  0
LINE
  8
0
 62
7
 10
-7.33999939E+01
 20
9.45000000E+01
 11
-7.33999939E+01
 21
8.45000000E+01
  0
TEXT
  8
0
 62
7
 10
7.72426624E+01
 20
-9.20500031E+01
 40
4.50000000E+00
  1
KOGANEI CORP.
 41
1.04838710E+00
  7
MONOTXT
  0
TEXT
  8
0
 62
7
 10
9.35071483E+01
 20
8.79000000E+01
 40
3.20000005E+00
  1
Ver. 1.1
 41
1.08108108E+00
  7
MONOTXT
  0
TEXT
  8
0
 62
7
 10
-1.31042852E+02
 20
8.79000000E+01
 40
3.20000005E+00
  1
NEW PEN CYLINDER
 41
1.08108108E+00
  7
MONOTXT
  0
TEXT
  8
0
 62
7
 10
-1.29085994E+02
 20
7.29000000E+01
 40
3.20000005E+00
  1
MODEL:PBSAS10*ST(35)-7-ZC230
 41
1.00000000E+00
  7
MONOTXT
  0
ENDSEC
  0
EOF
