  0
SECTION
  2
HEADER
  9
$ACADVER
  1
AC1003
  9
$EXTMIN
 10
-1.38399994E+02
 20
-9.48000031E+01
  9
$EXTMAX
 10
1.38350006E+02
 20
9.45000000E+01
  9
$LIMMIN
 10
-1.38400994E+02
 20
-9.48010031E+01
  9
$LIMMAX
 10
1.38351006E+02
 20
9.45010000E+01
  9
$SNAPUNIT
 10
1
 20
1
  9
$SNAPBASE
 10
0
 20
0
  9
$GRIDMODE
 70
0
  9
$GRIDUNIT
 10
0
 20
0
  9
$LTSCALE
 40
4.61250000E+00
  9
$TEXTSIZE
 40
3.2
  9
$DIMTAD
 70
0
  9
$LUNITS
 70
2
  9
$LUPREC
 70
4
  9
$FILLETRAD
 40
0
  9
$AUNITS
 70
0
  9
$AUPREC
 70
0
  0
ENDSEC
  0
SECTION
  2
TABLES
  0
TABLE
  2
LTYPE
 70
2
  0
LTYPE
  2
CONTINUOUS
 70
64
  3
Solid-Line
 72
65
 73
0
 40
0
  0
LTYPE
  2
DASHED
 70
64
  3
DASHED
 72
65
 73
2
 40
.75
 49
.5
 49
-.25
  0
LTYPE
  2
HIDDEN
 70
64
  3
HIDDEN
 72
65
 73
2
 40
.375
 49
.25
 49
-.125
  0
LTYPE
  2
CENTER
 70
64
  3
CENTER
 72
65
 73
4
 40
2
 49
1.25
 49
-.25
 49
.25
 49
-.25
  0
LTYPE
  2
PHANTOM
 70
64
  3
PHANTOM
 72
65
 73
6
 40
2.5
 49
1.25
 49
-.25
 49
.25
 49
-.25
 49
.25
 49
-.25
  0
ENDTAB
  0
TABLE
  2
LAYER
 70
1
  0
LAYER
  2
1
 70
0
 62
7
  6
CONTINUOUS
 0
ENDTAB
  0
TABLE
  2
STYLE
 70
2
  0
STYLE
  2
MONOTXT
 70
0
 40
0
 41
1
 50
0
 71
0
 42
.2
  3
monotxt
  0
STYLE
  2
BIGFONT
 70
0
 40
0
 41
1
 50
0
 71
0
 42
.2
  3
txt
  4
bigfont
  0
ENDTAB
  0
ENDSEC
  0
SECTION
  2
ENTITIES
  0
LINE
  8
0
 62
4
 10
2.60733708E+00
 20
4.32949128E+01
 11
2.60733708E+00
 21
4.27949128E+01
  0
LINE
  8
0
 62
4
 10
7.60733708E+00
 20
4.32949128E+01
 11
7.60733708E+00
 21
4.27949128E+01
  0
LINE
  8
0
  6
CENTER
 62
6
 10
5.10733708E+00
 20
4.68049128E+01
 11
5.10733708E+00
 21
1.93749128E+01
  0
LINE
  8
0
 62
4
 10
3.75973371E+01
 20
4.32949128E+01
 11
3.75973371E+01
 21
4.27949128E+01
  0
LINE
  8
0
 62
4
 10
4.25973371E+01
 20
4.32949128E+01
 11
4.25973371E+01
 21
4.27949128E+01
  0
LINE
  8
0
  6
CENTER
 62
6
 10
4.00973371E+01
 20
4.68049128E+01
 11
4.00973371E+01
 21
1.93749128E+01
  0
LINE
  8
0
  6
PHANTOM
 10
2.61626871E+01
 20
1.44291001E+01
 11
2.61626871E+01
 21
4.68049127E+01
  0
TEXT
  8
0
 62
7
 10
1.05213996E+01
 20
2.23949128E+01
 40
1.50000000E+00
  1
PBSAS10
 41
1.00000000E+00
  7
MONOTXT
  0
LINE
  8
0
 62
7
 10
4.70973371E+01
 20
3.22949128E+01
 11
4.95973371E+01
 21
3.22949128E+01
  0
LINE
  8
0
 62
7
 10
9.60733708E+00
 20
2.13049128E+01
 11
3.55973371E+01
 21
2.13049128E+01
  0
LINE
  8
0
 62
7
 10
1.21073371E+01
 20
3.22949128E+01
 11
3.30973371E+01
 21
3.22949128E+01
  0
LINE
  8
0
 62
4
 10
4.70973371E+01
 20
3.70949128E+01
 11
5.25973371E+01
 21
3.70949128E+01
  0
LINE
  8
0
 62
4
 10
4.70973371E+01
 20
3.30949128E+01
 11
5.25973371E+01
 21
3.30949128E+01
  0
LINE
  8
0
 62
4
 10
3.30973371E+01
 20
3.48949128E+01
 11
3.30973371E+01
 21
3.17949128E+01
  0
LINE
  8
0
 62
4
 10
4.70973371E+01
 20
3.48949128E+01
 11
4.70973371E+01
 21
3.17949128E+01
  0
LINE
  8
0
 62
4
 10
3.55973371E+01
 20
3.52949128E+01
 11
4.45973371E+01
 21
3.52949128E+01
  0
LINE
  8
0
 62
4
 10
3.55973371E+01
 20
3.52949128E+01
 11
3.55973371E+01
 21
4.17949128E+01
  0
LINE
  8
0
 62
4
 10
4.45973371E+01
 20
3.52949128E+01
 11
4.45973371E+01
 21
4.17949128E+01
  0
LINE
  8
0
 62
4
 10
4.45973371E+01
 20
3.48949128E+01
 11
4.70973371E+01
 21
3.48949128E+01
  0
LINE
  8
0
 62
4
 10
4.45973371E+01
 20
3.80949128E+01
 11
4.70973371E+01
 21
3.80949128E+01
  0
LINE
  8
0
 62
4
 10
3.30973371E+01
 20
3.80949128E+01
 11
3.55973371E+01
 21
3.80949128E+01
  0
LINE
  8
0
 62
4
 10
3.30973371E+01
 20
3.52949128E+01
 11
3.55973371E+01
 21
3.52949128E+01
  0
LINE
  8
0
 62
4
 10
3.30973371E+01
 20
3.48949128E+01
 11
3.55973371E+01
 21
3.48949128E+01
  0
LINE
  8
0
 62
4
 10
3.55973371E+01
 20
2.11488601E+01
 11
4.45973371E+01
 21
2.11488601E+01
  0
LINE
  8
0
 62
6
 10
3.88673371E+01
 20
4.27949128E+01
 11
3.88673371E+01
 21
4.17949128E+01
  0
LINE
  8
0
 62
6
 10
4.13273371E+01
 20
4.27949128E+01
 11
4.13273371E+01
 21
4.17949128E+01
  0
LINE
  8
0
 62
4
 10
3.85973371E+01
 20
4.27949128E+01
 11
3.85973371E+01
 21
4.17949128E+01
  0
LINE
  8
0
 62
4
 10
4.15973371E+01
 20
4.27949128E+01
 11
4.15973371E+01
 21
4.17949128E+01
  0
LINE
  8
0
 62
4
 10
3.30973371E+01
 20
3.70949128E+01
 11
2.85973371E+01
 21
3.70949128E+01
  0
LINE
  8
0
 62
4
 10
4.45973371E+01
 20
3.52949128E+01
 11
4.45973371E+01
 21
2.11449128E+01
  0
LINE
  8
0
 62
4
 10
3.55973371E+01
 20
3.52949128E+01
 11
3.55973371E+01
 21
2.11449128E+01
  0
LINE
  8
0
 62
4
 10
3.55973371E+01
 20
4.17949128E+01
 11
4.45973371E+01
 21
4.17949128E+01
  0
LINE
  8
0
 62
4
 10
4.45973371E+01
 20
3.52949128E+01
 11
4.70973371E+01
 21
3.52949128E+01
  0
LINE
  8
0
 62
4
 10
3.55973371E+01
 20
2.11449128E+01
 11
4.45973371E+01
 21
2.11449128E+01
  0
LINE
  8
0
 62
4
 10
2.75973371E+01
 20
3.60949128E+01
 11
2.75973371E+01
 21
3.40949128E+01
  0
LINE
  8
0
 62
4
 10
2.85973371E+01
 20
3.30949128E+01
 11
3.30973371E+01
 21
3.30949128E+01
  0
LINE
  8
0
 62
4
 10
3.75973371E+01
 20
4.27949128E+01
 11
4.25973371E+01
 21
4.27949128E+01
  0
LINE
  8
0
 62
4
 10
2.85973371E+01
 20
3.70949128E+01
 11
2.85973371E+01
 21
3.30949128E+01
  0
LINE
  8
0
 62
4
 10
2.75973371E+01
 20
3.60949128E+01
 11
2.85973371E+01
 21
3.70949128E+01
  0
LINE
  8
0
 62
4
 10
2.75973371E+01
 20
3.40949128E+01
 11
2.85973371E+01
 21
3.30949128E+01
  0
LINE
  8
0
 62
4
 10
4.70973371E+01
 20
3.80949128E+01
 11
4.70973371E+01
 21
3.52949128E+01
  0
LINE
  8
0
 62
4
 10
3.30973371E+01
 20
3.80949128E+01
 11
3.30973371E+01
 21
3.52949128E+01
  0
LINE
  8
0
 62
4
 10
3.30973371E+01
 20
3.17949128E+01
 11
3.55973371E+01
 21
3.17949128E+01
  0
LINE
  8
0
 62
4
 10
4.45973371E+01
 20
3.17949128E+01
 11
4.70973371E+01
 21
3.17949128E+01
  0
LINE
  8
0
 62
4
 10
5.55973371E+01
 20
3.63949128E+01
 11
6.05343362E+01
 21
3.63949128E+01
  0
LINE
  8
0
 62
4
 10
5.55973371E+01
 20
3.37949128E+01
 11
5.79343362E+01
 21
3.37949128E+01
  0
LINE
  8
0
 62
4
 10
5.25973371E+01
 20
3.30949128E+01
 11
5.55973371E+01
 21
3.37949128E+01
  0
LINE
  8
0
 62
4
 10
5.25973371E+01
 20
3.70949128E+01
 11
5.55973371E+01
 21
3.63949128E+01
  0
LINE
  8
0
 62
4
 10
5.25973371E+01
 20
3.70949128E+01
 11
5.25973371E+01
 21
3.30949128E+01
  0
LINE
  8
0
 62
4
 10
5.55973371E+01
 20
3.63949128E+01
 11
5.55973371E+01
 21
3.37949128E+01
  0
LINE
  8
0
 62
6
 10
6.05343362E+01
 20
3.63949128E+01
 11
5.79343362E+01
 21
3.37949128E+01
  0
LINE
  8
0
 62
4
 10
1.21073371E+01
 20
3.70949128E+01
 11
1.76073371E+01
 21
3.70949128E+01
  0
LINE
  8
0
 62
4
 10
1.21073371E+01
 20
3.30949128E+01
 11
1.76073371E+01
 21
3.30949128E+01
  0
LINE
  8
0
 62
4
 10
-1.89266292E+00
 20
3.48949128E+01
 11
-1.89266292E+00
 21
3.17949128E+01
  0
LINE
  8
0
 62
4
 10
1.21073371E+01
 20
3.48949128E+01
 11
1.21073371E+01
 21
3.17949128E+01
  0
LINE
  8
0
 62
4
 10
6.07337084E-01
 20
3.52949128E+01
 11
9.60733708E+00
 21
3.52949128E+01
  0
LINE
  8
0
 62
4
 10
6.07337084E-01
 20
3.52949128E+01
 11
6.07337084E-01
 21
4.17949128E+01
  0
LINE
  8
0
 62
4
 10
9.60733708E+00
 20
3.52949128E+01
 11
9.60733708E+00
 21
4.17949128E+01
  0
LINE
  8
0
 62
4
 10
9.60733708E+00
 20
3.48949128E+01
 11
1.21073371E+01
 21
3.48949128E+01
  0
LINE
  8
0
 62
4
 10
9.60733708E+00
 20
3.80949128E+01
 11
1.21073371E+01
 21
3.80949128E+01
  0
LINE
  8
0
 62
4
 10
-1.89266293E+00
 20
3.80949128E+01
 11
6.07337084E-01
 21
3.80949128E+01
  0
LINE
  8
0
 62
4
 10
-1.89266293E+00
 20
3.52949128E+01
 11
6.07337084E-01
 21
3.52949128E+01
  0
LINE
  8
0
 62
4
 10
-1.89266293E+00
 20
3.48949128E+01
 11
6.07337084E-01
 21
3.48949128E+01
  0
LINE
  8
0
 62
4
 10
6.07337075E-01
 20
2.11488601E+01
 11
9.60733707E+00
 21
2.11488601E+01
  0
LINE
  8
0
 62
6
 10
3.87733708E+00
 20
4.27949128E+01
 11
3.87733708E+00
 21
4.17949128E+01
  0
LINE
  8
0
 62
6
 10
6.33733708E+00
 20
4.27949128E+01
 11
6.33733708E+00
 21
4.17949128E+01
  0
LINE
  8
0
 62
4
 10
3.60733708E+00
 20
4.27949128E+01
 11
3.60733708E+00
 21
4.17949128E+01
  0
LINE
  8
0
 62
4
 10
6.60733708E+00
 20
4.27949128E+01
 11
6.60733708E+00
 21
4.17949128E+01
  0
LINE
  8
0
 62
4
 10
-1.89266292E+00
 20
3.70949128E+01
 11
-6.39266292E+00
 21
3.70949128E+01
  0
LINE
  8
0
 62
4
 10
9.60733708E+00
 20
3.52949128E+01
 11
9.60733708E+00
 21
2.11449128E+01
  0
LINE
  8
0
 62
4
 10
6.07337084E-01
 20
3.52949128E+01
 11
6.07337084E-01
 21
2.11449128E+01
  0
LINE
  8
0
 62
4
 10
6.07337084E-01
 20
4.17949128E+01
 11
9.60733708E+00
 21
4.17949128E+01
  0
LINE
  8
0
 62
4
 10
9.60733708E+00
 20
3.52949128E+01
 11
1.21073371E+01
 21
3.52949128E+01
  0
LINE
  8
0
 62
4
 10
6.07337084E-01
 20
2.11449128E+01
 11
9.60733708E+00
 21
2.11449128E+01
  0
LINE
  8
0
 62
4
 10
-7.39266292E+00
 20
3.60949128E+01
 11
-7.39266292E+00
 21
3.40949128E+01
  0
LINE
  8
0
 62
4
 10
-6.39266292E+00
 20
3.30949128E+01
 11
-1.89266292E+00
 21
3.30949128E+01
  0
LINE
  8
0
 62
4
 10
2.60733708E+00
 20
4.27949128E+01
 11
7.60733708E+00
 21
4.27949128E+01
  0
LINE
  8
0
 62
4
 10
-6.39266292E+00
 20
3.70949128E+01
 11
-6.39266292E+00
 21
3.30949128E+01
  0
LINE
  8
0
 62
4
 10
-7.39266292E+00
 20
3.60949128E+01
 11
-6.39266292E+00
 21
3.70949128E+01
  0
LINE
  8
0
 62
4
 10
-7.39266292E+00
 20
3.40949128E+01
 11
-6.39266292E+00
 21
3.30949128E+01
  0
LINE
  8
0
 62
4
 10
1.21073371E+01
 20
3.80949128E+01
 11
1.21073371E+01
 21
3.52949128E+01
  0
LINE
  8
0
 62
4
 10
-1.89266292E+00
 20
3.80949128E+01
 11
-1.89266292E+00
 21
3.52949128E+01
  0
LINE
  8
0
 62
4
 10
-1.89266292E+00
 20
3.17949128E+01
 11
6.07337084E-01
 21
3.17949128E+01
  0
LINE
  8
0
 62
4
 10
9.60733708E+00
 20
3.17949128E+01
 11
1.21073371E+01
 21
3.17949128E+01
  0
LINE
  8
0
 62
4
 10
2.06073371E+01
 20
3.63949128E+01
 11
2.55443362E+01
 21
3.63949128E+01
  0
LINE
  8
0
 62
4
 10
2.06073371E+01
 20
3.37949128E+01
 11
2.29443362E+01
 21
3.37949128E+01
  0
LINE
  8
0
 62
4
 10
1.76073371E+01
 20
3.30949128E+01
 11
2.06073371E+01
 21
3.37949128E+01
  0
LINE
  8
0
 62
4
 10
1.76073371E+01
 20
3.70949128E+01
 11
2.06073371E+01
 21
3.63949128E+01
  0
LINE
  8
0
 62
4
 10
1.76073371E+01
 20
3.70949128E+01
 11
1.76073371E+01
 21
3.30949128E+01
  0
LINE
  8
0
 62
4
 10
2.06073371E+01
 20
3.63949128E+01
 11
2.06073371E+01
 21
3.37949128E+01
  0
LINE
  8
0
 62
6
 10
2.55443362E+01
 20
3.63949128E+01
 11
2.29443362E+01
 21
3.37949128E+01
  0
LINE
  8
0
 62
4
 10
4.95973371E+01
 20
2.13049128E+01
 11
5.50973371E+01
 21
2.13049128E+01
  0
LINE
  8
0
 62
4
 10
4.95973371E+01
 20
3.22949128E+01
 11
5.50973371E+01
 21
3.22949128E+01
  0
LINE
  8
0
 62
2
 10
-3.84826629E+01
 20
2.34814128E+01
 11
-4.02691629E+01
 21
2.34814128E+01
  0
LINE
  8
0
 62
2
 10
-3.84826629E+01
 20
3.01184128E+01
 11
-4.02691629E+01
 21
3.01184128E+01
  0
LINE
  8
0
 62
2
 10
-5.26126629E+01
 20
2.51839128E+01
 11
-4.53926629E+01
 21
2.51839128E+01
  0
LINE
  8
0
 62
2
 10
-5.26126629E+01
 20
2.84159128E+01
 11
-4.53926629E+01
 21
2.84159128E+01
  0
LINE
  8
0
 62
2
 10
-6.00771557E+01
 20
2.51839128E+01
 11
-5.58126629E+01
 21
2.51839128E+01
  0
LINE
  8
0
 62
2
 10
-6.00716629E+01
 20
2.84159128E+01
 11
-5.58126629E+01
 21
2.84159128E+01
  0
LINE
  8
0
 62
2
 10
-3.38926629E+01
 20
3.01184128E+01
 11
-3.44826629E+01
 21
3.01184128E+01
  0
LINE
  8
0
 62
2
 10
-3.38926629E+01
 20
2.34814128E+01
 11
-3.44826629E+01
 21
2.34814128E+01
  0
LINE
  8
0
 62
7
 10
-2.93926629E+01
 20
2.13049128E+01
 11
6.07337084E-01
 21
2.13049128E+01
  0
LINE
  8
0
 62
7
 10
-2.93926629E+01
 20
3.22949128E+01
 11
-1.89266292E+00
 21
3.22949128E+01
  0
LINE
  8
0
 62
7
 10
-2.93926629E+01
 20
3.27949128E+01
 11
-2.93926629E+01
 21
2.08049128E+01
  0
LINE
  8
0
 62
4
 10
4.95973371E+01
 20
3.22949128E+01
 11
4.95973371E+01
 21
2.13049128E+01
  0
LINE
  8
0
 62
7
 10
-3.23926629E+01
 20
3.27949128E+01
 11
-2.93926629E+01
 21
3.27949128E+01
  0
LINE
  8
0
 62
7
 10
-3.23926629E+01
 20
2.08049128E+01
 11
-2.93926629E+01
 21
2.08049128E+01
  0
LINE
  8
0
 62
4
 10
5.50973371E+01
 20
3.22949128E+01
 11
5.50973371E+01
 21
2.13049128E+01
  0
LINE
  8
0
 62
4
 10
5.55973371E+01
 20
3.17949128E+01
 11
5.55973371E+01
 21
2.18049128E+01
  0
LINE
  8
0
 62
7
 10
-4.03926629E+01
 20
2.99949128E+01
 11
-4.03926629E+01
 21
2.36049128E+01
  0
LINE
  8
0
 62
7
 10
-3.23926629E+01
 20
3.27949128E+01
 11
-3.23926629E+01
 21
2.08049128E+01
  0
LINE
  8
0
 62
4
 10
5.50973371E+01
 20
3.22949128E+01
 11
5.55973371E+01
 21
3.17949128E+01
  0
LINE
  8
0
 62
4
 10
5.55973371E+01
 20
2.18049128E+01
 11
5.50973371E+01
 21
2.13049128E+01
  0
LINE
  8
0
 62
7
 10
-3.95926629E+01
 20
3.07949128E+01
 11
-3.84826629E+01
 21
3.07949128E+01
  0
LINE
  8
0
 62
7
 10
-3.95926629E+01
 20
2.28049128E+01
 11
-3.84826629E+01
 21
2.28049128E+01
  0
LINE
  8
0
 62
7
 10
-3.95926629E+01
 20
3.07949128E+01
 11
-4.03926629E+01
 21
2.99949128E+01
  0
LINE
  8
0
 62
7
 10
-4.03926629E+01
 20
2.36049128E+01
 11
-3.95926629E+01
 21
2.28049128E+01
  0
LINE
  8
0
 62
7
 10
-3.95926629E+01
 20
3.07949128E+01
 11
-3.95926629E+01
 21
2.28049128E+01
  0
LINE
  8
0
 62
7
 10
-3.38926629E+01
 20
3.07949128E+01
 11
-3.38926629E+01
 21
2.28049128E+01
  0
LINE
  8
0
 62
7
 10
-6.03926629E+01
 20
2.80949128E+01
 11
-6.03926629E+01
 21
2.54949128E+01
  0
LINE
  8
0
 62
7
 10
-4.53926629E+01
 20
2.87949128E+01
 11
-4.53926629E+01
 21
2.48049128E+01
  0
LINE
  8
0
 62
7
 10
-5.96926629E+01
 20
2.87949128E+01
 11
-5.58126629E+01
 21
2.87949128E+01
  0
LINE
  8
0
 62
7
 10
-5.96926629E+01
 20
2.48049128E+01
 11
-5.58126629E+01
 21
2.48049128E+01
  0
LINE
  8
0
 62
7
 10
-5.96926629E+01
 20
2.87949128E+01
 11
-6.03926629E+01
 21
2.80949128E+01
  0
LINE
  8
0
 62
7
 10
-6.03926629E+01
 20
2.54949128E+01
 11
-5.96926629E+01
 21
2.48049128E+01
  0
LINE
  8
0
 62
7
 10
-5.96926629E+01
 20
2.87949128E+01
 11
-5.96926629E+01
 21
2.48049128E+01
  0
LINE
  8
0
  6
CENTER
 62
2
 10
-6.23926629E+01
 20
2.67949128E+01
 11
5.75973371E+01
 21
2.67949128E+01
  0
LINE
  8
0
 62
4
 10
-5.58126629E+01
 20
3.01949128E+01
 11
-5.58126629E+01
 21
2.34049128E+01
  0
LINE
  8
0
 62
4
 10
-5.26126629E+01
 20
3.01949128E+01
 11
-5.26126629E+01
 21
2.34049128E+01
  0
LINE
  8
0
 62
4
 10
-5.54426629E+01
 20
3.08349128E+01
 11
-5.29826629E+01
 21
3.08349128E+01
  0
LINE
  8
0
 62
4
 10
-5.54426629E+01
 20
2.27649128E+01
 11
-5.29826629E+01
 21
2.27649128E+01
  0
LINE
  8
0
 62
4
 10
-5.54426629E+01
 20
2.88149128E+01
 11
-5.29826629E+01
 21
2.88149128E+01
  0
LINE
  8
0
 62
4
 10
-5.54426629E+01
 20
2.47849128E+01
 11
-5.29826629E+01
 21
2.47849128E+01
  0
LINE
  8
0
 62
7
 10
-5.26126629E+01
 20
2.87949128E+01
 11
-4.03926629E+01
 21
2.87949128E+01
  0
LINE
  8
0
 62
7
 10
-5.26126629E+01
 20
2.48049128E+01
 11
-4.03926629E+01
 21
2.48049128E+01
  0
LINE
  8
0
 62
4
 10
-5.58126629E+01
 20
3.01949128E+01
 11
-5.54426629E+01
 21
3.08349128E+01
  0
LINE
  8
0
 62
4
 10
-5.29826629E+01
 20
3.08349128E+01
 11
-5.26126629E+01
 21
3.01949128E+01
  0
LINE
  8
0
 62
4
 10
-5.58126629E+01
 20
2.34049128E+01
 11
-5.54426629E+01
 21
2.27649128E+01
  0
LINE
  8
0
 62
4
 10
-5.29826629E+01
 20
2.27649128E+01
 11
-5.26126629E+01
 21
2.34049128E+01
  0
LINE
  8
0
 62
4
 10
-3.84826629E+01
 20
3.27949128E+01
 11
-3.84826629E+01
 21
2.08049128E+01
  0
LINE
  8
0
 62
4
 10
-3.44826629E+01
 20
3.27949128E+01
 11
-3.44826629E+01
 21
2.08049128E+01
  0
LINE
  8
0
 62
4
 10
-3.79526629E+01
 20
3.02549128E+01
 11
-3.50226629E+01
 21
3.02549128E+01
  0
LINE
  8
0
 62
4
 10
-3.79526629E+01
 20
2.33449128E+01
 11
-3.50226629E+01
 21
2.33449128E+01
  0
LINE
  8
0
 62
4
 10
-3.79526629E+01
 20
1.98749128E+01
 11
-3.50226629E+01
 21
1.98749128E+01
  0
LINE
  8
0
 62
4
 10
-3.79526629E+01
 20
3.37249128E+01
 11
-3.50226629E+01
 21
3.37249128E+01
  0
LINE
  8
0
 62
4
 10
-3.84826629E+01
 20
3.27949128E+01
 11
-3.79526629E+01
 21
3.37249128E+01
  0
LINE
  8
0
 62
7
 10
-3.44826629E+01
 20
3.07949128E+01
 11
-3.23926629E+01
 21
3.07949128E+01
  0
LINE
  8
0
 62
7
 10
-3.44826629E+01
 20
2.28049128E+01
 11
-3.23926629E+01
 21
2.28049128E+01
  0
LINE
  8
0
 62
4
 10
-3.44826629E+01
 20
3.27949128E+01
 11
-3.50226629E+01
 21
3.37249128E+01
  0
LINE
  8
0
 62
4
 10
-3.84826629E+01
 20
2.08049128E+01
 11
-3.79526629E+01
 21
1.98749128E+01
  0
LINE
  8
0
 62
4
 10
-3.44826629E+01
 20
2.08049128E+01
 11
-3.50226629E+01
 21
1.98749128E+01
  0
LINE
  8
0
 62
7
 10
4.45973371E+01
 20
2.13049128E+01
 11
4.95973371E+01
 21
2.13049128E+01
  0
LINE
  8
0
  6
CENTER
 62
2
 10
-3.08926629E+01
 20
2.83090930E+01
 11
-3.08926629E+01
 21
2.50834305E+01
  0
LINE
  8
0
 62
7
 10
-3.08926629E+01
 20
3.27949128E+01
 11
-3.08926629E+01
 21
3.04049128E+01
  0
LINE
  8
0
 62
7
 10
-3.08926629E+01
 20
2.31949128E+01
 11
-3.08926629E+01
 21
2.08049128E+01
  0
ARC
  8
0
 62
4
 10
-5.42559839E+01
 20
2.98249128E+01
 40
1.55830260E+00
 50
1.39598403E+02
 51
2.20401597E+02
  0
ARC
  8
0
 62
4
 10
-5.01213037E+01
 20
2.67999128E+01
 40
5.69008693E+00
 50
1.59260195E+02
 51
2.00739805E+02
  0
ARC
  8
0
 62
4
 10
-5.83174859E+01
 20
2.67999128E+01
 40
5.70268020E+00
 50
3.39308098E+02
 51
2.06919019E+01
  0
ARC
  8
0
 62
4
 10
-5.41828056E+01
 20
2.98249128E+01
 40
1.56857978E+00
 50
3.19917156E+02
 51
4.00828446E+01
  0
ARC
  8
0
 62
4
 10
-5.42559839E+01
 20
2.37749128E+01
 40
1.55830260E+00
 50
1.39598403E+02
 51
2.20401597E+02
  0
ARC
  8
0
 62
4
 10
-5.41828056E+01
 20
2.37749128E+01
 40
1.56857978E+00
 50
3.19917156E+02
 51
4.00828446E+01
  0
ARC
  8
0
 62
4
 10
-3.54251621E+01
 20
3.19899128E+01
 40
3.06569493E+00
 50
1.45532394E+02
 51
2.14467606E+02
  0
ARC
  8
0
 62
4
 10
-2.70280419E+01
 20
2.67999128E+01
 40
1.14579391E+01
 50
1.62450019E+02
 51
1.97549981E+02
  0
ARC
  8
0
 62
4
 10
-3.54251621E+01
 20
2.16099128E+01
 40
3.06569493E+00
 50
1.45532394E+02
 51
2.14467606E+02
  0
ARC
  8
0
 62
4
 10
-3.75591444E+01
 20
3.19899128E+01
 40
3.07310324E+00
 50
3.25627155E+02
 51
3.43728456E+01
  0
ARC
  8
0
 62
4
 10
-4.59562493E+01
 20
2.67999128E+01
 40
1.14664876E+01
 50
3.42463527E+02
 51
1.75364728E+01
  0
ARC
  8
0
 62
4
 10
-3.75591444E+01
 20
2.16099128E+01
 40
3.07310324E+00
 50
3.25627155E+02
 51
3.43728456E+01
  0
CIRCLE
  8
0
 62
7
 10
-3.08960687E+01
 20
2.67999139E+01
 40
5.00000000E-01
  0
ARC
  8
0
 62
7
 10
-2.73127252E+01
 20
2.67999128E+01
 40
5.08054911E+00
 50
1.34800144E+02
 51
2.25199856E+02
  0
ARC
  8
0
 62
7
 10
-3.44793969E+01
 20
2.67999128E+01
 40
5.08534029E+00
 50
3.14854477E+02
 51
4.51455229E+01
  0
LINE
  8
0
 62
4
 10
3.85973371E+01
 20
4.42949128E+01
 11
4.15973371E+01
 21
4.42949128E+01
  0
ARC
  8
0
 62
4
 10
3.85981286E+01
 20
4.32941213E+01
 40
1.00079180E+00
 50
9.00000002E+01
 51
1.79954687E+02
  0
ARC
  8
0
 62
4
 10
4.15956714E+01
 20
4.32932471E+01
 40
1.00166704E+00
 50
9.52762946E-02
 51
8.99047236E+01
  0
LINE
  8
0
 62
4
 10
3.60733708E+00
 20
4.42949128E+01
 11
6.60733708E+00
 21
4.42949128E+01
  0
ARC
  8
0
 62
4
 10
3.60812857E+00
 20
4.32941213E+01
 40
1.00079180E+00
 50
9.00000002E+01
 51
1.79954687E+02
  0
ARC
  8
0
 62
4
 10
6.60567143E+00
 20
4.32932471E+01
 40
1.00166704E+00
 50
9.52762946E-02
 51
8.99047236E+01
  0
LINE
  8
0
 62
4
 10
-9.32526629E+01
 20
3.40949128E+01
 11
-9.22526629E+01
 21
3.30949128E+01
  0
LINE
  8
0
 62
4
 10
-9.53526629E+01
 20
3.40949128E+01
 11
-9.63526629E+01
 21
3.30949128E+01
  0
LINE
  8
0
 62
4
 10
-9.32526629E+01
 20
3.60949128E+01
 11
-9.22526629E+01
 21
3.70949128E+01
  0
LINE
  8
0
 62
4
 10
-9.53526629E+01
 20
3.60949128E+01
 11
-9.63526629E+01
 21
3.70949128E+01
  0
LINE
  8
0
 62
4
 10
-9.53920001E+01
 20
3.40949128E+01
 11
-9.32526629E+01
 21
3.40949128E+01
  0
LINE
  8
0
 62
4
 10
-9.53526629E+01
 20
3.60949128E+01
 11
-9.53526629E+01
 21
3.40949128E+01
  0
LINE
  8
0
 62
4
 10
-9.32526629E+01
 20
3.60949128E+01
 11
-9.53526629E+01
 21
3.60949128E+01
  0
LINE
  8
0
 62
4
 10
-9.32526629E+01
 20
3.60949128E+01
 11
-9.32526629E+01
 21
3.40949128E+01
  0
LINE
  8
0
 62
4
 10
-9.53920001E+01
 20
3.30949128E+01
 11
-9.63526629E+01
 21
3.30949128E+01
  0
LINE
  8
0
 62
4
 10
-9.28026629E+01
 20
3.90949128E+01
 11
-9.31026629E+01
 21
3.87949128E+01
  0
LINE
  8
0
 62
4
 10
-9.58026629E+01
 20
3.90949128E+01
 11
-9.55026629E+01
 21
3.87949128E+01
  0
LINE
  8
0
 62
4
 10
-9.86522100E+01
 20
4.04288672E+01
 11
-9.91498579E+01
 21
4.04773093E+01
  0
LINE
  8
0
 62
4
 10
-9.91498579E+01
 20
4.04773093E+01
 11
-1.00099336E+02
 21
3.07232800E+01
  0
LINE
  8
0
 62
4
 10
-9.91326629E+01
 20
3.39449128E+01
 11
-9.92819573E+01
 21
3.39594454E+01
  0
LINE
  8
0
 62
4
 10
-9.86522100E+01
 20
4.04288672E+01
 11
-9.95252949E+01
 21
3.14596265E+01
  0
LINE
  8
0
 62
4
 10
-9.91326629E+01
 20
3.39449128E+01
 11
-9.93568701E+01
 21
3.16416223E+01
  0
LINE
  8
0
 62
4
 10
-9.08026629E+01
 20
3.52949128E+01
 11
-8.99661747E+01
 21
3.22879200E+01
  0
LINE
  8
0
 62
4
 10
-9.09526629E+01
 20
3.52949128E+01
 11
-9.01592864E+01
 21
3.24345642E+01
  0
LINE
  8
0
 62
4
 10
-9.75526629E+01
 20
3.87949128E+01
 11
-9.75526629E+01
 21
3.27949128E+01
  0
LINE
  8
0
 62
4
 10
-9.10526629E+01
 20
3.87949128E+01
 11
-9.10526629E+01
 21
3.52949128E+01
  0
LINE
  8
0
 62
4
 10
-9.10526629E+01
 20
3.87949128E+01
 11
-9.75526629E+01
 21
3.87949128E+01
  0
LINE
  8
0
 62
4
 10
-9.22526629E+01
 20
3.30949128E+01
 11
-9.32133257E+01
 21
3.30949128E+01
  0
LINE
  8
0
 62
4
 10
-9.63526629E+01
 20
3.70949128E+01
 11
-9.63526629E+01
 21
3.30949128E+01
  0
LINE
  8
0
 62
4
 10
-9.22526629E+01
 20
3.70949128E+01
 11
-9.63526629E+01
 21
3.70949128E+01
  0
LINE
  8
0
 62
4
 10
-9.33026629E+01
 20
3.73949128E+01
 11
-9.33026629E+01
 21
3.70949128E+01
  0
LINE
  8
0
 62
4
 10
-9.53026629E+01
 20
3.73949128E+01
 11
-9.53026629E+01
 21
3.70949128E+01
  0
LINE
  8
0
 62
4
 10
-9.33026629E+01
 20
3.73949128E+01
 11
-9.53026629E+01
 21
3.73949128E+01
  0
LINE
  8
0
 62
4
 10
-9.10526629E+01
 20
3.80949128E+01
 11
-9.75526629E+01
 21
3.80949128E+01
  0
LINE
  8
0
 62
4
 10
-9.10526629E+01
 20
3.48949128E+01
 11
-9.22526629E+01
 21
3.48949128E+01
  0
LINE
  8
0
 62
4
 10
-9.10526629E+01
 20
3.52949128E+01
 11
-9.22526629E+01
 21
3.52949128E+01
  0
LINE
  8
0
 62
4
 10
-9.10526629E+01
 20
3.48949128E+01
 11
-9.10526629E+01
 21
3.27949128E+01
  0
LINE
  8
0
 62
4
 10
-9.22526629E+01
 20
3.70949128E+01
 11
-9.22526629E+01
 21
3.30949128E+01
  0
LINE
  8
0
 62
4
 10
-9.78026629E+01
 20
4.04949128E+01
 11
-9.78026629E+01
 21
3.45949128E+01
  0
LINE
  8
0
 62
4
 10
-9.08026629E+01
 20
4.04949128E+01
 11
-9.08026629E+01
 21
3.52949128E+01
  0
LINE
  8
0
 62
4
 10
-9.18026629E+01
 20
4.27949128E+01
 11
-9.68026629E+01
 21
4.27949128E+01
  0
LINE
  8
0
 62
4
 10
-9.08026629E+01
 20
4.17949128E+01
 11
-9.78026629E+01
 21
4.17949128E+01
  0
LINE
  8
0
 62
4
 10
-9.23026629E+01
 20
4.02949128E+01
 11
-9.63026629E+01
 21
4.02949128E+01
  0
LINE
  8
0
 62
4
 10
-9.13026629E+01
 20
4.09949128E+01
 11
-9.73026629E+01
 21
4.09949128E+01
  0
LINE
  8
0
 62
4
 10
-9.86026629E+01
 20
4.09949128E+01
 11
-9.86026629E+01
 21
3.45949128E+01
  0
LINE
  8
0
 62
4
 10
-9.00026629E+01
 20
4.09949128E+01
 11
-9.00026629E+01
 21
3.52949128E+01
  0
LINE
  8
0
 62
4
 10
-9.63626629E+01
 20
4.09949128E+01
 11
-9.63026629E+01
 21
4.02949128E+01
  0
LINE
  8
0
 62
4
 10
-9.22426629E+01
 20
4.09949128E+01
 11
-9.23026629E+01
 21
4.02949128E+01
  0
LINE
  8
0
 62
4
 10
-9.00026629E+01
 20
3.52949128E+01
 11
-9.08026629E+01
 21
3.52949128E+01
  0
LINE
  8
0
 62
4
 10
-9.78026629E+01
 20
3.45949128E+01
 11
-9.86026629E+01
 21
3.45949128E+01
  0
LINE
  8
0
 62
4
 10
-9.86026629E+01
 20
3.67949128E+01
 11
-9.89842777E+01
 21
3.70175214E+01
  0
LINE
  8
0
 62
4
 10
-1.00202663E+02
 20
4.00949128E+01
 11
-1.00202663E+02
 21
3.77249128E+01
  0
LINE
  8
0
 62
4
 10
-9.94026629E+01
 20
4.00949128E+01
 11
-1.00202663E+02
 21
4.00949128E+01
  0
LINE
  8
0
 62
4
 10
-9.94026629E+01
 20
4.00949128E+01
 11
-9.94026629E+01
 21
3.81849128E+01
  0
LINE
  8
0
 62
4
 10
-9.86026629E+01
 20
3.77249128E+01
 11
-9.88993729E+01
 21
3.78897516E+01
  0
LINE
  8
0
 62
4
 10
-9.09526629E+01
 20
4.04949128E+01
 11
-9.09526629E+01
 21
3.52949128E+01
  0
LINE
  8
0
 62
4
 10
-9.08026629E+01
 20
4.04949128E+01
 11
-9.09526629E+01
 21
4.04949128E+01
  0
LINE
  8
0
 62
4
 10
-9.93748120E+01
 20
3.81663455E+01
 11
-9.94026629E+01
 21
3.81849128E+01
  0
LINE
  8
0
 62
4
 10
-9.94605547E+01
 20
3.72855066E+01
 11
-1.00202663E+02
 21
3.77249128E+01
  0
LINE
  8
0
 62
4
 10
-9.28026629E+01
 20
4.27949128E+01
 11
-9.28026629E+01
 21
4.17949128E+01
  0
LINE
  8
0
 62
4
 10
-9.58026629E+01
 20
4.27949128E+01
 11
-9.58026629E+01
 21
4.17949128E+01
  0
LINE
  8
0
 62
6
 10
-9.55326629E+01
 20
4.27949128E+01
 11
-9.55326629E+01
 21
4.17949128E+01
  0
LINE
  8
0
 62
6
 10
-9.30726629E+01
 20
4.27949128E+01
 11
-9.30726629E+01
 21
4.17949128E+01
  0
LINE
  8
0
 62
4
 10
-9.68026629E+01
 20
4.32949128E+01
 11
-9.68026629E+01
 21
4.27949128E+01
  0
LINE
  8
0
 62
4
 10
-9.18026629E+01
 20
4.32949128E+01
 11
-9.18026629E+01
 21
4.27949128E+01
  0
LINE
  8
0
 62
4
 10
-9.28026629E+01
 20
4.42949128E+01
 11
-9.58026629E+01
 21
4.42949128E+01
  0
LINE
  8
0
 62
4
 10
-9.28026629E+01
 20
4.02949128E+01
 11
-9.28026629E+01
 21
3.90949128E+01
  0
LINE
  8
0
 62
6
 10
-9.30726629E+01
 20
4.02949128E+01
 11
-9.30726629E+01
 21
3.88249128E+01
  0
LINE
  8
0
 62
6
 10
-9.55326629E+01
 20
4.02949128E+01
 11
-9.55326629E+01
 21
3.88249128E+01
  0
LINE
  8
0
 62
4
 10
-9.58026629E+01
 20
4.02949128E+01
 11
-9.58026629E+01
 21
3.90949128E+01
  0
ARC
  8
0
 62
4
 10
-9.13028231E+01
 20
4.04947526E+01
 40
5.00160181E-01
 50
1.83465799E-02
 51
9.00000002E+01
  0
ARC
  8
0
 62
4
 10
-9.73102881E+01
 20
4.05025379E+01
 40
4.92433852E-01
 50
8.91127567E+01
 51
1.80887243E+02
  0
ARC
  8
0
 62
4
 10
-9.08028013E+01
 20
4.09947744E+01
 40
8.00138358E-01
 50
9.90662024E-03
 51
9.00000002E+01
  0
ARC
  8
0
 62
4
 10
-9.78102881E+01
 20
4.10025379E+01
 40
7.92411497E-01
 50
8.94486475E+01
 51
1.80551352E+02
  0
ARC
  8
0
 62
4
 10
-9.28027925E+01
 20
4.32947832E+01
 40
1.00012957E+00
 50
7.42247612E-03
 51
9.00000002E+01
  0
ARC
  8
0
 62
4
 10
-9.58102896E+01
 20
4.33025395E+01
 40
9.92402587E-01
 50
8.95596718E+01
 51
1.80440329E+02
  0
LINE
  8
0
 62
7
 10
-1.00302663E+02
 20
2.33449128E+01
 11
-1.00302663E+02
 21
2.31949128E+01
  0
LINE
  8
0
 62
4
 10
-1.00302663E+02
 20
3.02549128E+01
 11
-1.00302663E+02
 21
2.33449128E+01
  0
LINE
  8
0
 62
7
 10
-8.83026629E+01
 20
2.33449128E+01
 11
-8.83026629E+01
 21
2.31949128E+01
  0
LINE
  8
0
 62
4
 10
-8.83026629E+01
 20
3.02549128E+01
 11
-8.83026629E+01
 21
2.33449128E+01
  0
CIRCLE
  8
0
 62
2
 10
-9.43026629E+01
 20
2.67949128E+01
 40
1.62100000E+00
  0
LINE
  8
0
  6
CENTER
 62
2
 10
-1.02302663E+02
 20
2.67949128E+01
 11
-8.63026629E+01
 21
2.67949128E+01
  0
LINE
  8
0
  6
CENTER
 62
2
 10
-9.43026629E+01
 20
4.56099412E+01
 11
-9.43026629E+01
 21
1.88049128E+01
  0
LINE
  8
0
 62
4
 10
-9.43026629E+01
 20
3.08349128E+01
 11
-9.78026629E+01
 21
2.88149128E+01
  0
LINE
  8
0
 62
4
 10
-9.78026629E+01
 20
2.88149128E+01
 11
-9.78026629E+01
 21
2.47849128E+01
  0
LINE
  8
0
 62
4
 10
-9.78026629E+01
 20
2.47849128E+01
 11
-9.43026629E+01
 21
2.27649128E+01
  0
LINE
  8
0
 62
4
 10
-9.43026629E+01
 20
2.27649128E+01
 11
-9.08026629E+01
 21
2.47849128E+01
  0
LINE
  8
0
 62
4
 10
-9.08026629E+01
 20
2.47849128E+01
 11
-9.08026629E+01
 21
2.88149128E+01
  0
LINE
  8
0
 62
4
 10
-9.08026629E+01
 20
2.88149128E+01
 11
-9.43026629E+01
 21
3.08349128E+01
  0
LINE
  8
0
 62
4
 10
-9.43026629E+01
 20
3.37249128E+01
 11
-1.00302663E+02
 21
3.02549128E+01
  0
LINE
  8
0
 62
7
 10
-8.83026629E+01
 20
3.04049128E+01
 11
-8.83026629E+01
 21
3.02549128E+01
  0
LINE
  8
0
 62
7
 10
-9.79126629E+01
 20
2.08049128E+01
 11
-9.59126629E+01
 21
2.08049128E+01
  0
LINE
  8
0
 62
7
 10
-9.79126629E+01
 20
3.27949128E+01
 11
-9.59126629E+01
 21
3.27949128E+01
  0
LINE
  8
0
 62
7
 10
-1.00302663E+02
 20
3.04049128E+01
 11
-1.00302663E+02
 21
3.02549128E+01
  0
LINE
  8
0
 62
4
 10
-1.00302663E+02
 20
2.33449128E+01
 11
-9.43026629E+01
 21
1.98749128E+01
  0
LINE
  8
0
 62
4
 10
-9.43026629E+01
 20
1.98749128E+01
 11
-8.83026629E+01
 21
2.33449128E+01
  0
LINE
  8
0
 62
4
 10
-8.83026629E+01
 20
3.02549128E+01
 11
-9.43026629E+01
 21
3.37249128E+01
  0
LINE
  8
0
 62
7
 10
-9.27026629E+01
 20
2.08049128E+01
 11
-9.07026629E+01
 21
2.08049128E+01
  0
LINE
  8
0
 62
7
 10
-9.27026629E+01
 20
3.27949128E+01
 11
-9.07026629E+01
 21
3.27949128E+01
  0
CIRCLE
  8
0
 62
7
 10
-9.43097039E+01
 20
2.67999139E+01
 40
2.00000000E+00
  0
CIRCLE
  8
0
 62
4
 10
-9.43097039E+01
 20
2.67999139E+01
 40
3.50000000E+00
  0
ARC
  8
0
 62
7
 10
-9.43097039E+01
 20
2.67999128E+01
 40
3.99311751E+00
 50
1.51014793E+02
 51
2.08985207E+02
  0
ARC
  8
0
 62
7
 10
-9.43068332E+01
 20
2.67982528E+01
 40
3.99405996E+00
 50
2.10937213E+02
 51
2.68912138E+02
  0
ARC
  8
0
 62
7
 10
-9.43095172E+01
 20
2.68000220E+01
 40
3.99584842E+00
 50
2.71102069E+02
 51
3.29048580E+02
  0
ARC
  8
0
 62
7
 10
-9.43097039E+01
 20
2.67999128E+01
 40
4.00544151E+00
 50
3.31112406E+02
 51
2.88875940E+01
  0
ARC
  8
0
 62
7
 10
-9.43095162E+01
 20
2.67998052E+01
 40
3.99584669E+00
 50
3.09514064E+01
 51
8.88979451E+01
  0
ARC
  8
0
 62
7
 10
-9.43068341E+01
 20
2.68015744E+01
 40
3.99405823E+00
 50
9.10878482E+01
 51
1.49062800E+02
  0
ARC
  8
0
 62
7
 10
-9.43086827E+01
 20
2.67988929E+01
 40
6.99403112E+00
 50
2.11017088E+02
 51
2.38982912E+02
  0
CIRCLE
  8
0
 62
4
 10
-9.43097039E+01
 20
2.67999139E+01
 40
6.00000000E+00
  0
ARC
  8
0
 62
7
 10
-9.42961455E+01
 20
2.68134517E+01
 40
7.00111833E+00
 50
3.00882066E+02
 51
3.28878703E+02
  0
ARC
  8
0
 62
7
 10
-9.42961444E+01
 20
2.67863749E+01
 40
7.00111676E+00
 50
3.11212937E+01
 51
5.91179366E+01
  0
ARC
  8
0
 62
7
 10
-9.43086839E+01
 20
2.68009337E+01
 40
6.99402955E+00
 50
1.21017085E+02
 51
1.48982915E+02
  0
LINE
  8
0
  6
CENTER
 62
2
 10
9.06973371E+01
 20
4.54000496E+01
 11
9.06973371E+01
 21
1.88049128E+01
  0
LINE
  8
0
 62
4
 10
8.90892679E+01
 20
2.08049128E+01
 11
9.06973371E+01
 21
1.98749128E+01
  0
LINE
  8
0
 62
4
 10
9.06973371E+01
 20
1.98749128E+01
 11
9.23054062E+01
 21
2.08049128E+01
  0
ARC
  8
0
 62
7
 10
9.06973371E+01
 20
2.67949128E+01
 40
6.00000000E+00
 50
1.19623240E+02
 51
1.40941087E+02
  0
ARC
  8
0
 62
7
 10
9.06973371E+01
 20
2.67949128E+01
 40
6.00000000E+00
 50
2.91162406E+01
 51
6.03767598E+01
  0
ARC
  8
0
 62
7
 10
9.07038556E+01
 20
2.67863749E+01
 40
7.00111676E+00
 50
4.38594028E+01
 51
5.91179366E+01
  0
LINE
  8
0
 62
7
 10
9.39473371E+01
 20
3.27949128E+01
 11
9.42973371E+01
 21
3.27949128E+01
  0
ARC
  8
0
 62
7
 10
9.06913161E+01
 20
2.68009337E+01
 40
6.99402955E+00
 50
1.28236157E+02
 51
1.48982915E+02
  0
LINE
  8
0
 62
4
 10
8.91973371E+01
 20
3.90949128E+01
 11
8.94973371E+01
 21
3.87949128E+01
  0
LINE
  8
0
 62
4
 10
9.21973371E+01
 20
3.90949128E+01
 11
9.18973371E+01
 21
3.87949128E+01
  0
LINE
  8
0
 62
4
 10
9.50468842E+01
 20
4.04288672E+01
 11
9.55445320E+01
 21
4.04773093E+01
  0
LINE
  8
0
 62
4
 10
9.55445320E+01
 20
4.04773093E+01
 11
9.65618160E+01
 21
3.00267048E+01
  0
LINE
  8
0
 62
4
 10
9.60641682E+01
 20
2.99782627E+01
 11
9.65618160E+01
 21
3.00267048E+01
  0
LINE
  8
0
 62
4
 10
9.55273371E+01
 20
3.39449128E+01
 11
9.56766314E+01
 21
3.39594454E+01
  0
LINE
  8
0
 62
4
 10
9.50468842E+01
 20
4.04288672E+01
 11
9.63207576E+01
 21
2.73423084E+01
  0
LINE
  8
0
 62
4
 10
9.55273371E+01
 20
3.39449128E+01
 11
9.61714632E+01
 21
2.73277758E+01
  0
LINE
  8
0
 62
4
 10
8.71973371E+01
 20
3.52949128E+01
 11
8.52540273E+01
 21
2.83091381E+01
  0
LINE
  8
0
 62
4
 10
8.73473371E+01
 20
3.52949128E+01
 11
8.53974324E+01
 21
2.82649503E+01
  0
ARC
  8
0
 62
4
 10
9.06973371E+01
 20
2.67949128E+01
 40
5.65000000E+00
 50
1.64454443E+02
 51
5.55977625E+00
  0
ARC
  8
0
 62
4
 10
9.06973371E+01
 20
2.67949128E+01
 40
5.50000000E+00
 50
1.64497551E+02
 51
5.55977625E+00
  0
CIRCLE
  8
0
 62
4
 10
9.06973371E+01
 20
3.50949128E+01
 40
1.30000000E+00
  0
LINE
  8
0
 62
4
 10
9.39473371E+01
 20
3.87949128E+01
 11
9.39473371E+01
 21
3.22949128E+01
  0
LINE
  8
0
 62
4
 10
8.74473371E+01
 20
3.87949128E+01
 11
8.74473371E+01
 21
3.52949128E+01
  0
LINE
  8
0
 62
4
 10
8.79473371E+01
 20
3.17949128E+01
 11
8.84060492E+01
 21
3.17949128E+01
  0
LINE
  8
0
 62
4
 10
8.74473371E+01
 20
3.87949128E+01
 11
9.39473371E+01
 21
3.87949128E+01
  0
LINE
  8
0
 62
4
 10
8.86473371E+01
 20
3.30949128E+01
 11
9.27473371E+01
 21
3.30949128E+01
  0
LINE
  8
0
 62
4
 10
9.27473371E+01
 20
3.70949128E+01
 11
9.27473371E+01
 21
3.30949128E+01
  0
LINE
  8
0
 62
4
 10
8.86473371E+01
 20
3.70949128E+01
 11
9.27473371E+01
 21
3.70949128E+01
  0
LINE
  8
0
 62
4
 10
9.29886249E+01
 20
3.17949128E+01
 11
9.34473371E+01
 21
3.17949128E+01
  0
LINE
  8
0
 62
4
 10
8.96973371E+01
 20
3.73949128E+01
 11
8.96973371E+01
 21
3.70949128E+01
  0
LINE
  8
0
 62
4
 10
9.16973371E+01
 20
3.73949128E+01
 11
9.16973371E+01
 21
3.70949128E+01
  0
LINE
  8
0
 62
4
 10
8.96973371E+01
 20
3.73949128E+01
 11
9.16973371E+01
 21
3.73949128E+01
  0
LINE
  8
0
 62
4
 10
8.96973371E+01
 20
3.27949128E+01
 11
9.16973371E+01
 21
3.27949128E+01
  0
LINE
  8
0
 62
4
 10
8.96973371E+01
 20
3.30949128E+01
 11
8.96973371E+01
 21
3.27949128E+01
  0
LINE
  8
0
 62
4
 10
9.16973371E+01
 20
3.30949128E+01
 11
9.16973371E+01
 21
3.27949128E+01
  0
LINE
  8
0
 62
4
 10
9.34473371E+01
 20
3.17949128E+01
 11
9.39473371E+01
 21
3.22949128E+01
  0
LINE
  8
0
 62
4
 10
8.79473371E+01
 20
3.17949128E+01
 11
8.74473371E+01
 21
3.22949128E+01
  0
LINE
  8
0
 62
4
 10
8.74473371E+01
 20
3.80949128E+01
 11
9.39473371E+01
 21
3.80949128E+01
  0
LINE
  8
0
 62
4
 10
8.74473371E+01
 20
3.48949128E+01
 11
8.86473371E+01
 21
3.48949128E+01
  0
LINE
  8
0
 62
4
 10
8.74473371E+01
 20
3.52949128E+01
 11
8.86473371E+01
 21
3.52949128E+01
  0
LINE
  8
0
 62
4
 10
8.74473371E+01
 20
3.48949128E+01
 11
8.74473371E+01
 21
3.22949128E+01
  0
LINE
  8
0
 62
4
 10
8.86473371E+01
 20
3.70949128E+01
 11
8.86473371E+01
 21
3.30949128E+01
  0
LINE
  8
0
 62
4
 10
9.41973371E+01
 20
4.04949128E+01
 11
9.41973371E+01
 21
3.45949128E+01
  0
LINE
  8
0
 62
4
 10
8.71973371E+01
 20
4.04949128E+01
 11
8.71973371E+01
 21
3.52949128E+01
  0
LINE
  8
0
 62
4
 10
8.81973371E+01
 20
4.27949128E+01
 11
9.31973371E+01
 21
4.27949128E+01
  0
LINE
  8
0
 62
4
 10
8.71973371E+01
 20
4.17949128E+01
 11
9.41973371E+01
 21
4.17949128E+01
  0
LINE
  8
0
 62
4
 10
8.86973371E+01
 20
4.02949128E+01
 11
9.26973371E+01
 21
4.02949128E+01
  0
LINE
  8
0
 62
4
 10
8.76973371E+01
 20
4.09949128E+01
 11
9.36973371E+01
 21
4.09949128E+01
  0
LINE
  8
0
 62
4
 10
9.49973371E+01
 20
4.09949128E+01
 11
9.49973371E+01
 21
3.45949128E+01
  0
LINE
  8
0
 62
4
 10
8.63973371E+01
 20
4.09949128E+01
 11
8.63973371E+01
 21
3.52949128E+01
  0
LINE
  8
0
 62
4
 10
9.27573371E+01
 20
4.09949128E+01
 11
9.26973371E+01
 21
4.02949128E+01
  0
LINE
  8
0
 62
4
 10
8.86373371E+01
 20
4.09949128E+01
 11
8.86973371E+01
 21
4.02949128E+01
  0
LINE
  8
0
 62
4
 10
8.63973371E+01
 20
3.52949128E+01
 11
8.71973371E+01
 21
3.52949128E+01
  0
LINE
  8
0
 62
4
 10
9.41973371E+01
 20
3.45949128E+01
 11
9.49973371E+01
 21
3.45949128E+01
  0
LINE
  8
0
 62
4
 10
9.49973371E+01
 20
3.67949128E+01
 11
9.53789518E+01
 21
3.70175214E+01
  0
LINE
  8
0
 62
4
 10
9.65973371E+01
 20
4.00949128E+01
 11
9.65973371E+01
 21
3.77249128E+01
  0
LINE
  8
0
 62
4
 10
9.57973371E+01
 20
4.00949128E+01
 11
9.65973371E+01
 21
4.00949128E+01
  0
LINE
  8
0
 62
4
 10
9.57973371E+01
 20
4.00949128E+01
 11
9.57973371E+01
 21
3.81849128E+01
  0
LINE
  8
0
 62
4
 10
9.49973371E+01
 20
3.77249128E+01
 11
9.52940471E+01
 21
3.78897516E+01
  0
LINE
  8
0
 62
4
 10
8.73473371E+01
 20
4.04949128E+01
 11
8.73473371E+01
 21
3.52949128E+01
  0
LINE
  8
0
 62
4
 10
8.71973371E+01
 20
4.04949128E+01
 11
8.73473371E+01
 21
4.04949128E+01
  0
LINE
  8
0
 62
4
 10
9.57694861E+01
 20
3.81663455E+01
 11
9.57973371E+01
 21
3.81849128E+01
  0
LINE
  8
0
 62
4
 10
9.58552289E+01
 20
3.72855066E+01
 11
9.65973371E+01
 21
3.77249128E+01
  0
LINE
  8
0
 62
4
 10
8.91973371E+01
 20
4.27949128E+01
 11
8.91973371E+01
 21
4.17949128E+01
  0
LINE
  8
0
 62
4
 10
9.21973371E+01
 20
4.27949128E+01
 11
9.21973371E+01
 21
4.17949128E+01
  0
LINE
  8
0
 62
6
 10
9.19273371E+01
 20
4.27949128E+01
 11
9.19273371E+01
 21
4.17949128E+01
  0
LINE
  8
0
 62
6
 10
8.94673371E+01
 20
4.27949128E+01
 11
8.94673371E+01
 21
4.17949128E+01
  0
LINE
  8
0
 62
4
 10
9.31973371E+01
 20
4.32949128E+01
 11
9.31973371E+01
 21
4.27949128E+01
  0
LINE
  8
0
 62
4
 10
8.81973371E+01
 20
4.32949128E+01
 11
8.81973371E+01
 21
4.27949128E+01
  0
LINE
  8
0
 62
4
 10
8.91973371E+01
 20
4.42949128E+01
 11
9.21973371E+01
 21
4.42949128E+01
  0
LINE
  8
0
 62
4
 10
8.91973371E+01
 20
4.02949128E+01
 11
8.91973371E+01
 21
3.90949128E+01
  0
LINE
  8
0
 62
6
 10
8.94673371E+01
 20
4.02949128E+01
 11
8.94673371E+01
 21
3.88249128E+01
  0
LINE
  8
0
 62
6
 10
9.19273371E+01
 20
4.02949128E+01
 11
9.19273371E+01
 21
3.88249128E+01
  0
LINE
  8
0
 62
4
 10
9.21973371E+01
 20
4.02949128E+01
 11
9.21973371E+01
 21
3.90949128E+01
  0
LINE
  8
0
 62
4
 10
8.93973371E+01
 20
3.37949128E+01
 11
9.19973371E+01
 21
3.37949128E+01
  0
LINE
  8
0
 62
4
 10
8.93973371E+01
 20
3.63949128E+01
 11
9.19973371E+01
 21
3.63949128E+01
  0
LINE
  8
0
 62
4
 10
9.19973371E+01
 20
3.63949128E+01
 11
9.19973371E+01
 21
3.37949128E+01
  0
LINE
  8
0
 62
4
 10
8.93973371E+01
 20
3.63949128E+01
 11
8.93973371E+01
 21
3.37949128E+01
  0
LINE
  8
0
 62
4
 10
8.86473371E+01
 20
3.70949128E+01
 11
8.93973371E+01
 21
3.63949128E+01
  0
LINE
  8
0
 62
4
 10
9.19973371E+01
 20
3.63949128E+01
 11
9.27473371E+01
 21
3.70949128E+01
  0
LINE
  8
0
 62
4
 10
8.93973371E+01
 20
3.37949128E+01
 11
8.86473371E+01
 21
3.30949128E+01
  0
LINE
  8
0
 62
4
 10
9.19973371E+01
 20
3.37949128E+01
 11
9.27473371E+01
 21
3.30949128E+01
  0
ARC
  8
0
 62
4
 10
8.76974972E+01
 20
4.04947526E+01
 40
5.00160181E-01
 50
9.00000002E+01
 51
1.79981654E+02
  0
ARC
  8
0
 62
4
 10
9.37049623E+01
 20
4.05025379E+01
 40
4.92433852E-01
 50
3.59112757E+02
 51
9.08872431E+01
  0
ARC
  8
0
 62
4
 10
8.71974754E+01
 20
4.09947744E+01
 40
8.00138358E-01
 50
9.00000002E+01
 51
1.79990093E+02
  0
ARC
  8
0
 62
4
 10
9.42049623E+01
 20
4.10025379E+01
 40
7.92411497E-01
 50
3.59448647E+02
 51
9.05513523E+01
  0
ARC
  8
0
 62
4
 10
8.91974666E+01
 20
4.32947832E+01
 40
1.00012957E+00
 50
9.00000002E+01
 51
1.79992578E+02
  0
ARC
  8
0
 62
4
 10
9.22049638E+01
 20
4.33025395E+01
 40
9.92402587E-01
 50
3.59559672E+02
 51
9.04403286E+01
  0
CIRCLE
  8
0
 62
4
 10
9.06973371E+01
 20
2.67949128E+01
 40
5.00000000E+00
  0
CIRCLE
  8
0
 62
4
 10
9.06973371E+01
 20
2.67949128E+01
 40
5.50000000E+00
  0
ARC
  8
0
 62
7
 10
9.06973371E+01
 20
2.67949128E+01
 40
6.00000000E+00
 50
1.44787805E+02
 51
2.52264145E+01
  0
CIRCLE
  8
0
 62
4
 10
9.06973371E+01
 20
2.67949128E+01
 40
2.06700000E+00
  0
CIRCLE
  8
0
 62
6
 10
9.06973371E+01
 20
2.67949128E+01
 40
2.50000000E+00
  0
ARC
  8
0
 62
7
 10
9.06913161E+01
 20
2.68009337E+01
 40
6.99402955E+00
 50
1.21017085E+02
 51
1.26248332E+02
  0
ARC
  8
0
 62
7
 10
9.07038556E+01
 20
2.67863749E+01
 40
7.00111676E+00
 50
3.11212937E+01
 51
3.42028638E+01
  0
ARC
  8
0
 62
7
 10
9.07038545E+01
 20
2.68134517E+01
 40
7.00111833E+00
 50
3.00882066E+02
 51
3.28878703E+02
  0
ARC
  8
0
 62
7
 10
9.06913173E+01
 20
2.67988929E+01
 40
6.99403112E+00
 50
2.11017088E+02
 51
2.38982912E+02
  0
LINE
  8
0
 62
7
 10
8.46973371E+01
 20
3.04049128E+01
 11
8.46973371E+01
 21
3.02549128E+01
  0
LINE
  8
0
 62
7
 10
8.70873371E+01
 20
3.27949128E+01
 11
8.74473371E+01
 21
3.27949128E+01
  0
LINE
  8
0
 62
7
 10
8.70873371E+01
 20
2.08049128E+01
 11
9.42973371E+01
 21
2.08049128E+01
  0
LINE
  8
0
  6
CENTER
 62
2
 10
8.26973371E+01
 20
2.67949128E+01
 11
9.86973371E+01
 21
2.67949128E+01
  0
LINE
  8
0
 62
7
 10
9.66973371E+01
 20
3.04049128E+01
 11
9.66973371E+01
 21
2.33449128E+01
  0
LINE
  8
0
 62
7
 10
9.66973371E+01
 20
2.33449128E+01
 11
9.66973371E+01
 21
2.31949128E+01
  0
LINE
  8
0
 62
7
 10
8.46973371E+01
 20
3.02549128E+01
 11
8.46973371E+01
 21
2.33449128E+01
  0
LINE
  8
0
 62
7
 10
8.46973371E+01
 20
2.33449128E+01
 11
8.46973371E+01
 21
2.31949128E+01
  0
LINE
  8
0
 62
4
 10
3.10733708E+00
 20
7.60721077E+01
 11
3.10733708E+00
 21
7.70893917E+01
  0
LINE
  8
0
 62
4
 10
6.07337106E-01
 20
7.70893917E+01
 11
9.60733711E+00
 21
7.70893917E+01
  0
LINE
  8
0
 62
4
 10
3.10733707E+00
 20
7.63249128E+01
 11
7.10733707E+00
 21
7.63249128E+01
  0
CIRCLE
  8
0
 62
4
 10
5.10646184E+00
 20
7.12224543E+01
 40
2.50000000E+00
  0
LINE
  8
0
 62
4
 10
1.21073371E+01
 20
6.92249128E+01
 11
1.76073371E+01
 21
6.92249128E+01
  0
LINE
  8
0
 62
4
 10
1.21073371E+01
 20
7.32249128E+01
 11
1.76073371E+01
 21
7.32249128E+01
  0
LINE
  8
0
 62
4
 10
9.60733708E+00
 20
6.79749128E+01
 11
1.21073371E+01
 21
6.79749128E+01
  0
LINE
  8
0
 62
4
 10
9.60733708E+00
 20
7.44749128E+01
 11
1.21073371E+01
 21
7.44749128E+01
  0
LINE
  8
0
 62
4
 10
1.21073371E+01
 20
6.79749128E+01
 11
1.21073371E+01
 21
7.44749128E+01
  0
LINE
  8
0
 62
4
 10
-1.89266292E+00
 20
7.44749128E+01
 11
6.07337084E-01
 21
7.44749128E+01
  0
LINE
  8
0
 62
4
 10
-1.89266292E+00
 20
6.79749128E+01
 11
6.07337084E-01
 21
6.79749128E+01
  0
LINE
  8
0
 62
4
 10
-7.39266292E+00
 20
7.02249128E+01
 11
-6.39266292E+00
 21
6.92249128E+01
  0
LINE
  8
0
 62
4
 10
-7.39266292E+00
 20
7.22249128E+01
 11
-6.39266292E+00
 21
7.32249128E+01
  0
LINE
  8
0
 62
4
 10
-6.39266292E+00
 20
7.32249128E+01
 11
-6.39266292E+00
 21
6.92249128E+01
  0
LINE
  8
0
 62
4
 10
-6.39266292E+00
 20
7.32249128E+01
 11
-1.89266292E+00
 21
7.32249128E+01
  0
LINE
  8
0
 62
4
 10
-6.39266292E+00
 20
6.92249128E+01
 11
-1.89266292E+00
 21
6.92249128E+01
  0
LINE
  8
0
 62
4
 10
-7.39266292E+00
 20
7.22249128E+01
 11
-7.39266292E+00
 21
7.02249128E+01
  0
LINE
  8
0
 62
4
 10
1.76073371E+01
 20
7.32249128E+01
 11
1.76073371E+01
 21
6.92249128E+01
  0
LINE
  8
0
 62
4
 10
6.11477050E+00
 20
7.02223462E+01
 11
4.04477050E+00
 21
7.22823462E+01
  0
LINE
  8
0
 62
4
 10
4.04477050E+00
 20
7.01623462E+01
 11
6.16477050E+00
 21
7.22823462E+01
  0
LINE
  8
0
 62
4
 10
6.21733708E+00
 20
7.01249128E+01
 11
6.16733708E+00
 21
7.01649128E+01
  0
LINE
  8
0
 62
4
 10
6.07337084E-01
 20
6.55749128E+01
 11
9.60733708E+00
 21
6.55749128E+01
  0
LINE
  8
0
 62
4
 10
-1.89266292E+00
 20
6.79749128E+01
 11
-1.89266292E+00
 21
7.44749128E+01
  0
LINE
  8
0
 62
4
 10
6.07337075E-01
 20
6.69249128E+01
 11
9.60733708E+00
 21
6.69249128E+01
  0
LINE
  8
0
 62
4
 10
6.07337075E-01
 20
7.55249494E+01
 11
9.60733708E+00
 21
7.55249494E+01
  0
LINE
  8
0
 62
4
 10
1.76073371E+01
 20
7.32249128E+01
 11
2.06073371E+01
 21
7.25249128E+01
  0
LINE
  8
0
 62
4
 10
2.06073371E+01
 20
7.25249128E+01
 11
2.55443362E+01
 21
7.25249128E+01
  0
LINE
  8
0
 62
4
 10
2.06073371E+01
 20
6.99249128E+01
 11
2.29443362E+01
 21
6.99249128E+01
  0
LINE
  8
0
 62
4
 10
1.76073371E+01
 20
6.92249128E+01
 11
2.06073371E+01
 21
6.99249128E+01
  0
LINE
  8
0
 62
6
 10
2.55443362E+01
 20
7.25249128E+01
 11
2.29443362E+01
 21
6.99249128E+01
  0
LINE
  8
0
 62
4
 10
6.07337106E-01
 20
7.60721077E+01
 11
9.60733711E+00
 21
7.60721077E+01
  0
LINE
  8
0
 62
4
 10
6.07337084E-01
 20
6.55749128E+01
 11
6.07337084E-01
 21
7.70893917E+01
  0
LINE
  8
0
 62
4
 10
9.60733708E+00
 20
6.55749128E+01
 11
9.60733708E+00
 21
7.70893917E+01
  0
LINE
  8
0
 62
4
 10
7.10733708E+00
 20
7.70893917E+01
 11
7.10733708E+00
 21
7.60721077E+01
  0
LINE
  8
0
  6
CENTER
 62
6
 10
-9.52673963E+00
 20
7.12249128E+01
 11
2.67789131E+01
 21
7.12249128E+01
  0
LINE
  8
0
 62
4
 10
2.06073371E+01
 20
7.25249128E+01
 11
2.06073371E+01
 21
6.99249128E+01
  0
LINE
  8
0
  6
CENTER
 62
6
 10
5.10733708E+00
 20
7.85249128E+01
 11
5.10733708E+00
 21
6.38049128E+01
  0
LINE
  8
0
  6
CENTER
 62
6
 10
-9.48881012E+01
 20
-5.58146146E+01
 11
-9.48881012E+01
 21
-4.99583900E+01
  0
LINE
  8
0
  6
CENTER
 62
6
 10
-1.17088101E+02
 20
-5.58146146E+01
 11
-1.17088101E+02
 21
-5.02569591E+01
  0
CIRCLE
  8
0
 62
4
 10
-1.05988101E+02
 20
-4.48104135E+01
 40
4.00000000E+00
  0
LINE
  8
0
 62
4
 10
-8.99881012E+01
 20
-5.22104135E+01
 11
-1.00768101E+02
 21
-4.01504135E+01
  0
LINE
  8
0
  6
CENTER
 62
6
 10
-1.05988101E+02
 20
-3.90606154E+01
 11
-1.05988101E+02
 21
-5.08540975E+01
  0
LINE
  8
0
 62
4
 10
-1.21988101E+02
 20
-5.22104135E+01
 11
-1.11208101E+02
 21
-4.01504135E+01
  0
LINE
  8
0
  6
CENTER
 62
6
 10
-1.11602046E+02
 20
-4.48104135E+01
 11
-1.00405702E+02
 21
-4.48104135E+01
  0
LINE
  8
0
 62
4
 10
-1.21988101E+02
 20
-5.22104135E+01
 11
-8.99881012E+01
 21
-5.22104135E+01
  0
LINE
  8
0
 62
4
 10
-8.99881012E+01
 20
-5.22104135E+01
 11
-8.99881012E+01
 21
-5.38104135E+01
  0
LINE
  8
0
 62
4
 10
-1.21988101E+02
 20
-5.22104135E+01
 11
-1.21988101E+02
 21
-5.38104135E+01
  0
ARC
  8
0
 62
4
 10
-1.05988101E+02
 20
-4.48054166E+01
 40
6.99410138E+00
 50
4.17254003E+01
 51
1.38274600E+02
  0
LINE
  8
0
 62
4
 10
-1.21988101E+02
 20
-5.38104135E+01
 11
-8.99881012E+01
 21
-5.38104135E+01
  0
LINE
  8
0
 62
4
 10
-7.99881012E+01
 20
-5.22004135E+01
 11
-7.05881012E+01
 21
-5.22004135E+01
  0
LINE
  8
0
 62
4
 10
-7.99881012E+01
 20
-5.38004135E+01
 11
-7.05881012E+01
 21
-5.38004135E+01
  0
LINE
  8
0
  6
CENTER
 62
6
 10
-7.20141479E+01
 20
-4.48104135E+01
 11
-6.60681811E+01
 21
-4.48104135E+01
  0
LINE
  8
0
  6
CENTER
 62
6
 10
-7.49881012E+01
 20
-4.99583900E+01
 11
-7.49881012E+01
 21
-5.58146146E+01
  0
LINE
  8
0
 62
4
 10
-6.79881012E+01
 20
-3.78004135E+01
 11
-6.79881012E+01
 21
-5.12004135E+01
  0
ARC
  8
0
 62
4
 10
-7.05912735E+01
 20
-5.11972412E+01
 40
2.60317420E+00
 50
2.70069822E+02
 51
3.59930178E+02
  0
ARC
  8
0
 62
4
 10
-7.05912725E+01
 20
-5.11972422E+01
 40
1.00317633E+00
 50
2.70181129E+02
 51
3.59818872E+02
  0
LINE
  8
0
 62
4
 10
-6.95881012E+01
 20
-3.78004135E+01
 11
-6.95881012E+01
 21
-5.12004135E+01
  0
LINE
  8
0
 62
4
 10
-6.95881012E+01
 20
-3.78004135E+01
 11
-6.79881012E+01
 21
-3.78004135E+01
  0
LINE
  8
0
 62
4
 10
-7.28881012E+01
 20
-5.22004135E+01
 11
-7.28881012E+01
 21
-5.38004135E+01
  0
LINE
  8
0
 62
4
 10
-7.70881012E+01
 20
-5.22004135E+01
 11
-7.70881012E+01
 21
-5.38004135E+01
  0
LINE
  8
0
 62
4
 10
-7.99881012E+01
 20
-5.22004135E+01
 11
-7.99881012E+01
 21
-5.38004135E+01
  0
LINE
  8
0
  6
CENTER
 62
6
 10
-1.05988101E+02
 20
-8.41041351E+00
 11
-1.05988101E+02
 21
-2.30404135E+01
  0
LINE
  8
0
  6
CENTER
 62
6
 10
-9.48881012E+01
 20
-1.99685643E+01
 11
-9.48881012E+01
 21
-1.36986118E+01
  0
LINE
  8
0
  6
CENTER
 62
6
 10
-1.17088101E+02
 20
-2.02671334E+01
 11
-1.17088101E+02
 21
-1.38004135E+01
  0
LINE
  8
0
 62
4
 10
-1.21988101E+02
 20
-1.14004135E+01
 11
-8.99881012E+01
 21
-1.14004135E+01
  0
LINE
  8
0
 62
4
 10
-1.21988101E+02
 20
-9.80041351E+00
 11
-1.21988101E+02
 21
-1.47004135E+01
  0
LINE
  8
0
 62
4
 10
-8.99881012E+01
 20
-9.80041351E+00
 11
-8.99881012E+01
 21
-1.47004135E+01
  0
LINE
  8
0
 62
4
 10
-1.21988101E+02
 20
-9.80041351E+00
 11
-8.99881012E+01
 21
-9.80041351E+00
  0
LINE
  8
0
 62
4
 10
-1.21988101E+02
 20
-2.18004135E+01
 11
-8.99881012E+01
 21
-2.18004135E+01
  0
LINE
  8
0
  6
CENTER
 62
6
 10
-1.19961983E+02
 20
-1.68004135E+01
 11
-9.21950501E+01
 21
-1.68004135E+01
  0
LINE
  8
0
 62
4
 10
-1.21988101E+02
 20
-1.47004135E+01
 11
-1.17088101E+02
 21
-1.47004135E+01
  0
LINE
  8
0
 62
4
 10
-1.21988101E+02
 20
-1.89004135E+01
 11
-1.17088101E+02
 21
-1.89004135E+01
  0
LINE
  8
0
 62
4
 10
-9.48881012E+01
 20
-1.47004135E+01
 11
-8.99881012E+01
 21
-1.47004135E+01
  0
LINE
  8
0
 62
4
 10
-9.48881012E+01
 20
-1.89004135E+01
 11
-8.99881012E+01
 21
-1.89004135E+01
  0
LINE
  8
0
 62
4
 10
-8.99881012E+01
 20
-1.89004135E+01
 11
-8.99881012E+01
 21
-2.18004135E+01
  0
LINE
  8
0
 62
4
 10
-1.21988101E+02
 20
-1.89004135E+01
 11
-1.21988101E+02
 21
-2.18004135E+01
  0
ARC
  8
0
 62
4
 10
-9.48951514E+01
 20
-1.68004135E+01
 40
2.10001183E+00
 50
8.98076456E+01
 51
2.70192355E+02
  0
ARC
  8
0
 62
4
 10
-1.17095148E+02
 20
-1.68004135E+01
 40
2.10001182E+00
 50
2.70192271E+02
 51
8.98077287E+01
  0
LINE
  8
0
  6
CENTER
 62
6
 10
-4.88810119E+00
 20
-4.20672643E+01
 11
-4.88810119E+00
 21
-4.78270990E+01
  0
LINE
  8
0
  6
CENTER
 62
6
 10
-2.70881012E+01
 20
-4.20672643E+01
 11
-2.70881012E+01
 21
-4.78270990E+01
  0
LINE
  8
0
 62
4
 10
-3.19881012E+01
 20
-3.78104135E+01
 11
-3.19881012E+01
 21
-4.27104135E+01
  0
LINE
  8
0
 62
4
 10
1.18988113E-02
 20
-3.78104135E+01
 11
1.18988113E-02
 21
-4.27104135E+01
  0
CIRCLE
  8
0
 62
4
 10
-1.59881012E+01
 20
-4.48104135E+01
 40
4.00000000E+00
  0
LINE
  8
0
  6
CENTER
 62
6
 10
-1.59881012E+01
 20
-3.96250908E+01
 11
-1.59881012E+01
 21
-5.04524322E+01
  0
LINE
  8
0
  6
CENTER
 62
6
 10
-2.91062609E+01
 20
-4.48104135E+01
 11
-2.48768137E+00
 21
-4.48104135E+01
  0
LINE
  8
0
 62
4
 10
-3.19881012E+01
 20
-4.69104135E+01
 11
-2.70881012E+01
 21
-4.69104135E+01
  0
LINE
  8
0
 62
4
 10
-3.19881012E+01
 20
-4.27104135E+01
 11
-2.70881012E+01
 21
-4.27104135E+01
  0
LINE
  8
0
 62
4
 10
-4.88810119E+00
 20
-4.69104135E+01
 11
1.18988113E-02
 21
-4.69104135E+01
  0
LINE
  8
0
 62
4
 10
-4.88810119E+00
 20
-4.27104135E+01
 11
1.18988113E-02
 21
-4.27104135E+01
  0
LINE
  8
0
 62
4
 10
-3.19881012E+01
 20
-5.18104135E+01
 11
1.18988113E-02
 21
-5.18104135E+01
  0
LINE
  8
0
 62
4
 10
-3.19881012E+01
 20
-3.78104135E+01
 11
1.18988113E-02
 21
-3.78104135E+01
  0
LINE
  8
0
 62
4
 10
1.18988113E-02
 20
-4.69104135E+01
 11
1.18988113E-02
 21
-5.18104135E+01
  0
LINE
  8
0
 62
4
 10
-3.19881012E+01
 20
-4.69104135E+01
 11
-3.19881012E+01
 21
-5.18104135E+01
  0
ARC
  8
0
 62
4
 10
-4.88810119E+00
 20
-4.48104135E+01
 40
2.10000000E+00
 50
9.00000002E+01
 51
2.70000000E+02
  0
ARC
  8
0
 62
4
 10
-2.70881012E+01
 20
-4.48104135E+01
 40
2.10000000E+00
 50
2.70000000E+02
 51
9.00000002E+01
  0
LINE
  8
0
 62
4
 10
2.50118988E+01
 20
-4.27104135E+01
 11
2.66118988E+01
 21
-4.27104135E+01
  0
LINE
  8
0
 62
4
 10
2.50118988E+01
 20
-5.18104135E+01
 11
2.66118988E+01
 21
-5.18104135E+01
  0
LINE
  8
0
 62
4
 10
2.50118988E+01
 20
-4.69104135E+01
 11
2.66118988E+01
 21
-4.69104135E+01
  0
LINE
  8
0
 62
4
 10
2.50118988E+01
 20
-3.78104135E+01
 11
2.50118988E+01
 21
-5.18104135E+01
  0
LINE
  8
0
 62
4
 10
2.66118988E+01
 20
-3.78104135E+01
 11
2.66118988E+01
 21
-5.18104135E+01
  0
LINE
  8
0
 62
4
 10
2.50118988E+01
 20
-3.78104135E+01
 11
2.66118988E+01
 21
-3.78104135E+01
  0
LINE
  8
0
  6
CENTER
 62
6
 10
2.31016383E+01
 20
-4.48104135E+01
 11
2.85788726E+01
 21
-4.48104135E+01
  0
LINE
  8
0
  6
CENTER
 62
6
 10
-4.88810119E+00
 20
-2.06338586E+01
 11
-4.88810119E+00
 21
-1.56786383E+01
  0
LINE
  8
0
  6
CENTER
 62
6
 10
-2.70881012E+01
 20
-2.05261364E+01
 11
-2.70881012E+01
 21
-1.55709161E+01
  0
LINE
  8
0
 62
4
 10
1.18988113E-02
 20
-1.72104135E+01
 11
1.18988113E-02
 21
-1.88104135E+01
  0
LINE
  8
0
 62
4
 10
-3.19881012E+01
 20
-1.72104135E+01
 11
1.18988113E-02
 21
-1.72104135E+01
  0
LINE
  8
0
 62
4
 10
-3.19881012E+01
 20
-1.88104135E+01
 11
1.18988113E-02
 21
-1.88104135E+01
  0
LINE
  8
0
 62
4
 10
-3.19881012E+01
 20
-1.72104135E+01
 11
-3.19881012E+01
 21
-1.88104135E+01
  0
LINE
  8
0
  6
CENTER
 62
6
 10
-4.88810119E+00
 20
-2.05261364E+01
 11
-4.88810119E+00
 21
-1.55709161E+01
  0
LINE
  8
0
  6
CENTER
 62
6
 10
-4.88810119E+00
 20
-2.05261364E+01
 11
-4.88810119E+00
 21
-1.55709161E+01
  0
LINE
  8
0
  6
CENTER
 62
6
 10
-1.59881012E+01
 20
-2.05261364E+01
 11
-1.59881012E+01
 21
-1.55709161E+01
  0
LINE
  8
0
  6
CENTER
 62
6
 10
6.04612222E+01
 20
-1.35913787E+01
 11
8.84612222E+01
 21
-1.35913787E+01
  0
ARC
  8
0
 62
4
 10
8.20802335E+01
 20
-1.35863787E+01
 40
4.61978480E+00
 50
1.28708341E+02
 51
2.31291659E+02
  0
LINE
  8
0
 62
4
 10
7.74612222E+01
 20
-1.95913787E+01
 11
8.64612222E+01
 21
-1.95913787E+01
  0
LINE
  8
0
 62
4
 10
7.74612222E+01
 20
-7.59137869E+00
 11
8.64612222E+01
 21
-7.59137869E+00
  0
CIRCLE
  8
0
 62
4
 10
8.19612222E+01
 20
-1.35913787E+01
 40
2.06700000E+00
  0
LINE
  8
0
 62
4
 10
8.64612222E+01
 20
-7.59137869E+00
 11
8.64612222E+01
 21
-1.95913787E+01
  0
LINE
  8
0
  6
CENTER
 62
6
 10
8.19612222E+01
 20
-9.98137869E+00
 11
8.19612222E+01
 21
-1.71913787E+01
  0
LINE
  8
0
 62
4
 10
7.91912222E+01
 20
-1.71913787E+01
 11
8.47312222E+01
 21
-1.71913787E+01
  0
LINE
  8
0
 62
4
 10
7.91912222E+01
 20
-9.98137869E+00
 11
8.47312222E+01
 21
-9.98137869E+00
  0
LINE
  8
0
 62
4
 10
7.91912222E+01
 20
-7.59137869E+00
 11
7.91912222E+01
 21
-9.98137869E+00
  0
LINE
  8
0
 62
4
 10
8.47312222E+01
 20
-7.59137869E+00
 11
8.47312222E+01
 21
-9.98137869E+00
  0
LINE
  8
0
 62
4
 10
8.47312222E+01
 20
-1.71913787E+01
 11
8.47312222E+01
 21
-1.95913787E+01
  0
LINE
  8
0
 62
4
 10
7.91912222E+01
 20
-1.71913787E+01
 11
7.91912222E+01
 21
-1.95913787E+01
  0
CIRCLE
  8
0
 62
6
 10
8.19580557E+01
 20
-1.35830730E+01
 40
2.50000000E+00
  0
ARC
  8
0
 62
4
 10
8.18358015E+01
 20
-1.35863787E+01
 40
4.62379561E+00
 50
3.08770316E+02
 51
5.12296838E+01
  0
LINE
  8
0
 62
4
 10
7.74612222E+01
 20
-7.59137869E+00
 11
7.74612222E+01
 21
-1.95913787E+01
  0
LINE
  8
0
  6
CENTER
 62
6
 10
1.06110451E+02
 20
-5.59137869E+00
 11
1.06110451E+02
 21
-2.15913787E+01
  0
LINE
  8
0
  6
CENTER
 62
6
 10
9.81104514E+01
 20
-1.35913787E+01
 11
1.14110451E+02
 21
-1.35913787E+01
  0
LINE
  8
0
 62
4
 10
1.00110451E+02
 20
-9.98137869E+00
 11
1.00110451E+02
 21
-1.71913787E+01
  0
LINE
  8
0
 62
4
 10
1.12110451E+02
 20
-9.98137869E+00
 11
1.12110451E+02
 21
-1.71913787E+01
  0
LINE
  8
0
 62
4
 10
1.02500451E+02
 20
-7.59137869E+00
 11
1.09710451E+02
 21
-7.59137869E+00
  0
LINE
  8
0
 62
4
 10
1.02500451E+02
 20
-1.95913787E+01
 11
1.09710451E+02
 21
-1.95913787E+01
  0
ARC
  8
0
 62
4
 10
1.06119110E+02
 20
-1.35977768E+01
 40
7.00128235E+00
 50
2.10882401E+02
 51
2.38878368E+02
  0
CIRCLE
  8
0
 62
4
 10
1.06104425E+02
 20
-1.35830730E+01
 40
6.00000000E+00
  0
ARC
  8
0
 62
4
 10
1.06103285E+02
 20
-1.35842127E+01
 40
7.00697432E+00
 50
3.00983855E+02
 51
3.29016145E+02
  0
ARC
  8
0
 62
4
 10
1.06119124E+02
 20
-1.35977530E+01
 40
6.99815420E+00
 50
3.11152468E+01
 51
5.91239836E+01
  0
ARC
  8
0
 62
4
 10
1.06103286E+02
 20
-1.35842130E+01
 40
6.99245864E+00
 50
1.21013880E+02
 51
1.48986120E+02
  0
ARC
  8
0
 62
4
 10
8.20845672E+01
 20
-4.65863787E+01
 40
4.61672487E+00
 50
1.28660930E+02
 51
2.31339070E+02
  0
LINE
  8
0
 62
4
 10
7.74704514E+01
 20
-5.25913787E+01
 11
8.64704514E+01
 21
-5.25913787E+01
  0
LINE
  8
0
 62
4
 10
7.74704514E+01
 20
-4.05913787E+01
 11
8.64704514E+01
 21
-4.05913787E+01
  0
LINE
  8
0
  6
CENTER
 62
6
 10
6.04704514E+01
 20
-4.65913787E+01
 11
9.56704514E+01
 21
-4.65913787E+01
  0
LINE
  8
0
 62
6
 10
9.25604514E+01
 20
-4.99148787E+01
 11
9.44704514E+01
 21
-4.99148787E+01
  0
LINE
  8
0
 62
6
 10
9.25604514E+01
 20
-4.32678787E+01
 11
9.44704514E+01
 21
-4.32678787E+01
  0
LINE
  8
0
 62
6
 10
8.79704514E+01
 20
-4.99148787E+01
 11
8.85604514E+01
 21
-4.99148787E+01
  0
LINE
  8
0
 62
6
 10
8.79704514E+01
 20
-4.32678787E+01
 11
8.85604514E+01
 21
-4.32678787E+01
  0
CIRCLE
  8
0
 62
4
 10
8.19704514E+01
 20
-4.65913787E+01
 40
2.06700000E+00
  0
LINE
  8
0
 62
4
 10
8.64704514E+01
 20
-4.05913787E+01
 11
8.64704514E+01
 21
-5.25913787E+01
  0
LINE
  8
0
  6
CENTER
 62
6
 10
8.19704514E+01
 20
-4.29813787E+01
 11
8.19704514E+01
 21
-5.01913787E+01
  0
LINE
  8
0
 62
4
 10
8.91604514E+01
 20
-3.96613787E+01
 11
9.19604514E+01
 21
-3.96613787E+01
  0
LINE
  8
0
 62
4
 10
8.91604514E+01
 20
-4.31213787E+01
 11
9.19604514E+01
 21
-4.31213787E+01
  0
LINE
  8
0
 62
4
 10
8.91604514E+01
 20
-5.00513787E+01
 11
9.19604514E+01
 21
-5.00513787E+01
  0
LINE
  8
0
 62
4
 10
8.91604514E+01
 20
-5.35113787E+01
 11
9.19604514E+01
 21
-5.35113787E+01
  0
LINE
  8
0
 62
4
 10
9.44704514E+01
 20
-4.31913787E+01
 11
9.44704514E+01
 21
-4.99913787E+01
  0
LINE
  8
0
 62
4
 10
8.64704514E+01
 20
-5.05913787E+01
 11
8.85604514E+01
 21
-5.05913787E+01
  0
LINE
  8
0
 62
4
 10
8.64704514E+01
 20
-4.25913787E+01
 11
8.85604514E+01
 21
-4.25913787E+01
  0
LINE
  8
0
 62
4
 10
9.38704514E+01
 20
-4.25913787E+01
 11
9.44704514E+01
 21
-4.31913787E+01
  0
LINE
  8
0
 62
4
 10
9.38704514E+01
 20
-5.05913787E+01
 11
9.44704514E+01
 21
-4.99913787E+01
  0
LINE
  8
0
 62
4
 10
8.79704514E+01
 20
-4.25913787E+01
 11
8.79704514E+01
 21
-5.05913787E+01
  0
LINE
  8
0
 62
4
 10
9.38704514E+01
 20
-4.25913787E+01
 11
9.38704514E+01
 21
-5.05913787E+01
  0
LINE
  8
0
 62
4
 10
9.25604514E+01
 20
-4.13913787E+01
 11
9.25604514E+01
 21
-5.17813787E+01
  0
LINE
  8
0
 62
4
 10
8.85604514E+01
 20
-4.13913787E+01
 11
8.85604514E+01
 21
-5.17813787E+01
  0
LINE
  8
0
 62
4
 10
9.25604514E+01
 20
-4.25913787E+01
 11
9.38704514E+01
 21
-4.25913787E+01
  0
LINE
  8
0
 62
4
 10
9.25604514E+01
 20
-5.05913787E+01
 11
9.38704514E+01
 21
-5.05913787E+01
  0
LINE
  8
0
 62
4
 10
7.92004514E+01
 20
-4.05913787E+01
 11
7.92004514E+01
 21
-4.29813787E+01
  0
LINE
  8
0
 62
4
 10
8.47404514E+01
 20
-4.05913787E+01
 11
8.47404514E+01
 21
-4.29813787E+01
  0
LINE
  8
0
 62
4
 10
7.92004514E+01
 20
-4.29813787E+01
 11
8.47404514E+01
 21
-4.29813787E+01
  0
LINE
  8
0
 62
4
 10
7.92004514E+01
 20
-5.01913787E+01
 11
7.92004514E+01
 21
-5.25913787E+01
  0
LINE
  8
0
 62
4
 10
7.92004514E+01
 20
-5.01913787E+01
 11
8.47404514E+01
 21
-5.01913787E+01
  0
LINE
  8
0
 62
4
 10
8.47404514E+01
 20
-5.01913787E+01
 11
8.47404514E+01
 21
-5.25913787E+01
  0
CIRCLE
  8
0
 62
6
 10
8.19623435E+01
 20
-4.65830730E+01
 40
2.50000000E+00
  0
ARC
  8
0
 62
4
 10
9.13538643E+01
 20
-4.13911462E+01
 40
2.79341289E+00
 50
1.41740010E+02
 51
1.80004770E+02
  0
ARC
  8
0
 62
4
 10
9.88550773E+01
 20
-4.65845561E+01
 40
1.02946281E+01
 50
1.60341925E+02
 51
1.80037972E+02
  0
ARC
  8
0
 62
4
 10
9.13566235E+01
 20
-4.13906543E+01
 40
2.79617214E+00
 50
1.80014844E+02
 51
2.18240376E+02
  0
ARC
  8
0
 62
4
 10
9.88561916E+01
 20
-4.65880134E+01
 40
1.02957407E+01
 50
1.80018728E+02
 51
1.99656974E+02
  0
ARC
  8
0
 62
4
 10
9.13545751E+01
 20
-5.17813927E+01
 40
2.79412364E+00
 50
1.41745067E+02
 51
1.79999713E+02
  0
ARC
  8
0
 62
4
 10
9.13559084E+01
 20
-5.17809023E+01
 40
2.79545698E+00
 50
1.80009764E+02
 51
2.18245456E+02
  0
ARC
  8
0
 62
4
 10
8.97551126E+01
 20
-4.13874750E+01
 40
2.80534161E+00
 50
3.21824508E+02
 51
3.59920273E+02
  0
ARC
  8
0
 62
4
 10
8.97578627E+01
 20
-4.13943286E+01
 40
2.80259031E+00
 50
6.03065249E-02
 51
3.81949138E+01
  0
ARC
  8
0
 62
4
 10
8.22558512E+01
 20
-4.65862808E+01
 40
1.03046015E+01
 50
3.59971654E+02
 51
1.96484484E+01
  0
ARC
  8
0
 62
4
 10
8.22547397E+01
 20
-4.65862842E+01
 40
1.03057130E+01
 50
3.40352622E+02
 51
3.59971677E+02
  0
ARC
  8
0
 62
4
 10
8.97571543E+01
 20
-5.17845743E+01
 40
2.80329901E+00
 50
6.53130559E-02
 51
3.81899073E+01
  0
ARC
  8
0
 62
4
 10
8.97558253E+01
 20
-5.17777222E+01
 40
2.80462852E+00
 50
3.21819478E+02
 51
3.59925302E+02
  0
ARC
  8
0
 62
4
 10
8.18401352E+01
 20
-4.65863787E+01
 40
4.62686282E+00
 50
3.08817582E+02
 51
5.11824175E+01
  0
LINE
  8
0
 62
4
 10
7.74704514E+01
 20
-4.05913787E+01
 11
7.74704514E+01
 21
-5.25913787E+01
  0
LINE
  8
0
 62
4
 10
1.06100451E+02
 20
-5.35113787E+01
 11
1.12100451E+02
 21
-5.00513787E+01
  0
LINE
  8
0
  6
CENTER
 62
6
 10
9.81104514E+01
 20
-4.65913787E+01
 11
1.14100451E+02
 21
-4.65913787E+01
  0
LINE
  8
0
  6
CENTER
 62
6
 10
1.06100451E+02
 20
-3.85913787E+01
 11
1.06100451E+02
 21
-5.45913787E+01
  0
LINE
  8
0
 62
4
 10
1.00100451E+02
 20
-5.00513787E+01
 11
1.06100451E+02
 21
-5.35113787E+01
  0
ARC
  8
0
 62
4
 10
1.06093276E+02
 20
-4.65992571E+01
 40
7.00021371E+00
 50
1.20880221E+02
 51
1.48880549E+02
  0
CIRCLE
  8
0
 62
4
 10
1.06109476E+02
 20
-4.65830730E+01
 40
6.00000000E+00
  0
ARC
  8
0
 62
4
 10
1.06109117E+02
 20
-4.65827134E+01
 40
7.00903163E+00
 50
2.10988053E+02
 51
2.39011947E+02
  0
LINE
  8
0
 62
4
 10
1.06100451E+02
 20
-3.96613787E+01
 11
1.00100451E+02
 21
-4.31213787E+01
  0
CIRCLE
  8
0
 62
6
 10
1.06100451E+02
 20
-4.65913787E+01
 40
3.32350000E+00
  0
LINE
  8
0
 62
4
 10
1.12100451E+02
 20
-4.29813787E+01
 11
1.12100451E+02
 21
-5.01913787E+01
  0
LINE
  8
0
 62
4
 10
1.02500451E+02
 20
-4.05913787E+01
 11
1.04500451E+02
 21
-4.05913787E+01
  0
LINE
  8
0
 62
4
 10
1.02500451E+02
 20
-5.25913787E+01
 11
1.04500451E+02
 21
-5.25913787E+01
  0
LINE
  8
0
 62
4
 10
1.12100451E+02
 20
-4.31213787E+01
 11
1.06100451E+02
 21
-3.96613787E+01
  0
LINE
  8
0
 62
4
 10
1.07710451E+02
 20
-4.05913787E+01
 11
1.09710451E+02
 21
-4.05913787E+01
  0
LINE
  8
0
 62
4
 10
1.07710451E+02
 20
-5.25913787E+01
 11
1.09710451E+02
 21
-5.25913787E+01
  0
ARC
  8
0
 62
4
 10
1.06093294E+02
 20
-4.65992718E+01
 40
6.99922669E+00
 50
3.01117436E+02
 51
3.29121794E+02
  0
ARC
  8
0
 62
4
 10
1.06109117E+02
 20
-4.65827134E+01
 40
6.99040078E+00
 50
3.10096787E+01
 51
5.89903211E+01
  0
CIRCLE
  8
0
 62
4
 10
1.06109476E+02
 20
-4.65830730E+01
 40
4.00000000E+00
  0
LINE
  8
0
 62
4
 10
1.00100451E+02
 20
-4.29813787E+01
 11
1.00100451E+02
 21
-5.01913787E+01
  0
LINE
  8
0
 62
2
 10
5.86158889E+01
 20
-1.90913787E+01
 11
6.49665555E+01
 21
-8.09137869E+00
  0
LINE
  8
0
 62
7
 10
6.49612222E+01
 20
-8.09137869E+00
 11
7.74612222E+01
 21
-8.09137869E+00
  0
LINE
  8
0
 62
7
 10
5.86112222E+01
 20
-1.90913787E+01
 11
7.74612222E+01
 21
-1.90913787E+01
  0
LINE
  8
0
 62
2
 10
5.86151181E+01
 20
-5.20913787E+01
 11
6.49657848E+01
 21
-4.10913787E+01
  0
LINE
  8
0
 62
7
 10
6.49704514E+01
 20
-4.10913787E+01
 11
7.74704514E+01
 21
-4.10913787E+01
  0
LINE
  8
0
 62
7
 10
5.86204514E+01
 20
-5.20913787E+01
 11
7.74704514E+01
 21
-5.20913787E+01
  0
TEXT
  8
0
 62
7
 10
-1.03849994E+02
 20
-8.24000031E+01
 40
3.20000005E+00
  1
5
 41
1.00000000E+00
  7
MONOTXT
  0
TEXT
  8
0
 62
7
 10
-1.07049994E+02
 20
-8.84000031E+01
 40
3.20000005E+00
  1
-45
 41
1.00000000E+00
  7
MONOTXT
  0
TEXT
  8
0
 62
7
 10
-9.58499939E+01
 20
-8.24000031E+01
 40
3.20000005E+00
  1
10
 41
1.00000000E+00
  7
MONOTXT
  0
TEXT
  8
0
 62
7
 10
-9.74499940E+01
 20
-8.84000031E+01
 40
3.20000005E+00
  1
-40
 41
1.00000000E+00
  7
MONOTXT
  0
TEXT
  8
0
 62
7
 10
-8.62499939E+01
 20
-8.24000031E+01
 40
3.20000005E+00
  1
15
 41
1.00000000E+00
  7
MONOTXT
  0
TEXT
  8
0
 62
7
 10
-8.78499940E+01
 20
-8.84000031E+01
 40
3.20000005E+00
  1
-35
 41
1.00000000E+00
  7
MONOTXT
  0
TEXT
  8
0
 62
7
 10
-7.66499939E+01
 20
-8.24000031E+01
 40
3.20000005E+00
  1
20
 41
1.00000000E+00
  7
MONOTXT
  0
TEXT
  8
0
 62
7
 10
-7.82499940E+01
 20
-8.84000031E+01
 40
3.20000005E+00
  1
-25
 41
1.00000000E+00
  7
MONOTXT
  0
TEXT
  8
0
 62
7
 10
-6.70499939E+01
 20
-8.24000031E+01
 40
3.20000005E+00
  1
25
 41
1.00000000E+00
  7
MONOTXT
  0
TEXT
  8
0
 62
7
 10
-6.86499940E+01
 20
-8.84000031E+01
 40
3.20000005E+00
  1
-20
 41
1.00000000E+00
  7
MONOTXT
  0
TEXT
  8
0
 62
7
 10
-5.74499939E+01
 20
-8.24000031E+01
 40
3.20000005E+00
  1
30
 41
1.00000000E+00
  7
MONOTXT
  0
TEXT
  8
0
 62
7
 10
-4.78499939E+01
 20
-8.24000031E+01
 40
3.20000005E+00
  1
35
 41
1.00000000E+00
  7
MONOTXT
  0
TEXT
  8
0
 62
7
 10
-3.82499939E+01
 20
-8.24000031E+01
 40
3.20000005E+00
  1
40
 41
1.00000000E+00
  7
MONOTXT
  0
TEXT
  8
0
 62
7
 10
-2.86499939E+01
 20
-8.24000031E+01
 40
3.20000005E+00
  1
45
 41
1.00000000E+00
  7
MONOTXT
  0
TEXT
  8
0
 62
7
 10
-1.90499939E+01
 20
-8.24000031E+01
 40
3.20000005E+00
  1
50
 41
1.00000000E+00
  7
MONOTXT
  0
TEXT
  8
0
 62
7
 10
-9.44999392E+00
 20
-8.24000031E+01
 40
3.20000005E+00
  1
55
 41
1.00000000E+00
  7
MONOTXT
  0
TEXT
  8
0
 62
7
 10
1.50006081E-01
 20
-8.24000031E+01
 40
3.20000005E+00
  1
60
 41
1.00000000E+00
  7
MONOTXT
  0
TEXT
  8
0
 62
7
 10
-5.90499940E+01
 20
-8.84000031E+01
 40
3.20000005E+00
  1
-15
 41
1.00000000E+00
  7
MONOTXT
  0
TEXT
  8
0
 62
7
 10
-4.62499939E+01
 20
-8.84000031E+01
 40
3.20000005E+00
  1
0
 41
1.00000000E+00
  7
MONOTXT
  0
TEXT
  8
0
 62
7
 10
-3.66499939E+01
 20
-8.84000031E+01
 40
3.20000005E+00
  1
5
 41
1.00000000E+00
  7
MONOTXT
  0
TEXT
  8
0
 62
7
 10
-2.86499939E+01
 20
-8.84000031E+01
 40
3.20000005E+00
  1
10
 41
1.00000000E+00
  7
MONOTXT
  0
TEXT
  8
0
 62
7
 10
-1.90499939E+01
 20
-8.84000031E+01
 40
3.20000005E+00
  1
15
 41
1.00000000E+00
  7
MONOTXT
  0
TEXT
  8
0
 62
7
 10
-9.44999392E+00
 20
-8.84000031E+01
 40
3.20000005E+00
  1
20
 41
1.00000000E+00
  7
MONOTXT
  0
TEXT
  8
0
 62
7
 10
1.50006081E-01
 20
-8.84000031E+01
 40
3.20000005E+00
  1
25
 41
1.00000000E+00
  7
MONOTXT
  0
TEXT
  8
0
 62
7
 10
-8.12810173E+01
 20
-7.58649018E+01
 40
3.20000005E+00
  1
STRETCH LIST
 41
1.05263158E+00
  7
MONOTXT
  0
TEXT
  8
0
 62
7
 10
-3.35968753E+00
 20
-7.68384232E+01
 40
3.20000005E+00
  1
(mm)
 41
1.00000000E+00
  7
MONOTXT
  0
TEXT
  8
0
 62
7
 10
-1.31249994E+02
 20
-8.84000031E+01
 40
3.20000005E+00
  1
STRETCH
 41
1.00000000E+00
  7
MONOTXT
  0
TEXT
  8
0
 62
7
 10
-1.29649994E+02
 20
-8.24000031E+01
 40
3.20000005E+00
  1
STROKE
 41
1.00000000E+00
  7
MONOTXT
  0
TEXT
  8
0
 62
7
 10
1.50006081E-01
 20
-8.24000031E+01
 40
3.20000005E+00
  1
60
 41
1.00000000E+00
  7
MONOTXT
  0
LINE
  8
0
 62
7
 10
7.80000610E+00
 20
-8.98000031E+01
 11
7.80000610E+00
 21
-7.78000031E+01
  0
TEXT
  8
0
 62
7
 10
-9.44999392E+00
 20
-8.24000031E+01
 40
3.20000005E+00
  1
55
 41
1.00000000E+00
  7
MONOTXT
  0
LINE
  8
0
 62
7
 10
-1.79999390E+00
 20
-8.98000031E+01
 11
-1.79999390E+00
 21
-7.78000031E+01
  0
TEXT
  8
0
 62
7
 10
-1.90499939E+01
 20
-8.24000031E+01
 40
3.20000005E+00
  1
50
 41
1.00000000E+00
  7
MONOTXT
  0
LINE
  8
0
 62
7
 10
-1.13999939E+01
 20
-8.98000031E+01
 11
-1.13999939E+01
 21
-7.78000031E+01
  0
TEXT
  8
0
 62
7
 10
-2.86499939E+01
 20
-8.24000031E+01
 40
3.20000005E+00
  1
45
 41
1.00000000E+00
  7
MONOTXT
  0
LINE
  8
0
 62
7
 10
-2.09999939E+01
 20
-8.98000031E+01
 11
-2.09999939E+01
 21
-7.78000031E+01
  0
TEXT
  8
0
 62
7
 10
-3.82499939E+01
 20
-8.24000031E+01
 40
3.20000005E+00
  1
40
 41
1.00000000E+00
  7
MONOTXT
  0
LINE
  8
0
 62
7
 10
-3.05999939E+01
 20
-8.98000031E+01
 11
-3.05999939E+01
 21
-7.78000031E+01
  0
TEXT
  8
0
 62
7
 10
-4.78499939E+01
 20
-8.24000031E+01
 40
3.20000005E+00
  1
35
 41
1.00000000E+00
  7
MONOTXT
  0
LINE
  8
0
 62
7
 10
-4.01999939E+01
 20
-8.98000031E+01
 11
-4.01999939E+01
 21
-7.78000031E+01
  0
TEXT
  8
0
 62
7
 10
-5.74499939E+01
 20
-8.24000031E+01
 40
3.20000005E+00
  1
30
 41
1.00000000E+00
  7
MONOTXT
  0
LINE
  8
0
 62
7
 10
-4.97999939E+01
 20
-8.98000031E+01
 11
-4.97999939E+01
 21
-7.78000031E+01
  0
TEXT
  8
0
 62
7
 10
-6.70499939E+01
 20
-8.24000031E+01
 40
3.20000005E+00
  1
25
 41
1.00000000E+00
  7
MONOTXT
  0
LINE
  8
0
 62
7
 10
-5.93999939E+01
 20
-8.98000031E+01
 11
-5.93999939E+01
 21
-7.78000031E+01
  0
TEXT
  8
0
 62
7
 10
-7.66499939E+01
 20
-8.24000031E+01
 40
3.20000005E+00
  1
20
 41
1.00000000E+00
  7
MONOTXT
  0
LINE
  8
0
 62
7
 10
-6.89999939E+01
 20
-8.98000031E+01
 11
-6.89999939E+01
 21
-7.78000031E+01
  0
TEXT
  8
0
 62
7
 10
-8.62499939E+01
 20
-8.24000031E+01
 40
3.20000005E+00
  1
15
 41
1.00000000E+00
  7
MONOTXT
  0
LINE
  8
0
 62
7
 10
-7.85999939E+01
 20
-8.98000031E+01
 11
-7.85999939E+01
 21
-7.78000031E+01
  0
TEXT
  8
0
 62
7
 10
-9.58499939E+01
 20
-8.24000031E+01
 40
3.20000005E+00
  1
10
 41
1.00000000E+00
  7
MONOTXT
  0
LINE
  8
0
 62
7
 10
-8.81999939E+01
 20
-8.98000031E+01
 11
-8.81999939E+01
 21
-7.78000031E+01
  0
TEXT
  8
0
 62
7
 10
-1.03849994E+02
 20
-8.24000031E+01
 40
3.20000005E+00
  1
5
 41
1.00000000E+00
  7
MONOTXT
  0
LINE
  8
0
 62
7
 10
-1.33399994E+02
 20
-7.78000031E+01
 11
7.80000610E+00
 21
-7.78000031E+01
  0
LINE
  8
0
 62
7
 10
-9.77999939E+01
 20
-8.98000031E+01
 11
-9.77999939E+01
 21
-7.78000031E+01
  0
LINE
  8
0
 62
7
 10
-1.07399994E+02
 20
-8.98000031E+01
 11
-1.07399994E+02
 21
-7.78000031E+01
  0
LINE
  8
0
 62
7
 10
-1.33399994E+02
 20
-8.38000031E+01
 11
7.80000610E+00
 21
-8.38000031E+01
  0
LINE
  8
0
 62
7
 10
-1.33399994E+02
 20
-8.98000031E+01
 11
-1.33399994E+02
 21
-7.78000031E+01
  0
LINE
  8
0
 62
7
 10
-1.33399994E+02
 20
-8.98000031E+01
 11
7.80000610E+00
 21
-8.98000031E+01
  0
TEXT
  8
0
 10
5.68645390E+00
 20
5.01268295E+01
 40
3.20000005E+00
  1
STRETCH LINE
 41
1.05263158E+00
  7
MONOTXT
  0
LINE
  8
0
 62
7
 10
-1.38399994E+02
 20
9.45000000E+01
 11
1.38350006E+02
 21
9.45000000E+01
  0
LINE
  8
0
 62
7
 10
1.38350006E+02
 20
9.45000000E+01
 11
1.38350006E+02
 21
-9.48000031E+01
  0
LINE
  8
0
 62
7
 10
-1.38399994E+02
 20
-9.48000031E+01
 11
1.38350006E+02
 21
-9.48000031E+01
  0
LINE
  8
0
 62
7
 10
-1.38399994E+02
 20
9.45000000E+01
 11
-1.38399994E+02
 21
-9.48000031E+01
  0
LINE
  8
0
 62
7
 10
7.33500061E+01
 20
-8.48000031E+01
 11
1.38350006E+02
 21
-8.48000031E+01
  0
LINE
  8
0
 62
7
 10
-1.38399994E+02
 20
8.45000000E+01
 11
-7.33999939E+01
 21
8.45000000E+01
  0
LINE
  8
0
 62
7
 10
7.33500061E+01
 20
8.45000000E+01
 11
1.38350006E+02
 21
8.45000000E+01
  0
LINE
  8
0
 62
7
 10
7.33500061E+01
 20
-8.48000031E+01
 11
7.33500061E+01
 21
-9.48000031E+01
  0
LINE
  8
0
 62
7
 10
7.33500061E+01
 20
9.45000000E+01
 11
7.33500061E+01
 21
8.45000000E+01
  0
LINE
  8
0
 62
7
 10
-7.33999939E+01
 20
9.45000000E+01
 11
-7.33999939E+01
 21
8.45000000E+01
  0
TEXT
  8
0
 62
7
 10
7.72426624E+01
 20
-9.20500031E+01
 40
4.50000000E+00
  1
KOGANEI CORP.
 41
1.04838710E+00
  7
MONOTXT
  0
TEXT
  8
0
 62
7
 10
9.35071483E+01
 20
8.79000000E+01
 40
3.20000005E+00
  1
Ver. 1.1
 41
1.08108108E+00
  7
MONOTXT
  0
TEXT
  8
0
 62
7
 10
-1.31042852E+02
 20
8.79000000E+01
 40
3.20000005E+00
  1
NEW PEN CYLINDER
 41
1.08108108E+00
  7
MONOTXT
  0
TEXT
  8
0
 62
7
 10
-1.29085994E+02
 20
7.29000000E+01
 40
3.20000005E+00
  1
MODEL:PBSAS10*ST(35)-ZC230
 41
1.00000000E+00
  7
MONOTXT
  0
ENDSEC
  0
EOF
