  0
SECTION
  2
HEADER
  9
$ACADVER
  1
AC1003
  9
$EXTMIN
 10
-1.38399994E+02
 20
-9.48000031E+01
  9
$EXTMAX
 10
1.38350006E+02
 20
9.45000000E+01
  9
$LIMMIN
 10
-1.38400994E+02
 20
-9.48010031E+01
  9
$LIMMAX
 10
1.38351006E+02
 20
9.45010000E+01
  9
$SNAPUNIT
 10
1
 20
1
  9
$SNAPBASE
 10
0
 20
0
  9
$GRIDMODE
 70
0
  9
$GRIDUNIT
 10
0
 20
0
  9
$LTSCALE
 40
4.61250000E+00
  9
$TEXTSIZE
 40
3.2
  9
$DIMTAD
 70
0
  9
$LUNITS
 70
2
  9
$LUPREC
 70
4
  9
$FILLETRAD
 40
0
  9
$AUNITS
 70
0
  9
$AUPREC
 70
0
  0
ENDSEC
  0
SECTION
  2
TABLES
  0
TABLE
  2
LTYPE
 70
2
  0
LTYPE
  2
CONTINUOUS
 70
64
  3
Solid-Line
 72
65
 73
0
 40
0
  0
LTYPE
  2
DASHED
 70
64
  3
DASHED
 72
65
 73
2
 40
.75
 49
.5
 49
-.25
  0
LTYPE
  2
HIDDEN
 70
64
  3
HIDDEN
 72
65
 73
2
 40
.375
 49
.25
 49
-.125
  0
LTYPE
  2
CENTER
 70
64
  3
CENTER
 72
65
 73
4
 40
2
 49
1.25
 49
-.25
 49
.25
 49
-.25
  0
LTYPE
  2
PHANTOM
 70
64
  3
PHANTOM
 72
65
 73
6
 40
2.5
 49
1.25
 49
-.25
 49
.25
 49
-.25
 49
.25
 49
-.25
  0
ENDTAB
  0
TABLE
  2
LAYER
 70
1
  0
LAYER
  2
1
 70
0
 62
7
  6
CONTINUOUS
 0
ENDTAB
  0
TABLE
  2
STYLE
 70
2
  0
STYLE
  2
MONOTXT
 70
0
 40
0
 41
1
 50
0
 71
0
 42
.2
  3
monotxt
  0
STYLE
  2
BIGFONT
 70
0
 40
0
 41
1
 50
0
 71
0
 42
.2
  3
txt
  4
bigfont
  0
ENDTAB
  0
ENDSEC
  0
SECTION
  2
ENTITIES
  0
LINE
  8
0
  6
CENTER
 62
6
 10
-8.00617981E+01
 20
-1.10000000E+01
 11
-8.00617981E+01
 21
-2.90000000E+01
  0
ARC
  8
0
 62
4
 10
-7.80617981E+01
 20
-2.00000000E+01
 40
1.10003818E+01
 50
3.26945563E+02
 51
3.30544369E+01
  0
ARC
  8
0
 62
4
 10
-7.50617981E+01
 20
-2.00000000E+01
 40
1.10003818E+01
 50
1.46945563E+02
 51
2.13054437E+02
  0
ARC
  8
0
 62
4
 10
-7.50617981E+01
 20
-2.00000000E+01
 40
1.19980040E+01
 50
1.49994497E+02
 51
2.10005503E+02
  0
LINE
  8
0
 62
4
 10
-6.70617981E+01
 20
-1.40000000E+01
 11
-6.70617981E+01
 21
-2.60000000E+01
  0
LINE
  8
0
  6
DASHED
 62
6
 10
-6.70617981E+01
 20
-2.20000000E+01
 11
-5.90617981E+01
 21
-2.20000000E+01
  0
LINE
  8
0
  6
DASHED
 62
4
 10
-6.70617981E+01
 20
-2.18000000E+01
 11
-5.90617981E+01
 21
-2.18000000E+01
  0
LINE
  8
0
  6
DASHED
 62
4
 10
-6.70617981E+01
 20
-1.82000000E+01
 11
-5.90617981E+01
 21
-1.82000000E+01
  0
LINE
  8
0
  6
DASHED
 62
6
 10
-6.70617981E+01
 20
-1.80000000E+01
 11
-5.90617981E+01
 21
-1.80000000E+01
  0
LINE
  8
0
  6
DASHED
 62
4
 10
-6.70617981E+01
 20
-1.80000000E+01
 11
-6.70617981E+01
 21
-2.20000000E+01
  0
LINE
  8
0
 62
4
 10
-8.54517981E+01
 20
-2.60000000E+01
 11
-5.90617981E+01
 21
-2.60000000E+01
  0
LINE
  8
0
 62
4
 10
-8.54517981E+01
 20
-1.40000000E+01
 11
-5.90617981E+01
 21
-1.40000000E+01
  0
LINE
  8
0
 62
4
 10
-5.90617981E+01
 20
-1.40000000E+01
 11
-5.90617981E+01
 21
-2.60000000E+01
  0
LINE
  8
0
  6
CENTER
 62
6
 10
-9.00617981E+01
 20
-2.00000000E+01
 11
-5.60617981E+01
 21
-2.00000000E+01
  0
CIRCLE
  8
0
 62
4
 10
-8.00617981E+01
 20
-2.00000000E+01
 40
1.60000000E+00
  0
LINE
  8
0
  6
CENTER
 62
6
 10
-1.14561798E+02
 20
-1.10000000E+01
 11
-1.14561798E+02
 21
-2.90000000E+01
  0
LINE
  8
0
 62
4
 10
-1.16161798E+02
 20
-1.40000000E+01
 11
-1.16161798E+02
 21
-2.60000000E+01
  0
LINE
  8
0
 62
4
 10
-1.20561798E+02
 20
-1.40000000E+01
 11
-1.20561798E+02
 21
-2.60000000E+01
  0
LINE
  8
0
 62
4
 10
-1.20561798E+02
 20
-2.60000000E+01
 11
-1.08561798E+02
 21
-2.60000000E+01
  0
LINE
  8
0
 62
4
 10
-1.20561798E+02
 20
-1.40000000E+01
 11
-1.08561798E+02
 21
-1.40000000E+01
  0
LINE
  8
0
 62
4
 10
-1.08561798E+02
 20
-1.40000000E+01
 11
-1.08561798E+02
 21
-2.60000000E+01
  0
LINE
  8
0
  6
CENTER
 62
6
 10
-1.23561798E+02
 20
-2.00000000E+01
 11
-1.05561798E+02
 21
-2.00000000E+01
  0
LINE
  8
0
 62
4
 10
-1.12961798E+02
 20
-1.40000000E+01
 11
-1.12961798E+02
 21
-2.60000000E+01
  0
LINE
  8
0
  6
CENTER
 62
6
 10
-2.90617981E+01
 20
-1.10000000E+01
 11
-2.90617981E+01
 21
-2.90000000E+01
  0
CIRCLE
  8
0
 62
4
 10
-2.90617981E+01
 20
-2.00000000E+01
 40
1.79999924E+00
  0
CIRCLE
  8
0
 62
6
 10
-2.90617981E+01
 20
-2.00000000E+01
 40
2.00000000E+00
  0
CIRCLE
  8
0
 62
4
 10
-2.90617981E+01
 20
-2.00000000E+01
 40
6.00000000E+00
  0
LINE
  8
0
  6
CENTER
 62
6
 10
-3.80617981E+01
 20
-2.00000000E+01
 11
-2.00617981E+01
 21
-2.00000000E+01
  0
LINE
  8
0
 62
4
 10
-3.50617981E+01
 20
-2.60000000E+01
 11
-2.30617981E+01
 21
-2.60000000E+01
  0
LINE
  8
0
 62
4
 10
-2.30617981E+01
 20
-1.40000000E+01
 11
-2.30617981E+01
 21
-2.60000000E+01
  0
LINE
  8
0
 62
4
 10
-3.50617981E+01
 20
-1.40000000E+01
 11
-2.30617981E+01
 21
-1.40000000E+01
  0
LINE
  8
0
 62
4
 10
-3.50617981E+01
 20
-1.40000000E+01
 11
-3.50617981E+01
 21
-2.60000000E+01
  0
LINE
  8
0
  6
CENTER
 62
6
 10
-8.00617981E+01
 20
3.40000000E+01
 11
-8.00617981E+01
 21
1.60000000E+01
  0
ARC
  8
0
 62
4
 10
-7.50611038E+01
 20
2.50020360E+01
 40
1.19975873E+01
 50
1.50004575E+02
 51
1.72346005E+02
  0
ARC
  8
0
 62
4
 10
-7.50611038E+01
 20
2.49979640E+01
 40
1.19975873E+01
 50
1.87653995E+02
 51
2.09995425E+02
  0
ARC
  8
0
 62
4
 10
-7.50590183E+01
 20
2.50073603E+01
 40
1.09986998E+01
 50
1.46985598E+02
 51
1.71674155E+02
  0
ARC
  8
0
 62
4
 10
-7.50590183E+01
 20
2.49926397E+01
 40
1.09986998E+01
 50
1.88325845E+02
 51
2.13014401E+02
  0
ARC
  8
0
 62
4
 10
-7.80617981E+01
 20
2.50000000E+01
 40
1.10003818E+01
 50
3.26945563E+02
 51
3.30544369E+01
  0
LINE
  8
0
 62
4
 10
-6.70617981E+01
 20
3.10000000E+01
 11
-6.70617981E+01
 21
1.90000000E+01
  0
LINE
  8
0
 62
4
 10
-8.69517981E+01
 20
2.34000000E+01
 11
-7.00617981E+01
 21
2.34000000E+01
  0
LINE
  8
0
 62
4
 10
-8.69517981E+01
 20
2.66000000E+01
 11
-7.00617981E+01
 21
2.66000000E+01
  0
LINE
  8
0
 62
4
 10
-7.00617981E+01
 20
2.66000000E+01
 11
-7.00617981E+01
 21
2.34000000E+01
  0
LINE
  8
0
 62
4
 10
-8.54517981E+01
 20
1.90000000E+01
 11
-5.90617981E+01
 21
1.90000000E+01
  0
LINE
  8
0
 62
4
 10
-8.54517981E+01
 20
3.10000000E+01
 11
-5.90617981E+01
 21
3.10000000E+01
  0
LINE
  8
0
 62
4
 10
-5.90617981E+01
 20
3.10000000E+01
 11
-5.90617981E+01
 21
1.90000000E+01
  0
LINE
  8
0
  6
CENTER
 62
6
 10
-9.00617981E+01
 20
2.50000000E+01
 11
-5.60617981E+01
 21
2.50000000E+01
  0
ARC
  8
0
 62
4
 10
6.25617981E+01
 20
-2.00000000E+01
 40
1.10003818E+01
 50
3.26945563E+02
 51
3.30544369E+01
  0
ARC
  8
0
 62
4
 10
6.45617981E+01
 20
-2.00000000E+01
 40
1.10003818E+01
 50
1.46945563E+02
 51
2.13054437E+02
  0
ARC
  8
0
 62
4
 10
6.45617981E+01
 20
-2.00000000E+01
 40
1.19980040E+01
 50
1.49994497E+02
 51
2.10005503E+02
  0
LINE
  8
0
  6
DASHED
 62
6
 10
6.95617981E+01
 20
-2.25000000E+01
 11
8.05617981E+01
 21
-2.25000000E+01
  0
LINE
  8
0
  6
DASHED
 62
4
 10
6.95617981E+01
 20
-2.21000000E+01
 11
8.05617981E+01
 21
-2.21000000E+01
  0
LINE
  8
0
  6
DASHED
 62
4
 10
6.95617981E+01
 20
-1.79000000E+01
 11
8.05617981E+01
 21
-1.79000000E+01
  0
LINE
  8
0
  6
DASHED
 62
6
 10
6.95617981E+01
 20
-1.75000000E+01
 11
8.05617981E+01
 21
-1.75000000E+01
  0
LINE
  8
0
 62
4
 10
7.35617981E+01
 20
-1.40000000E+01
 11
7.35617981E+01
 21
-2.60000000E+01
  0
LINE
  8
0
 62
4
 10
5.41717981E+01
 20
-2.60000000E+01
 11
8.05617981E+01
 21
-2.60000000E+01
  0
LINE
  8
0
 62
4
 10
5.41717981E+01
 20
-1.40000000E+01
 11
8.05617981E+01
 21
-1.40000000E+01
  0
LINE
  8
0
 62
4
 10
8.05617981E+01
 20
-1.40000000E+01
 11
8.05617981E+01
 21
-2.60000000E+01
  0
LINE
  8
0
  6
CENTER
 62
6
 10
5.95617981E+01
 20
-1.10000000E+01
 11
5.95617981E+01
 21
-2.90000000E+01
  0
LINE
  8
0
  6
CENTER
 62
6
 10
4.95617981E+01
 20
-2.00000000E+01
 11
8.35617981E+01
 21
-2.00000000E+01
  0
CIRCLE
  8
0
 62
4
 10
5.95617981E+01
 20
-2.00000000E+01
 40
2.50000000E+00
  0
LINE
  8
0
 62
4
 10
2.03117981E+01
 20
-1.40000000E+01
 11
2.03117981E+01
 21
-2.60000000E+01
  0
LINE
  8
0
 62
4
 10
1.75617981E+01
 20
-1.40000000E+01
 11
1.75617981E+01
 21
-2.60000000E+01
  0
LINE
  8
0
 62
4
 10
1.75617981E+01
 20
-2.60000000E+01
 11
2.95617981E+01
 21
-2.60000000E+01
  0
LINE
  8
0
 62
4
 10
1.75617981E+01
 20
-1.40000000E+01
 11
2.95617981E+01
 21
-1.40000000E+01
  0
LINE
  8
0
  6
CENTER
 62
6
 10
2.35617981E+01
 20
-1.10000000E+01
 11
2.35617981E+01
 21
-2.90000000E+01
  0
LINE
  8
0
  6
CENTER
 62
6
 10
1.45617981E+01
 20
-2.00000000E+01
 11
3.25617981E+01
 21
-2.00000000E+01
  0
LINE
  8
0
 62
4
 10
2.95617981E+01
 20
-1.40000000E+01
 11
2.95617981E+01
 21
-2.60000000E+01
  0
LINE
  8
0
 62
4
 10
2.68117981E+01
 20
-1.40000000E+01
 11
2.68117981E+01
 21
-2.60000000E+01
  0
LINE
  8
0
  6
CENTER
 62
6
 10
1.09561798E+02
 20
-1.10000000E+01
 11
1.09561798E+02
 21
-2.90000000E+01
  0
CIRCLE
  8
0
 62
4
 10
1.09561798E+02
 20
-2.00000000E+01
 40
2.09999943E+00
  0
CIRCLE
  8
0
 62
6
 10
1.09561798E+02
 20
-2.00000000E+01
 40
2.50000000E+00
  0
CIRCLE
  8
0
 62
4
 10
1.09561798E+02
 20
-2.00000000E+01
 40
6.00000000E+00
  0
LINE
  8
0
  6
CENTER
 62
6
 10
1.00561798E+02
 20
-2.00000000E+01
 11
1.18561798E+02
 21
-2.00000000E+01
  0
LINE
  8
0
 62
4
 10
1.03561798E+02
 20
-2.60000000E+01
 11
1.15561798E+02
 21
-2.60000000E+01
  0
LINE
  8
0
 62
4
 10
1.15561798E+02
 20
-1.40000000E+01
 11
1.15561798E+02
 21
-2.60000000E+01
  0
LINE
  8
0
 62
4
 10
1.03561798E+02
 20
-1.40000000E+01
 11
1.15561798E+02
 21
-1.40000000E+01
  0
LINE
  8
0
 62
4
 10
1.03561798E+02
 20
-1.40000000E+01
 11
1.03561798E+02
 21
-2.60000000E+01
  0
ARC
  8
0
 62
4
 10
6.45609584E+01
 20
2.49980088E+01
 40
1.19982728E+01
 50
1.49984257E+02
 51
1.64273940E+02
  0
ARC
  8
0
 62
4
 10
6.45609584E+01
 20
2.50019912E+01
 40
1.19982728E+01
 50
1.95726060E+02
 51
2.10015743E+02
  0
ARC
  8
0
 62
4
 10
6.45754672E+01
 20
2.50292559E+01
 40
1.09959279E+01
 50
1.47112181E+02
 51
1.62968144E+02
  0
ARC
  8
0
 62
4
 10
6.45754672E+01
 20
2.49707441E+01
 40
1.09959279E+01
 50
1.97031856E+02
 51
2.12887819E+02
  0
ARC
  8
0
 62
4
 10
6.25617981E+01
 20
2.50000000E+01
 40
1.10003818E+01
 50
3.26945563E+02
 51
3.30544369E+01
  0
LINE
  8
0
 62
4
 10
7.35617981E+01
 20
3.10000000E+01
 11
7.35617981E+01
 21
1.90000000E+01
  0
LINE
  8
0
 62
4
 10
5.30117981E+01
 20
2.17500000E+01
 11
6.95617981E+01
 21
2.17500000E+01
  0
LINE
  8
0
 62
4
 10
5.30117981E+01
 20
2.82500000E+01
 11
6.95617981E+01
 21
2.82500000E+01
  0
LINE
  8
0
 62
4
 10
6.95617981E+01
 20
2.82500000E+01
 11
6.95617981E+01
 21
2.17500000E+01
  0
LINE
  8
0
 62
4
 10
5.41717981E+01
 20
1.90000000E+01
 11
8.05617981E+01
 21
1.90000000E+01
  0
LINE
  8
0
 62
4
 10
5.41717981E+01
 20
3.10000000E+01
 11
8.05617981E+01
 21
3.10000000E+01
  0
LINE
  8
0
 62
4
 10
8.05617981E+01
 20
3.10000000E+01
 11
8.05617981E+01
 21
1.90000000E+01
  0
LINE
  8
0
  6
CENTER
 62
6
 10
5.95617981E+01
 20
3.40000000E+01
 11
5.95617981E+01
 21
1.60000000E+01
  0
LINE
  8
0
  6
CENTER
 62
6
 10
4.95617981E+01
 20
2.50000000E+01
 11
8.35617981E+01
 21
2.50000000E+01
  0
TEXT
  8
0
 62
7
 10
9.28900612E+00
 20
7.29000000E+01
 40
3.20000005E+00
  1
BORE:16
 41
1.00000000E+00
  7
MONOTXT
  0
LINE
  8
0
 62
7
 10
-2.49938965E-02
 20
9.45000000E+01
 11
-2.49938965E-02
 21
-9.48000031E+01
  0
TEXT
  8
0
 62
7
 10
-1.21149994E+02
 20
8.57500000E+01
 40
3.50000000E+00
  1
Y-KNUCKLE
 41
1.00000000E+00
  7
MONOTXT
  0
LINE
  8
0
 62
7
 10
-1.38399994E+02
 20
9.45000000E+01
 11
1.38350006E+02
 21
9.45000000E+01
  0
LINE
  8
0
 62
7
 10
1.38350006E+02
 20
9.45000000E+01
 11
1.38350006E+02
 21
-9.48000031E+01
  0
LINE
  8
0
 62
7
 10
-1.38399994E+02
 20
-9.48000031E+01
 11
1.38350006E+02
 21
-9.48000031E+01
  0
LINE
  8
0
 62
7
 10
-1.38399994E+02
 20
9.45000000E+01
 11
-1.38399994E+02
 21
-9.48000031E+01
  0
LINE
  8
0
 62
7
 10
7.33500061E+01
 20
-8.48000031E+01
 11
1.38350006E+02
 21
-8.48000031E+01
  0
LINE
  8
0
 62
7
 10
-1.38399994E+02
 20
8.45000000E+01
 11
-7.33999939E+01
 21
8.45000000E+01
  0
LINE
  8
0
 62
7
 10
7.33500061E+01
 20
8.45000000E+01
 11
1.38350006E+02
 21
8.45000000E+01
  0
LINE
  8
0
 62
7
 10
7.33500061E+01
 20
-8.48000031E+01
 11
7.33500061E+01
 21
-9.48000031E+01
  0
LINE
  8
0
 62
7
 10
7.33500061E+01
 20
9.45000000E+01
 11
7.33500061E+01
 21
8.45000000E+01
  0
LINE
  8
0
 62
7
 10
-7.33999939E+01
 20
9.45000000E+01
 11
-7.33999939E+01
 21
8.45000000E+01
  0
TEXT
  8
0
 62
7
 10
7.72426624E+01
 20
-9.20500031E+01
 40
4.50000000E+00
  1
KOGANEI CORP.
 41
1.04838710E+00
  7
MONOTXT
  0
TEXT
  8
0
 62
7
 10
9.35071483E+01
 20
8.79000000E+01
 40
3.20000005E+00
  1
Ver. 1.0
 41
1.08108108E+00
  7
MONOTXT
  0
TEXT
  8
0
 62
7
 10
-1.31042852E+02
 20
8.99000000E+01
 40
3.20000005E+00
  1
NEW PEN CYLINDER
 41
1.08108108E+00
  7
MONOTXT
  0
TEXT
  8
0
 62
7
 10
-1.29085994E+02
 20
7.29000000E+01
 40
3.20000005E+00
  1
BORE:10
 41
1.00000000E+00
  7
MONOTXT
  0
ENDSEC
  0
EOF
