  0
SECTION
  2
HEADER
  9
$ACADVER
  1
AC1003
  9
$EXTMIN
 10
-1.38399994E+02
 20
-9.48000031E+01
  9
$EXTMAX
 10
1.38350006E+02
 20
9.45000000E+01
  9
$LIMMIN
 10
-1.38400994E+02
 20
-9.48010031E+01
  9
$LIMMAX
 10
1.38351006E+02
 20
9.45010000E+01
  9
$SNAPUNIT
 10
1
 20
1
  9
$SNAPBASE
 10
0
 20
0
  9
$GRIDMODE
 70
0
  9
$GRIDUNIT
 10
0
 20
0
  9
$LTSCALE
 40
4.61250000E+00
  9
$TEXTSIZE
 40
3.2
  9
$DIMTAD
 70
0
  9
$LUNITS
 70
2
  9
$LUPREC
 70
4
  9
$FILLETRAD
 40
0
  9
$AUNITS
 70
0
  9
$AUPREC
 70
0
  0
ENDSEC
  0
SECTION
  2
TABLES
  0
TABLE
  2
LTYPE
 70
2
  0
LTYPE
  2
CONTINUOUS
 70
64
  3
Solid-Line
 72
65
 73
0
 40
0
  0
LTYPE
  2
DASHED
 70
64
  3
DASHED
 72
65
 73
2
 40
.75
 49
.5
 49
-.25
  0
LTYPE
  2
HIDDEN
 70
64
  3
HIDDEN
 72
65
 73
2
 40
.375
 49
.25
 49
-.125
  0
LTYPE
  2
CENTER
 70
64
  3
CENTER
 72
65
 73
4
 40
2
 49
1.25
 49
-.25
 49
.25
 49
-.25
  0
LTYPE
  2
PHANTOM
 70
64
  3
PHANTOM
 72
65
 73
6
 40
2.5
 49
1.25
 49
-.25
 49
.25
 49
-.25
 49
.25
 49
-.25
  0
ENDTAB
  0
TABLE
  2
LAYER
 70
1
  0
LAYER
  2
1
 70
0
 62
7
  6
CONTINUOUS
 0
ENDTAB
  0
TABLE
  2
STYLE
 70
2
  0
STYLE
  2
MONOTXT
 70
0
 40
0
 41
1
 50
0
 71
0
 42
.2
  3
monotxt
  0
STYLE
  2
BIGFONT
 70
0
 40
0
 41
1
 50
0
 71
0
 42
.2
  3
txt
  4
bigfont
  0
ENDTAB
  0
ENDSEC
  0
SECTION
  2
ENTITIES
  0
TEXT
  8
0
 62
7
 10
-5.51814021E+00
 20
1.75307750E+01
 40
1.50000000E+00
  1
PBDAUS10
 41
1.00000000E+00
  7
MONOTXT
  0
ARC
  8
0
 62
7
 10
6.37397192E+01
 20
2.19307750E+01
 40
7.57841784E+00
 50
5.42564325E-01
 51
3.94954291E+01
  0
LINE
  8
0
 62
7
 10
4.43177973E+01
 20
1.64307750E+01
 11
5.73177973E+01
 21
1.64307750E+01
  0
LINE
  8
0
 62
7
 10
4.68177973E+01
 20
2.74307750E+01
 11
5.73177973E+01
 21
2.74307750E+01
  0
LINE
  8
0
 62
7
 10
-5.18220271E+00
 20
2.74307750E+01
 11
3.28177973E+01
 21
2.74307750E+01
  0
LINE
  8
0
 62
7
 10
-7.68220271E+00
 20
1.64307750E+01
 11
3.53177973E+01
 21
1.64307750E+01
  0
LINE
  8
0
 62
4
 10
3.28177973E+01
 20
3.22307750E+01
 11
2.73177973E+01
 21
3.22307750E+01
  0
LINE
  8
0
 62
4
 10
3.28177973E+01
 20
2.82307750E+01
 11
2.73177973E+01
 21
2.82307750E+01
  0
LINE
  8
0
 62
4
 10
4.68177973E+01
 20
3.00307750E+01
 11
4.68177973E+01
 21
2.69307750E+01
  0
LINE
  8
0
 62
4
 10
3.28177973E+01
 20
3.00307750E+01
 11
3.28177973E+01
 21
2.69307750E+01
  0
LINE
  8
0
 62
4
 10
4.43177973E+01
 20
3.04307750E+01
 11
3.53177973E+01
 21
3.04307750E+01
  0
LINE
  8
0
 62
4
 10
4.43177973E+01
 20
3.04307750E+01
 11
4.43177973E+01
 21
3.69307750E+01
  0
LINE
  8
0
 62
4
 10
3.53177973E+01
 20
3.04307750E+01
 11
3.53177973E+01
 21
3.69307750E+01
  0
LINE
  8
0
 62
4
 10
3.53177973E+01
 20
3.00307750E+01
 11
3.28177973E+01
 21
3.00307750E+01
  0
LINE
  8
0
 62
4
 10
3.53177973E+01
 20
3.32307750E+01
 11
3.28177973E+01
 21
3.32307750E+01
  0
LINE
  8
0
 62
4
 10
4.68177973E+01
 20
3.32307750E+01
 11
4.43177973E+01
 21
3.32307750E+01
  0
LINE
  8
0
 62
4
 10
4.68177973E+01
 20
3.04307750E+01
 11
4.43177973E+01
 21
3.04307750E+01
  0
LINE
  8
0
 62
4
 10
4.68177973E+01
 20
3.00307750E+01
 11
4.43177973E+01
 21
3.00307750E+01
  0
LINE
  8
0
 62
6
 10
4.10477973E+01
 20
3.79307750E+01
 11
4.10477973E+01
 21
3.69307750E+01
  0
LINE
  8
0
 62
6
 10
3.85877973E+01
 20
3.79307750E+01
 11
3.85877973E+01
 21
3.69307750E+01
  0
LINE
  8
0
 62
4
 10
4.13177973E+01
 20
3.79307750E+01
 11
4.13177973E+01
 21
3.69307750E+01
  0
LINE
  8
0
 62
4
 10
3.83177973E+01
 20
3.79307750E+01
 11
3.83177973E+01
 21
3.69307750E+01
  0
LINE
  8
0
 62
4
 10
4.68177973E+01
 20
3.22307750E+01
 11
5.13177973E+01
 21
3.22307750E+01
  0
LINE
  8
0
 62
4
 10
3.53177973E+01
 20
3.04307750E+01
 11
3.53177973E+01
 21
1.62807750E+01
  0
LINE
  8
0
 62
4
 10
4.43177973E+01
 20
3.04307750E+01
 11
4.43177973E+01
 21
1.62807750E+01
  0
LINE
  8
0
 62
4
 10
4.43177973E+01
 20
3.69307750E+01
 11
3.53177973E+01
 21
3.69307750E+01
  0
LINE
  8
0
 62
4
 10
3.53177973E+01
 20
3.04307750E+01
 11
3.28177973E+01
 21
3.04307750E+01
  0
LINE
  8
0
 62
4
 10
3.53177973E+01
 20
1.62807750E+01
 11
4.43177973E+01
 21
1.62807750E+01
  0
LINE
  8
0
 62
4
 10
5.23177973E+01
 20
3.12307750E+01
 11
5.23177973E+01
 21
2.92307750E+01
  0
LINE
  8
0
 62
4
 10
5.13177973E+01
 20
2.82307750E+01
 11
4.68177973E+01
 21
2.82307750E+01
  0
LINE
  8
0
  6
CENTER
 62
6
 10
3.98177973E+01
 20
4.19407750E+01
 11
3.98177973E+01
 21
1.45107750E+01
  0
LINE
  8
0
 62
4
 10
4.23177973E+01
 20
3.79307750E+01
 11
3.73177973E+01
 21
3.79307750E+01
  0
LINE
  8
0
 62
4
 10
4.13177973E+01
 20
3.94307750E+01
 11
3.83177973E+01
 21
3.94307750E+01
  0
LINE
  8
0
 62
4
 10
3.73177973E+01
 20
3.84307750E+01
 11
3.73177973E+01
 21
3.79307750E+01
  0
LINE
  8
0
 62
4
 10
4.23177973E+01
 20
3.84307750E+01
 11
4.23177973E+01
 21
3.79307750E+01
  0
LINE
  8
0
 62
4
 10
5.13177973E+01
 20
3.22307750E+01
 11
5.13177973E+01
 21
2.82307750E+01
  0
LINE
  8
0
 62
4
 10
5.23177973E+01
 20
3.12307750E+01
 11
5.13177973E+01
 21
3.22307750E+01
  0
LINE
  8
0
 62
4
 10
5.23177973E+01
 20
2.92307750E+01
 11
5.13177973E+01
 21
2.82307750E+01
  0
LINE
  8
0
 62
4
 10
3.28177973E+01
 20
3.32307750E+01
 11
3.28177973E+01
 21
3.04307750E+01
  0
LINE
  8
0
 62
4
 10
4.68177973E+01
 20
3.32307750E+01
 11
4.68177973E+01
 21
3.04307750E+01
  0
LINE
  8
0
 62
4
 10
4.68177973E+01
 20
2.69307750E+01
 11
4.43177973E+01
 21
2.69307750E+01
  0
LINE
  8
0
 62
4
 10
3.53177973E+01
 20
2.69307750E+01
 11
3.28177973E+01
 21
2.69307750E+01
  0
ARC
  8
0
 62
4
 10
4.13170058E+01
 20
3.84299835E+01
 40
1.00079180E+00
 50
4.53129782E-02
 51
9.00000002E+01
  0
ARC
  8
0
 62
4
 10
3.83194629E+01
 20
3.84291093E+01
 40
1.00166704E+00
 50
9.00952762E+01
 51
1.79904724E+02
  0
LINE
  8
0
 62
4
 10
2.43177973E+01
 20
3.15307750E+01
 11
1.93807982E+01
 21
3.15307750E+01
  0
LINE
  8
0
 62
4
 10
2.43177973E+01
 20
2.89307750E+01
 11
2.19807982E+01
 21
2.89307750E+01
  0
LINE
  8
0
 62
4
 10
2.73177973E+01
 20
2.82307750E+01
 11
2.43177973E+01
 21
2.89307750E+01
  0
LINE
  8
0
 62
4
 10
2.73177973E+01
 20
3.22307750E+01
 11
2.43177973E+01
 21
3.15307750E+01
  0
LINE
  8
0
 62
4
 10
2.73177973E+01
 20
3.22307750E+01
 11
2.73177973E+01
 21
2.82307750E+01
  0
LINE
  8
0
 62
4
 10
2.43177973E+01
 20
3.15307750E+01
 11
2.43177973E+01
 21
2.89307750E+01
  0
LINE
  8
0
 62
6
 10
1.93807982E+01
 20
3.15307750E+01
 11
2.19807982E+01
 21
2.89307750E+01
  0
LINE
  8
0
 62
4
 10
-5.18220271E+00
 20
3.22307750E+01
 11
3.17797289E-01
 21
3.22307750E+01
  0
LINE
  8
0
 62
4
 10
-5.18220271E+00
 20
2.82307750E+01
 11
3.17797289E-01
 21
2.82307750E+01
  0
LINE
  8
0
 62
4
 10
-1.91822027E+01
 20
3.00307750E+01
 11
-1.91822027E+01
 21
2.69307750E+01
  0
LINE
  8
0
 62
4
 10
-5.18220271E+00
 20
3.00307750E+01
 11
-5.18220271E+00
 21
2.69307750E+01
  0
LINE
  8
0
 62
4
 10
-1.66822027E+01
 20
3.04307750E+01
 11
-7.68220271E+00
 21
3.04307750E+01
  0
LINE
  8
0
 62
4
 10
-1.66822027E+01
 20
3.04307750E+01
 11
-1.66822027E+01
 21
3.69307750E+01
  0
LINE
  8
0
 62
4
 10
-7.68220271E+00
 20
3.04307750E+01
 11
-7.68220271E+00
 21
3.69307750E+01
  0
LINE
  8
0
 62
4
 10
-7.68220271E+00
 20
3.00307750E+01
 11
-5.18220272E+00
 21
3.00307750E+01
  0
LINE
  8
0
 62
4
 10
-7.68220271E+00
 20
3.32307750E+01
 11
-5.18220272E+00
 21
3.32307750E+01
  0
LINE
  8
0
 62
4
 10
-1.91822027E+01
 20
3.32307750E+01
 11
-1.66822027E+01
 21
3.32307750E+01
  0
LINE
  8
0
 62
4
 10
-1.91822027E+01
 20
3.04307750E+01
 11
-1.66822027E+01
 21
3.04307750E+01
  0
LINE
  8
0
 62
4
 10
-1.91822027E+01
 20
3.00307750E+01
 11
-1.66822027E+01
 21
3.00307750E+01
  0
LINE
  8
0
 62
4
 10
-1.66822027E+01
 20
1.62847223E+01
 11
-7.68220272E+00
 21
1.62847223E+01
  0
LINE
  8
0
 62
6
 10
-1.34122027E+01
 20
3.79307750E+01
 11
-1.34122027E+01
 21
3.69307750E+01
  0
LINE
  8
0
 62
6
 10
-1.09522027E+01
 20
3.79307750E+01
 11
-1.09522027E+01
 21
3.69307750E+01
  0
LINE
  8
0
 62
4
 10
-1.36822027E+01
 20
3.79307750E+01
 11
-1.36822027E+01
 21
3.69307750E+01
  0
LINE
  8
0
 62
4
 10
-1.06822027E+01
 20
3.79307750E+01
 11
-1.06822027E+01
 21
3.69307750E+01
  0
LINE
  8
0
 62
4
 10
-1.91822027E+01
 20
3.22307750E+01
 11
-2.36822027E+01
 21
3.22307750E+01
  0
LINE
  8
0
 62
4
 10
-7.68220271E+00
 20
3.04307750E+01
 11
-7.68220271E+00
 21
1.62807750E+01
  0
LINE
  8
0
 62
4
 10
-1.66822027E+01
 20
3.04307750E+01
 11
-1.66822027E+01
 21
1.62807750E+01
  0
LINE
  8
0
 62
4
 10
-1.66822027E+01
 20
3.69307750E+01
 11
-7.68220271E+00
 21
3.69307750E+01
  0
LINE
  8
0
 62
4
 10
-7.68220271E+00
 20
3.04307750E+01
 11
-5.18220271E+00
 21
3.04307750E+01
  0
LINE
  8
0
 62
4
 10
-1.66822027E+01
 20
1.62807750E+01
 11
-7.68220271E+00
 21
1.62807750E+01
  0
LINE
  8
0
 62
4
 10
-2.46822027E+01
 20
3.12307750E+01
 11
-2.46822027E+01
 21
2.92307750E+01
  0
LINE
  8
0
 62
4
 10
-2.36822027E+01
 20
2.82307750E+01
 11
-1.91822027E+01
 21
2.82307750E+01
  0
LINE
  8
0
  6
CENTER
 62
6
 10
-1.21822027E+01
 20
4.19407750E+01
 11
-1.21822027E+01
 21
1.45107750E+01
  0
LINE
  8
0
 62
4
 10
-1.46822027E+01
 20
3.79307750E+01
 11
-9.68220271E+00
 21
3.79307750E+01
  0
LINE
  8
0
 62
4
 10
-1.36822027E+01
 20
3.94307750E+01
 11
-1.06822027E+01
 21
3.94307750E+01
  0
LINE
  8
0
 62
4
 10
-9.68220271E+00
 20
3.84307750E+01
 11
-9.68220271E+00
 21
3.79307750E+01
  0
LINE
  8
0
 62
4
 10
-1.46822027E+01
 20
3.84307750E+01
 11
-1.46822027E+01
 21
3.79307750E+01
  0
LINE
  8
0
 62
4
 10
-2.36822027E+01
 20
3.22307750E+01
 11
-2.36822027E+01
 21
2.82307750E+01
  0
LINE
  8
0
 62
4
 10
-2.46822027E+01
 20
3.12307750E+01
 11
-2.36822027E+01
 21
3.22307750E+01
  0
LINE
  8
0
 62
4
 10
-2.46822027E+01
 20
2.92307750E+01
 11
-2.36822027E+01
 21
2.82307750E+01
  0
LINE
  8
0
 62
4
 10
-5.18220271E+00
 20
3.32307750E+01
 11
-5.18220271E+00
 21
3.04307750E+01
  0
LINE
  8
0
 62
4
 10
-1.91822027E+01
 20
3.32307750E+01
 11
-1.91822027E+01
 21
3.04307750E+01
  0
LINE
  8
0
 62
4
 10
-1.91822027E+01
 20
2.69307750E+01
 11
-1.66822027E+01
 21
2.69307750E+01
  0
LINE
  8
0
 62
4
 10
-7.68220271E+00
 20
2.69307750E+01
 11
-5.18220271E+00
 21
2.69307750E+01
  0
ARC
  8
0
 62
4
 10
-1.36814112E+01
 20
3.84299835E+01
 40
1.00079180E+00
 50
9.00000002E+01
 51
1.79954687E+02
  0
ARC
  8
0
 62
4
 10
-1.06838684E+01
 20
3.84291093E+01
 40
1.00166704E+00
 50
9.52762946E-02
 51
8.99047236E+01
  0
LINE
  8
0
 62
4
 10
3.31779728E+00
 20
3.15307750E+01
 11
8.25479637E+00
 21
3.15307750E+01
  0
LINE
  8
0
 62
4
 10
3.31779728E+00
 20
2.89307750E+01
 11
5.65479637E+00
 21
2.89307750E+01
  0
LINE
  8
0
 62
4
 10
3.17797289E-01
 20
2.82307750E+01
 11
3.31779728E+00
 21
2.89307750E+01
  0
LINE
  8
0
 62
4
 10
3.17797289E-01
 20
3.22307750E+01
 11
3.31779729E+00
 21
3.15307750E+01
  0
LINE
  8
0
 62
4
 10
3.17797289E-01
 20
3.22307750E+01
 11
3.17797289E-01
 21
2.82307750E+01
  0
LINE
  8
0
 62
4
 10
3.31779729E+00
 20
3.15307750E+01
 11
3.31779729E+00
 21
2.89307750E+01
  0
LINE
  8
0
 62
6
 10
8.25479637E+00
 20
3.15307750E+01
 11
5.65479637E+00
 21
2.89307750E+01
  0
LINE
  8
0
  6
CENTER
 62
2
 10
-3.22199926E+01
 20
1.78257757E+01
 11
-2.69956744E+01
 21
1.78257757E+01
  0
LINE
  8
0
  6
CENTER
 62
2
 10
-2.96856085E+01
 20
2.04426646E+01
 11
-2.96856085E+01
 21
1.51852812E+01
  0
CIRCLE
  8
0
 62
2
 10
6.68143915E+01
 20
2.19307750E+01
 40
2.50000000E+00
  0
CIRCLE
  8
0
 62
7
 10
6.68177973E+01
 20
2.19357748E+01
 40
2.06700000E+00
  0
LINE
  8
0
  6
CENTER
 62
2
 10
6.68177973E+01
 20
2.60807750E+01
 11
6.68177973E+01
 21
1.77807750E+01
  0
LINE
  8
0
 62
7
 10
-2.66822027E+01
 20
1.64307750E+01
 11
-1.66822027E+01
 21
1.64307750E+01
  0
LINE
  8
0
 62
7
 10
-4.46822027E+01
 20
1.49307750E+01
 11
-2.66822027E+01
 21
1.49307750E+01
  0
LINE
  8
0
 62
7
 10
-4.46822027E+01
 20
2.89207750E+01
 11
-4.46822027E+01
 21
1.49307750E+01
  0
LINE
  8
0
 62
7
 10
-2.66822027E+01
 20
2.19307750E+01
 11
-2.66822027E+01
 21
1.49307750E+01
  0
LINE
  8
0
 62
7
 10
7.13177973E+01
 20
2.89207750E+01
 11
7.13177973E+01
 21
1.49307750E+01
  0
LINE
  8
0
 62
7
 10
5.73177973E+01
 20
1.49307750E+01
 11
7.13177973E+01
 21
1.49307750E+01
  0
LINE
  8
0
 62
7
 10
5.90477973E+01
 20
1.66307750E+01
 11
5.90477973E+01
 21
1.49307750E+01
  0
LINE
  8
0
 62
7
 10
6.95877973E+01
 20
1.71107750E+01
 11
6.95877973E+01
 21
1.49307750E+01
  0
LINE
  8
0
 62
7
 10
-3.08922027E+01
 20
1.75307750E+01
 11
-2.84722027E+01
 21
1.75307750E+01
  0
LINE
  8
0
 62
7
 10
-3.08922027E+01
 20
1.81307750E+01
 11
-2.84722027E+01
 21
1.81307750E+01
  0
LINE
  8
0
  6
CENTER
 62
2
 10
5.77834132E+01
 20
1.78307750E+01
 11
6.30077313E+01
 21
1.78307750E+01
  0
LINE
  8
0
 62
7
 10
5.91077973E+01
 20
1.75307750E+01
 11
6.15377973E+01
 21
1.75307750E+01
  0
LINE
  8
0
 62
7
 10
5.91077973E+01
 20
1.81307750E+01
 11
6.15377973E+01
 21
1.81307750E+01
  0
LINE
  8
0
  6
CENTER
 62
2
 10
6.03177973E+01
 20
2.04476638E+01
 11
6.03177973E+01
 21
1.51902804E+01
  0
LINE
  8
0
 62
7
 10
-2.84122027E+01
 20
1.66307750E+01
 11
-2.84122027E+01
 21
1.49307750E+01
  0
LINE
  8
0
 62
7
 10
-4.46822027E+01
 20
2.89207750E+01
 11
-2.66822027E+01
 21
2.89207750E+01
  0
LINE
  8
0
 62
7
 10
-2.66822027E+01
 20
2.74307750E+01
 11
-1.91822027E+01
 21
2.74307750E+01
  0
LINE
  8
0
 62
7
 10
-2.66822027E+01
 20
2.19307750E+01
 11
-2.66822027E+01
 21
2.89207750E+01
  0
LINE
  8
0
 62
7
 10
-2.84122027E+01
 20
2.67507750E+01
 11
-2.84122027E+01
 21
2.89207750E+01
  0
LINE
  8
0
 62
7
 10
5.73177973E+01
 20
1.49307750E+01
 11
5.73177973E+01
 21
2.89207750E+01
  0
LINE
  8
0
 62
7
 10
5.73177973E+01
 20
2.89207750E+01
 11
7.13177973E+01
 21
2.89207750E+01
  0
LINE
  8
0
 62
7
 10
5.90477973E+01
 20
2.67507750E+01
 11
5.90477973E+01
 21
2.89207750E+01
  0
LINE
  8
0
 62
7
 10
6.95877973E+01
 20
2.67507750E+01
 11
6.95877973E+01
 21
2.89207750E+01
  0
LINE
  8
0
 62
7
 10
5.90477973E+01
 20
2.67507750E+01
 11
6.95877973E+01
 21
2.67507750E+01
  0
LINE
  8
0
 62
7
 10
6.19177973E+01
 20
1.71107750E+01
 11
6.95877973E+01
 21
1.71107750E+01
  0
LINE
  8
0
 62
7
 10
-4.29524915E+01
 20
2.67507750E+01
 11
-2.84122027E+01
 21
2.67507750E+01
  0
LINE
  8
0
 62
7
 10
-4.29524915E+01
 20
1.71107750E+01
 11
-3.12722027E+01
 21
1.71107750E+01
  0
CIRCLE
  8
0
 62
7
 10
-2.96856085E+01
 20
1.78257757E+01
 40
1.75000000E+00
  0
CIRCLE
  8
0
 62
7
 10
-2.96856085E+01
 20
1.78257757E+01
 40
1.25000000E+00
  0
CIRCLE
  8
0
 62
7
 10
6.03243763E+01
 20
1.78257757E+01
 40
1.25000000E+00
  0
CIRCLE
  8
0
 62
7
 10
6.03243763E+01
 20
1.78257757E+01
 40
1.75000000E+00
  0
ARC
  8
0
 62
7
 10
-2.96842039E+01
 20
1.78322410E+01
 40
1.75200183E+00
 50
3.35322958E+02
 51
3.59952057E+02
  0
ARC
  8
0
 62
7
 10
6.37397192E+01
 20
2.19307750E+01
 40
7.57841784E+00
 50
3.20504571E+02
 51
3.59457435E+02
  0
ARC
  8
0
 62
7
 10
6.49092586E+01
 20
2.19300017E+01
 40
7.58924133E+00
 50
1.40564328E+02
 51
2.13323128E+02
  0
ARC
  8
0
 62
7
 10
-3.42705000E+01
 20
2.19301707E+01
 40
7.58669048E+00
 50
3.26662679E+02
 51
3.94498651E+01
  0
CIRCLE
  8
0
 62
7
 10
-3.71787969E+01
 20
2.19357748E+01
 40
2.06700000E+00
  0
LINE
  8
0
 62
7
 10
-4.67722027E+01
 20
2.59307750E+01
 11
-4.46774543E+01
 21
2.59307750E+01
  0
CIRCLE
  8
0
 62
2
 10
-3.71822027E+01
 20
2.19307750E+01
 40
2.50000000E+00
  0
LINE
  8
0
  6
CENTER
 62
2
 10
-3.71787969E+01
 20
2.55457748E+01
 11
-3.71787969E+01
 21
1.83257748E+01
  0
LINE
  8
0
 62
2
 10
-5.07722027E+01
 20
1.86172750E+01
 11
-5.25587027E+01
 21
1.86172750E+01
  0
LINE
  8
0
 62
2
 10
-5.07722027E+01
 20
2.52542750E+01
 11
-5.25587027E+01
 21
2.52542750E+01
  0
LINE
  8
0
 62
2
 10
-6.49022027E+01
 20
2.03197750E+01
 11
-5.76822027E+01
 21
2.03197750E+01
  0
LINE
  8
0
 62
2
 10
-6.49022027E+01
 20
2.35517750E+01
 11
-5.76822027E+01
 21
2.35517750E+01
  0
LINE
  8
0
 62
2
 10
-7.23666955E+01
 20
2.03197750E+01
 11
-6.81022027E+01
 21
2.03197750E+01
  0
LINE
  8
0
 62
2
 10
-7.23612027E+01
 20
2.35517750E+01
 11
-6.81022027E+01
 21
2.35517750E+01
  0
LINE
  8
0
 62
2
 10
-4.61822027E+01
 20
2.52542750E+01
 11
-4.67722027E+01
 21
2.52542750E+01
  0
LINE
  8
0
 62
2
 10
-4.61822027E+01
 20
1.86172750E+01
 11
-4.67722027E+01
 21
1.86172750E+01
  0
LINE
  8
0
 62
7
 10
-5.26822027E+01
 20
2.51307750E+01
 11
-5.26822027E+01
 21
1.87407750E+01
  0
LINE
  8
0
 62
7
 10
-5.18822027E+01
 20
2.59307750E+01
 11
-5.07722027E+01
 21
2.59307750E+01
  0
LINE
  8
0
 62
7
 10
-5.18822027E+01
 20
1.79407750E+01
 11
-5.07722027E+01
 21
1.79407750E+01
  0
LINE
  8
0
 62
7
 10
-5.18822027E+01
 20
2.59307750E+01
 11
-5.26822027E+01
 21
2.51307750E+01
  0
LINE
  8
0
 62
7
 10
-5.26822027E+01
 20
1.87407750E+01
 11
-5.18822027E+01
 21
1.79407750E+01
  0
LINE
  8
0
 62
7
 10
-5.18822027E+01
 20
2.59307750E+01
 11
-5.18822027E+01
 21
1.79407750E+01
  0
LINE
  8
0
 62
7
 10
-4.61822027E+01
 20
2.59307750E+01
 11
-4.61822027E+01
 21
1.79407750E+01
  0
LINE
  8
0
 62
7
 10
-7.26822027E+01
 20
2.32307750E+01
 11
-7.26822027E+01
 21
2.06307750E+01
  0
LINE
  8
0
 62
7
 10
-5.76822027E+01
 20
2.39307750E+01
 11
-5.76822027E+01
 21
1.99407750E+01
  0
LINE
  8
0
 62
7
 10
-7.19822027E+01
 20
2.39307750E+01
 11
-6.81022027E+01
 21
2.39307750E+01
  0
LINE
  8
0
 62
7
 10
-7.19822027E+01
 20
1.99407750E+01
 11
-6.81022027E+01
 21
1.99407750E+01
  0
LINE
  8
0
 62
7
 10
-7.19822027E+01
 20
2.39307750E+01
 11
-7.26822027E+01
 21
2.32307750E+01
  0
LINE
  8
0
 62
7
 10
-7.26822027E+01
 20
2.06307750E+01
 11
-7.19822027E+01
 21
1.99407750E+01
  0
LINE
  8
0
 62
7
 10
-7.19822027E+01
 20
2.39307750E+01
 11
-7.19822027E+01
 21
1.99407750E+01
  0
LINE
  8
0
  6
CENTER
 62
2
 10
-7.36822027E+01
 20
2.19307750E+01
 11
7.42499349E+01
 21
2.19307750E+01
  0
LINE
  8
0
 62
4
 10
-6.81022027E+01
 20
2.53307750E+01
 11
-6.81022027E+01
 21
1.85407750E+01
  0
LINE
  8
0
 62
4
 10
-6.49022027E+01
 20
2.53307750E+01
 11
-6.49022027E+01
 21
1.85407750E+01
  0
LINE
  8
0
 62
4
 10
-6.77322027E+01
 20
2.59707750E+01
 11
-6.52722027E+01
 21
2.59707750E+01
  0
LINE
  8
0
 62
4
 10
-6.77322027E+01
 20
1.79007750E+01
 11
-6.52722027E+01
 21
1.79007750E+01
  0
LINE
  8
0
 62
4
 10
-6.77322027E+01
 20
2.39507750E+01
 11
-6.52722027E+01
 21
2.39507750E+01
  0
LINE
  8
0
 62
4
 10
-6.77322027E+01
 20
1.99207750E+01
 11
-6.52722027E+01
 21
1.99207750E+01
  0
LINE
  8
0
 62
7
 10
-6.49022027E+01
 20
2.39307750E+01
 11
-5.26822027E+01
 21
2.39307750E+01
  0
LINE
  8
0
 62
7
 10
-6.49022027E+01
 20
1.99407750E+01
 11
-5.26822027E+01
 21
1.99407750E+01
  0
LINE
  8
0
 62
4
 10
-6.81022027E+01
 20
2.53307750E+01
 11
-6.77322027E+01
 21
2.59707750E+01
  0
LINE
  8
0
 62
4
 10
-6.52722027E+01
 20
2.59707750E+01
 11
-6.49022027E+01
 21
2.53307750E+01
  0
LINE
  8
0
 62
4
 10
-6.81022027E+01
 20
1.85407750E+01
 11
-6.77322027E+01
 21
1.79007750E+01
  0
LINE
  8
0
 62
4
 10
-6.52722027E+01
 20
1.79007750E+01
 11
-6.49022027E+01
 21
1.85407750E+01
  0
LINE
  8
0
 62
4
 10
-5.07722027E+01
 20
2.79307750E+01
 11
-5.07722027E+01
 21
1.59407750E+01
  0
LINE
  8
0
 62
4
 10
-4.67722027E+01
 20
2.79307750E+01
 11
-4.67722027E+01
 21
1.59407750E+01
  0
LINE
  8
0
 62
4
 10
-5.02422027E+01
 20
2.53907750E+01
 11
-4.73122027E+01
 21
2.53907750E+01
  0
LINE
  8
0
 62
4
 10
-5.02422027E+01
 20
1.84807750E+01
 11
-4.73122027E+01
 21
1.84807750E+01
  0
LINE
  8
0
 62
4
 10
-5.02422027E+01
 20
1.50107750E+01
 11
-4.73122027E+01
 21
1.50107750E+01
  0
LINE
  8
0
 62
4
 10
-5.02422027E+01
 20
2.88607750E+01
 11
-4.73122027E+01
 21
2.88607750E+01
  0
LINE
  8
0
 62
4
 10
-5.07722027E+01
 20
2.79307750E+01
 11
-5.02422027E+01
 21
2.88607750E+01
  0
LINE
  8
0
 62
7
 10
-4.67722027E+01
 20
1.79407750E+01
 11
-4.46774543E+01
 21
1.79407750E+01
  0
LINE
  8
0
 62
4
 10
-4.67722027E+01
 20
2.79307750E+01
 11
-4.73122027E+01
 21
2.88607750E+01
  0
LINE
  8
0
 62
4
 10
-5.07722027E+01
 20
1.59407750E+01
 11
-5.02422027E+01
 21
1.50107750E+01
  0
LINE
  8
0
 62
4
 10
-4.67722027E+01
 20
1.59407750E+01
 11
-4.73122027E+01
 21
1.50107750E+01
  0
ARC
  8
0
 62
4
 10
-6.65455237E+01
 20
2.49607750E+01
 40
1.55830260E+00
 50
1.39598403E+02
 51
2.20401597E+02
  0
ARC
  8
0
 62
4
 10
-6.24108435E+01
 20
2.19357750E+01
 40
5.69008693E+00
 50
1.59260195E+02
 51
2.00739805E+02
  0
ARC
  8
0
 62
4
 10
-7.06070257E+01
 20
2.19357750E+01
 40
5.70268020E+00
 50
3.39308098E+02
 51
2.06919019E+01
  0
ARC
  8
0
 62
4
 10
-6.64723454E+01
 20
2.49607750E+01
 40
1.56857978E+00
 50
3.19917156E+02
 51
4.00828446E+01
  0
ARC
  8
0
 62
4
 10
-6.65455237E+01
 20
1.89107750E+01
 40
1.55830260E+00
 50
1.39598403E+02
 51
2.20401597E+02
  0
ARC
  8
0
 62
4
 10
-6.64723454E+01
 20
1.89107750E+01
 40
1.56857978E+00
 50
3.19917156E+02
 51
4.00828446E+01
  0
ARC
  8
0
 62
4
 10
-4.77147019E+01
 20
2.71257750E+01
 40
3.06569493E+00
 50
1.45532394E+02
 51
2.14467606E+02
  0
ARC
  8
0
 62
4
 10
-3.93175817E+01
 20
2.19357750E+01
 40
1.14579391E+01
 50
1.62450019E+02
 51
1.97549981E+02
  0
ARC
  8
0
 62
4
 10
-4.77147019E+01
 20
1.67457750E+01
 40
3.06569493E+00
 50
1.45532394E+02
 51
2.14467606E+02
  0
ARC
  8
0
 62
4
 10
-4.98486842E+01
 20
2.71257750E+01
 40
3.07310324E+00
 50
3.25627155E+02
 51
3.43728456E+01
  0
ARC
  8
0
 62
4
 10
-5.82457891E+01
 20
2.19357750E+01
 40
1.14664876E+01
 50
3.42463527E+02
 51
1.75364728E+01
  0
ARC
  8
0
 62
4
 10
-4.98486842E+01
 20
1.67457750E+01
 40
3.07310324E+00
 50
3.25627155E+02
 51
3.43728456E+01
  0
LINE
  8
0
  6
PHANTOM
 10
1.38127973E+01
 20
7.74760137E+00
 11
1.38127973E+01
 21
4.19407750E+01
  0
LINE
  8
0
 62
7
 10
-4.29524915E+01
 20
2.67507750E+01
 11
-4.29524915E+01
 21
2.89207750E+01
  0
LINE
  8
0
 62
7
 10
-4.29524915E+01
 20
1.71107750E+01
 11
-4.29524915E+01
 21
1.49307750E+01
  0
ARC
  8
0
 62
7
 10
-3.71016596E+01
 20
2.19307750E+01
 40
7.58054308E+00
 50
1.40517809E+02
 51
2.19482191E+02
  0
LINE
  8
0
 62
7
 10
7.13177973E+01
 20
2.32307750E+01
 11
7.13177973E+01
 21
2.06307750E+01
  0
LINE
  8
0
  6
CENTER
 62
2
 10
-9.65874543E+01
 20
4.07491994E+01
 11
-9.65874543E+01
 21
1.31942548E+01
  0
LINE
  8
0
 62
4
 10
-9.53274543E+01
 20
2.89207750E+01
 11
-9.55374543E+01
 21
2.91307750E+01
  0
LINE
  8
0
 62
4
 10
-9.78474543E+01
 20
2.89207750E+01
 11
-9.76374543E+01
 21
2.91307750E+01
  0
LINE
  8
0
 62
4
 10
-9.45374543E+01
 20
3.22307750E+01
 11
-9.55374543E+01
 21
3.12307750E+01
  0
LINE
  8
0
 62
4
 10
-9.86374543E+01
 20
3.22307750E+01
 11
-9.76374543E+01
 21
3.12307750E+01
  0
LINE
  8
0
 62
4
 10
-9.55374543E+01
 20
2.91307750E+01
 11
-9.76374543E+01
 21
2.91307750E+01
  0
LINE
  8
0
 62
4
 10
-9.55374543E+01
 20
3.12307750E+01
 11
-9.55374543E+01
 21
2.91307750E+01
  0
LINE
  8
0
 62
4
 10
-9.55374543E+01
 20
3.12307750E+01
 11
-9.76374543E+01
 21
3.12307750E+01
  0
LINE
  8
0
 62
4
 10
-9.76374543E+01
 20
3.12307750E+01
 11
-9.76374543E+01
 21
2.91307750E+01
  0
LINE
  8
0
 62
4
 10
-9.50874543E+01
 20
3.42307750E+01
 11
-9.53874543E+01
 21
3.39307750E+01
  0
LINE
  8
0
 62
4
 10
-9.80874543E+01
 20
3.42307750E+01
 11
-9.77874543E+01
 21
3.39307750E+01
  0
LINE
  8
0
 62
4
 10
-1.00937001E+02
 20
3.55647294E+01
 11
-1.01434649E+02
 21
3.56131715E+01
  0
LINE
  8
0
 62
4
 10
-1.01434649E+02
 20
3.56131715E+01
 11
-1.02141009E+02
 21
2.83567076E+01
  0
LINE
  8
0
 62
4
 10
-1.01417454E+02
 20
2.90807750E+01
 11
-1.01566749E+02
 21
2.90953076E+01
  0
LINE
  8
0
 62
4
 10
-1.00937001E+02
 20
3.55647294E+01
 11
-1.01596744E+02
 21
2.87871597E+01
  0
LINE
  8
0
 62
4
 10
-1.01417454E+02
 20
2.90807750E+01
 11
-1.01434866E+02
 21
2.89019014E+01
  0
LINE
  8
0
 62
4
 10
-9.30874543E+01
 20
3.04307750E+01
 11
-9.26674010E+01
 21
2.89207750E+01
  0
LINE
  8
0
 62
4
 10
-9.32374543E+01
 20
3.04307750E+01
 11
-9.28186247E+01
 21
2.89207750E+01
  0
LINE
  8
0
 62
4
 10
-9.98374543E+01
 20
3.39307750E+01
 11
-9.98374543E+01
 21
2.89207750E+01
  0
LINE
  8
0
 62
4
 10
-9.33374543E+01
 20
3.39307750E+01
 11
-9.33374543E+01
 21
3.04307750E+01
  0
LINE
  8
0
 62
4
 10
-9.33374543E+01
 20
3.39307750E+01
 11
-9.98374543E+01
 21
3.39307750E+01
  0
LINE
  8
0
 62
4
 10
-9.86374543E+01
 20
3.22307750E+01
 11
-9.86374543E+01
 21
2.89207750E+01
  0
LINE
  8
0
 62
4
 10
-9.45374543E+01
 20
3.22307750E+01
 11
-9.86374543E+01
 21
3.22307750E+01
  0
LINE
  8
0
 62
4
 10
-9.55874543E+01
 20
3.25307750E+01
 11
-9.55874543E+01
 21
3.22307750E+01
  0
LINE
  8
0
 62
4
 10
-9.75874543E+01
 20
3.25307750E+01
 11
-9.75874543E+01
 21
3.22307750E+01
  0
LINE
  8
0
 62
4
 10
-9.55874543E+01
 20
3.25307750E+01
 11
-9.75874543E+01
 21
3.25307750E+01
  0
LINE
  8
0
 62
4
 10
-9.33374543E+01
 20
3.32307750E+01
 11
-9.98374543E+01
 21
3.32307750E+01
  0
LINE
  8
0
 62
4
 10
-9.33374543E+01
 20
3.00307750E+01
 11
-9.45374543E+01
 21
3.00307750E+01
  0
LINE
  8
0
 62
4
 10
-9.33374543E+01
 20
3.04307750E+01
 11
-9.45374543E+01
 21
3.04307750E+01
  0
LINE
  8
0
 62
4
 10
-9.33374543E+01
 20
3.00307750E+01
 11
-9.33374543E+01
 21
2.89207750E+01
  0
LINE
  8
0
 62
4
 10
-9.45374543E+01
 20
3.22307750E+01
 11
-9.45374543E+01
 21
2.89207750E+01
  0
LINE
  8
0
 62
4
 10
-1.00087454E+02
 20
3.56307750E+01
 11
-1.00087454E+02
 21
2.97307750E+01
  0
LINE
  8
0
 62
4
 10
-9.30874543E+01
 20
3.56307750E+01
 11
-9.30874543E+01
 21
3.04307750E+01
  0
LINE
  8
0
 62
4
 10
-9.40874543E+01
 20
3.79307750E+01
 11
-9.90874543E+01
 21
3.79307750E+01
  0
LINE
  8
0
 62
4
 10
-9.30874543E+01
 20
3.69307750E+01
 11
-1.00087454E+02
 21
3.69307750E+01
  0
LINE
  8
0
 62
4
 10
-9.45874543E+01
 20
3.54307750E+01
 11
-9.85874543E+01
 21
3.54307750E+01
  0
LINE
  8
0
 62
4
 10
-9.35874543E+01
 20
3.61307750E+01
 11
-9.95874543E+01
 21
3.61307750E+01
  0
LINE
  8
0
 62
4
 10
-1.00887454E+02
 20
3.61307750E+01
 11
-1.00887454E+02
 21
2.97307750E+01
  0
LINE
  8
0
 62
4
 10
-9.22874543E+01
 20
3.61307750E+01
 11
-9.22874543E+01
 21
3.04307750E+01
  0
LINE
  8
0
 62
4
 10
-9.86474543E+01
 20
3.61307750E+01
 11
-9.85874543E+01
 21
3.54307750E+01
  0
LINE
  8
0
 62
4
 10
-9.45274543E+01
 20
3.61307750E+01
 11
-9.45874543E+01
 21
3.54307750E+01
  0
LINE
  8
0
 62
4
 10
-9.22874543E+01
 20
3.04307750E+01
 11
-9.30874543E+01
 21
3.04307750E+01
  0
LINE
  8
0
 62
4
 10
-1.00087454E+02
 20
2.97307750E+01
 11
-1.00887454E+02
 21
2.97307750E+01
  0
LINE
  8
0
 62
4
 10
-1.00887454E+02
 20
3.19307750E+01
 11
-1.01269069E+02
 21
3.21533836E+01
  0
LINE
  8
0
 62
4
 10
-1.02487454E+02
 20
3.52307750E+01
 11
-1.02487454E+02
 21
3.28607750E+01
  0
LINE
  8
0
 62
4
 10
-1.01687454E+02
 20
3.52307750E+01
 11
-1.02487454E+02
 21
3.52307750E+01
  0
LINE
  8
0
 62
4
 10
-1.01687454E+02
 20
3.52307750E+01
 11
-1.01687454E+02
 21
3.33207750E+01
  0
LINE
  8
0
 62
4
 10
-1.00887454E+02
 20
3.28607750E+01
 11
-1.01184164E+02
 21
3.30256139E+01
  0
LINE
  8
0
 62
4
 10
-9.32374543E+01
 20
3.56307750E+01
 11
-9.32374543E+01
 21
3.04307750E+01
  0
LINE
  8
0
 62
4
 10
-9.30874543E+01
 20
3.56307750E+01
 11
-9.32374543E+01
 21
3.56307750E+01
  0
LINE
  8
0
 62
4
 10
-1.01659603E+02
 20
3.33022077E+01
 11
-1.01687454E+02
 21
3.33207750E+01
  0
LINE
  8
0
 62
4
 10
-1.01745346E+02
 20
3.24213688E+01
 11
-1.02487454E+02
 21
3.28607750E+01
  0
LINE
  8
0
 62
4
 10
-9.50874543E+01
 20
3.79307750E+01
 11
-9.50874543E+01
 21
3.69307750E+01
  0
LINE
  8
0
 62
4
 10
-9.80874543E+01
 20
3.79307750E+01
 11
-9.80874543E+01
 21
3.69307750E+01
  0
LINE
  8
0
 62
6
 10
-9.78174543E+01
 20
3.79307750E+01
 11
-9.78174543E+01
 21
3.69307750E+01
  0
LINE
  8
0
 62
6
 10
-9.53574543E+01
 20
3.79307750E+01
 11
-9.53574543E+01
 21
3.69307750E+01
  0
LINE
  8
0
 62
4
 10
-9.90874543E+01
 20
3.84307750E+01
 11
-9.90874543E+01
 21
3.79307750E+01
  0
LINE
  8
0
 62
4
 10
-9.40874543E+01
 20
3.84307750E+01
 11
-9.40874543E+01
 21
3.79307750E+01
  0
LINE
  8
0
 62
4
 10
-9.50874543E+01
 20
3.94307750E+01
 11
-9.80874543E+01
 21
3.94307750E+01
  0
LINE
  8
0
 62
4
 10
-9.50874543E+01
 20
3.54307750E+01
 11
-9.50874543E+01
 21
3.42307750E+01
  0
LINE
  8
0
 62
6
 10
-9.53574543E+01
 20
3.54307750E+01
 11
-9.53574543E+01
 21
3.39607750E+01
  0
LINE
  8
0
 62
6
 10
-9.78174543E+01
 20
3.54307750E+01
 11
-9.78174543E+01
 21
3.39607750E+01
  0
LINE
  8
0
 62
4
 10
-9.80874543E+01
 20
3.54307750E+01
 11
-9.80874543E+01
 21
3.42307750E+01
  0
ARC
  8
0
 62
4
 10
-9.35876144E+01
 20
3.56306148E+01
 40
5.00160181E-01
 50
1.83465799E-02
 51
9.00000002E+01
  0
ARC
  8
0
 62
4
 10
-9.95950795E+01
 20
3.56384002E+01
 40
4.92433852E-01
 50
8.91127567E+01
 51
1.80887243E+02
  0
ARC
  8
0
 62
4
 10
-9.30875926E+01
 20
3.61306366E+01
 40
8.00138358E-01
 50
9.90662024E-03
 51
9.00000002E+01
  0
ARC
  8
0
 62
4
 10
-1.00095079E+02
 20
3.61384002E+01
 40
7.92411497E-01
 50
8.94486475E+01
 51
1.80551352E+02
  0
ARC
  8
0
 62
4
 10
-9.50875838E+01
 20
3.84306454E+01
 40
1.00012957E+00
 50
7.42247612E-03
 51
9.00000002E+01
  0
ARC
  8
0
 62
4
 10
-9.80950810E+01
 20
3.84384017E+01
 40
9.92402587E-01
 50
8.95596718E+01
 51
1.80440329E+02
  0
ARC
  8
0
 62
7
 10
-9.65934746E+01
 20
2.19247546E+01
 40
8.49059197E+00
 50
2.14539767E+02
 51
2.35460233E+02
  0
LINE
  8
0
 62
7
 10
-1.01407454E+02
 20
1.49307750E+01
 11
-9.17674543E+01
 21
1.49307750E+01
  0
ARC
  8
0
 62
7
 10
-9.65884778E+01
 20
2.19317985E+01
 40
8.50038818E+00
 50
3.04551957E+02
 51
3.25448043E+02
  0
LINE
  8
0
 62
7
 10
-8.95874543E+01
 20
2.67507750E+01
 11
-8.95874543E+01
 21
1.71107750E+01
  0
ARC
  8
0
 62
7
 10
-9.65773650E+01
 20
2.19086757E+01
 40
8.50322162E+00
 50
3.47113875E+01
 51
5.55520409E+01
  0
LINE
  8
0
 62
7
 10
-1.03587454E+02
 20
2.67507750E+01
 11
-1.03587454E+02
 21
1.71107750E+01
  0
LINE
  8
0
 62
7
 10
-1.01407454E+02
 20
2.89207750E+01
 11
-9.17674543E+01
 21
2.89207750E+01
  0
ARC
  8
0
 62
7
 10
-9.66045678E+01
 20
2.19157323E+01
 40
8.49342928E+00
 50
1.24435810E+02
 51
1.45300761E+02
  0
LINE
  8
0
 62
4
 10
-1.02587454E+02
 20
2.53907750E+01
 11
-1.02587454E+02
 21
1.84807750E+01
  0
LINE
  8
0
 62
4
 10
-9.05874543E+01
 20
2.53907750E+01
 11
-9.05874543E+01
 21
1.84807750E+01
  0
CIRCLE
  8
0
 62
2
 10
-9.65874543E+01
 20
2.19307750E+01
 40
1.62100000E+00
  0
LINE
  8
0
  6
CENTER
 62
2
 10
-1.04997244E+02
 20
2.19307750E+01
 11
-8.82731452E+01
 21
2.19307750E+01
  0
LINE
  8
0
 62
4
 10
-9.65874543E+01
 20
2.59707750E+01
 11
-1.00087454E+02
 21
2.39507750E+01
  0
LINE
  8
0
 62
4
 10
-1.00087454E+02
 20
2.39507750E+01
 11
-1.00087454E+02
 21
1.99207750E+01
  0
LINE
  8
0
 62
4
 10
-1.00087454E+02
 20
1.99207750E+01
 11
-9.65874543E+01
 21
1.79007750E+01
  0
LINE
  8
0
 62
4
 10
-9.65874543E+01
 20
1.79007750E+01
 11
-9.30874543E+01
 21
1.99207750E+01
  0
LINE
  8
0
 62
4
 10
-9.30874543E+01
 20
1.99207750E+01
 11
-9.30874543E+01
 21
2.39507750E+01
  0
LINE
  8
0
 62
4
 10
-9.30874543E+01
 20
2.39507750E+01
 11
-9.65874543E+01
 21
2.59707750E+01
  0
LINE
  8
0
 62
4
 10
-9.65874543E+01
 20
2.88607750E+01
 11
-1.02587454E+02
 21
2.53907750E+01
  0
LINE
  8
0
 62
4
 10
-1.02587454E+02
 20
1.84807750E+01
 11
-9.65874543E+01
 21
1.50107750E+01
  0
LINE
  8
0
 62
4
 10
-9.65874543E+01
 20
1.50107750E+01
 11
-9.05874543E+01
 21
1.84807750E+01
  0
LINE
  8
0
 62
4
 10
-9.05874543E+01
 20
2.53907750E+01
 11
-9.65874543E+01
 21
2.88607750E+01
  0
CIRCLE
  8
0
 62
7
 10
-9.65944953E+01
 20
2.19357761E+01
 40
2.00000000E+00
  0
CIRCLE
  8
0
 62
4
 10
-9.65944953E+01
 20
2.19357761E+01
 40
3.50000000E+00
  0
ARC
  8
0
 62
7
 10
-9.65944953E+01
 20
2.19357750E+01
 40
3.99311751E+00
 50
1.51014793E+02
 51
2.08985207E+02
  0
ARC
  8
0
 62
7
 10
-9.65916245E+01
 20
2.19341150E+01
 40
3.99405996E+00
 50
2.10937213E+02
 51
2.68912138E+02
  0
ARC
  8
0
 62
7
 10
-9.65943086E+01
 20
2.19358842E+01
 40
3.99584842E+00
 50
2.71102069E+02
 51
3.29048580E+02
  0
ARC
  8
0
 62
7
 10
-9.65944953E+01
 20
2.19357750E+01
 40
4.00544151E+00
 50
3.31112406E+02
 51
2.88875940E+01
  0
ARC
  8
0
 62
7
 10
-9.65943076E+01
 20
2.19356674E+01
 40
3.99584669E+00
 50
3.09514064E+01
 51
8.88979451E+01
  0
ARC
  8
0
 62
7
 10
-9.65916255E+01
 20
2.19374366E+01
 40
3.99405823E+00
 50
9.10878482E+01
 51
1.49062800E+02
  0
CIRCLE
  8
0
 62
4
 10
-9.65944953E+01
 20
2.19357761E+01
 40
6.00000000E+00
  0
CIRCLE
  8
0
 62
7
 10
-9.65874543E+01
 20
2.19307750E+01
 40
7.00000000E+00
  0
LINE
  8
0
 62
4
 10
1.03912546E+02
 20
3.42307750E+01
 11
1.04212546E+02
 21
3.39307750E+01
  0
LINE
  8
0
 62
4
 10
1.06912546E+02
 20
3.42307750E+01
 11
1.06612546E+02
 21
3.39307750E+01
  0
LINE
  8
0
 62
4
 10
1.09762093E+02
 20
3.55647294E+01
 11
1.10259741E+02
 21
3.56131715E+01
  0
LINE
  8
0
 62
4
 10
1.10259741E+02
 20
3.56131715E+01
 11
1.10966120E+02
 21
2.83565091E+01
  0
LINE
  8
0
 62
4
 10
1.10242546E+02
 20
2.90807750E+01
 11
1.10391840E+02
 21
2.90953076E+01
  0
LINE
  8
0
 62
4
 10
1.09762093E+02
 20
3.55647294E+01
 11
1.10421842E+02
 21
2.87870992E+01
  0
LINE
  8
0
 62
4
 10
1.10242546E+02
 20
2.90807750E+01
 11
1.10259959E+02
 21
2.89018923E+01
  0
LINE
  8
0
 62
4
 10
1.01912546E+02
 20
3.04307750E+01
 11
1.01492492E+02
 21
2.89207750E+01
  0
LINE
  8
0
 62
4
 10
1.02062546E+02
 20
3.04307750E+01
 11
1.01643716E+02
 21
2.89207750E+01
  0
CIRCLE
  8
0
 62
4
 10
1.05412546E+02
 20
3.02307750E+01
 40
1.30000000E+00
  0
LINE
  8
0
 62
4
 10
1.08662546E+02
 20
3.39307750E+01
 11
1.08662546E+02
 21
2.89207750E+01
  0
LINE
  8
0
 62
4
 10
1.02162546E+02
 20
3.39307750E+01
 11
1.02162546E+02
 21
3.04307750E+01
  0
LINE
  8
0
 62
4
 10
1.02162546E+02
 20
3.39307750E+01
 11
1.08662546E+02
 21
3.39307750E+01
  0
LINE
  8
0
 62
4
 10
1.07462546E+02
 20
3.22307750E+01
 11
1.07462546E+02
 21
2.89207750E+01
  0
LINE
  8
0
 62
4
 10
1.03362546E+02
 20
3.22307750E+01
 11
1.07462546E+02
 21
3.22307750E+01
  0
LINE
  8
0
 62
4
 10
1.04412546E+02
 20
3.25307750E+01
 11
1.04412546E+02
 21
3.22307750E+01
  0
LINE
  8
0
 62
4
 10
1.06412546E+02
 20
3.25307750E+01
 11
1.06412546E+02
 21
3.22307750E+01
  0
LINE
  8
0
 62
4
 10
1.04412546E+02
 20
3.25307750E+01
 11
1.06412546E+02
 21
3.25307750E+01
  0
LINE
  8
0
 62
4
 10
1.02162546E+02
 20
3.32307750E+01
 11
1.08662546E+02
 21
3.32307750E+01
  0
LINE
  8
0
 62
4
 10
1.02162546E+02
 20
3.00307750E+01
 11
1.03362546E+02
 21
3.00307750E+01
  0
LINE
  8
0
 62
4
 10
1.02162546E+02
 20
3.04307750E+01
 11
1.03362546E+02
 21
3.04307750E+01
  0
LINE
  8
0
 62
4
 10
1.02162546E+02
 20
3.00307750E+01
 11
1.02162546E+02
 21
2.89207750E+01
  0
LINE
  8
0
 62
4
 10
1.03362546E+02
 20
3.22307750E+01
 11
1.03362546E+02
 21
2.89207750E+01
  0
LINE
  8
0
 62
4
 10
1.08912546E+02
 20
3.56307750E+01
 11
1.08912546E+02
 21
2.97307750E+01
  0
LINE
  8
0
 62
4
 10
1.01912546E+02
 20
3.56307750E+01
 11
1.01912546E+02
 21
3.04307750E+01
  0
LINE
  8
0
 62
4
 10
1.02912546E+02
 20
3.79307750E+01
 11
1.07912546E+02
 21
3.79307750E+01
  0
LINE
  8
0
 62
4
 10
1.01912546E+02
 20
3.69307750E+01
 11
1.08912546E+02
 21
3.69307750E+01
  0
LINE
  8
0
 62
4
 10
1.03412546E+02
 20
3.54307750E+01
 11
1.07412546E+02
 21
3.54307750E+01
  0
LINE
  8
0
 62
4
 10
1.02412546E+02
 20
3.61307750E+01
 11
1.08412546E+02
 21
3.61307750E+01
  0
LINE
  8
0
 62
4
 10
1.09712546E+02
 20
3.61307750E+01
 11
1.09712546E+02
 21
2.97307750E+01
  0
LINE
  8
0
 62
4
 10
1.01112546E+02
 20
3.61307750E+01
 11
1.01112546E+02
 21
3.04307750E+01
  0
LINE
  8
0
 62
4
 10
1.07472546E+02
 20
3.61307750E+01
 11
1.07412546E+02
 21
3.54307750E+01
  0
LINE
  8
0
 62
4
 10
1.03352546E+02
 20
3.61307750E+01
 11
1.03412546E+02
 21
3.54307750E+01
  0
LINE
  8
0
 62
4
 10
1.01112546E+02
 20
3.04307750E+01
 11
1.01912546E+02
 21
3.04307750E+01
  0
LINE
  8
0
 62
4
 10
1.08912546E+02
 20
2.97307750E+01
 11
1.09712546E+02
 21
2.97307750E+01
  0
LINE
  8
0
 62
4
 10
1.09712546E+02
 20
3.19307750E+01
 11
1.10094160E+02
 21
3.21533836E+01
  0
LINE
  8
0
 62
4
 10
1.11312546E+02
 20
3.52307750E+01
 11
1.11312546E+02
 21
3.28607750E+01
  0
LINE
  8
0
 62
4
 10
1.10512546E+02
 20
3.52307750E+01
 11
1.11312546E+02
 21
3.52307750E+01
  0
LINE
  8
0
 62
4
 10
1.10512546E+02
 20
3.52307750E+01
 11
1.10512546E+02
 21
3.33207750E+01
  0
LINE
  8
0
 62
4
 10
1.09712546E+02
 20
3.28607750E+01
 11
1.10009256E+02
 21
3.30256139E+01
  0
LINE
  8
0
 62
4
 10
1.02062546E+02
 20
3.56307750E+01
 11
1.02062546E+02
 21
3.04307750E+01
  0
LINE
  8
0
 62
4
 10
1.01912546E+02
 20
3.56307750E+01
 11
1.02062546E+02
 21
3.56307750E+01
  0
LINE
  8
0
 62
4
 10
1.10484695E+02
 20
3.33022077E+01
 11
1.10512546E+02
 21
3.33207750E+01
  0
LINE
  8
0
 62
4
 10
1.10570438E+02
 20
3.24213688E+01
 11
1.11312546E+02
 21
3.28607750E+01
  0
LINE
  8
0
 62
4
 10
1.03912546E+02
 20
3.79307750E+01
 11
1.03912546E+02
 21
3.69307750E+01
  0
LINE
  8
0
 62
4
 10
1.06912546E+02
 20
3.79307750E+01
 11
1.06912546E+02
 21
3.69307750E+01
  0
LINE
  8
0
 62
6
 10
1.06642546E+02
 20
3.79307750E+01
 11
1.06642546E+02
 21
3.69307750E+01
  0
LINE
  8
0
 62
6
 10
1.04182546E+02
 20
3.79307750E+01
 11
1.04182546E+02
 21
3.69307750E+01
  0
LINE
  8
0
 62
4
 10
1.07912546E+02
 20
3.84307750E+01
 11
1.07912546E+02
 21
3.79307750E+01
  0
LINE
  8
0
 62
4
 10
1.02912546E+02
 20
3.84307750E+01
 11
1.02912546E+02
 21
3.79307750E+01
  0
LINE
  8
0
 62
4
 10
1.03912546E+02
 20
3.94307750E+01
 11
1.06912546E+02
 21
3.94307750E+01
  0
LINE
  8
0
 62
4
 10
1.03912546E+02
 20
3.54307750E+01
 11
1.03912546E+02
 21
3.42307750E+01
  0
LINE
  8
0
 62
6
 10
1.04182546E+02
 20
3.54307750E+01
 11
1.04182546E+02
 21
3.39607750E+01
  0
LINE
  8
0
 62
6
 10
1.06642546E+02
 20
3.54307750E+01
 11
1.06642546E+02
 21
3.39607750E+01
  0
LINE
  8
0
 62
4
 10
1.06912546E+02
 20
3.54307750E+01
 11
1.06912546E+02
 21
3.42307750E+01
  0
LINE
  8
0
 62
4
 10
1.04112546E+02
 20
2.89307750E+01
 11
1.06712546E+02
 21
2.89307750E+01
  0
LINE
  8
0
 62
4
 10
1.04112546E+02
 20
3.15307750E+01
 11
1.06712546E+02
 21
3.15307750E+01
  0
LINE
  8
0
 62
4
 10
1.06712546E+02
 20
3.15307750E+01
 11
1.06712546E+02
 21
2.89307750E+01
  0
LINE
  8
0
 62
4
 10
1.04112546E+02
 20
3.15307750E+01
 11
1.04112546E+02
 21
2.89307750E+01
  0
LINE
  8
0
 62
4
 10
1.03362546E+02
 20
3.22307750E+01
 11
1.04112546E+02
 21
3.15307750E+01
  0
LINE
  8
0
 62
4
 10
1.06712546E+02
 20
3.15307750E+01
 11
1.07462546E+02
 21
3.22307750E+01
  0
ARC
  8
0
 62
4
 10
1.02412706E+02
 20
3.56306148E+01
 40
5.00160181E-01
 50
9.00000002E+01
 51
1.79981654E+02
  0
ARC
  8
0
 62
4
 10
1.08420171E+02
 20
3.56384002E+01
 40
4.92433852E-01
 50
3.59112757E+02
 51
9.08872431E+01
  0
ARC
  8
0
 62
4
 10
1.01912684E+02
 20
3.61306366E+01
 40
8.00138358E-01
 50
9.00000002E+01
 51
1.79990093E+02
  0
ARC
  8
0
 62
4
 10
1.08920171E+02
 20
3.61384002E+01
 40
7.92411497E-01
 50
3.59448647E+02
 51
9.05513523E+01
  0
ARC
  8
0
 62
4
 10
1.03912675E+02
 20
3.84306454E+01
 40
1.00012957E+00
 50
9.00000002E+01
 51
1.79992578E+02
  0
ARC
  8
0
 62
4
 10
1.06920172E+02
 20
3.84384017E+01
 40
9.92402587E-01
 50
3.59559672E+02
 51
9.04403286E+01
  0
LINE
  8
0
  6
CENTER
 62
2
 10
1.05412546E+02
 20
4.08290611E+01
 11
1.05412546E+02
 21
1.32031779E+01
  0
LINE
  8
0
  6
CENTER
 62
2
 10
9.65012950E+01
 20
2.19307750E+01
 11
1.13767472E+02
 21
2.19307750E+01
  0
ARC
  8
0
 62
7
 10
1.05395432E+02
 20
2.19157323E+01
 40
8.49342928E+00
 50
1.24435810E+02
 51
1.45300761E+02
  0
LINE
  8
0
 62
7
 10
1.00592546E+02
 20
2.89207750E+01
 11
1.10232546E+02
 21
2.89207750E+01
  0
LINE
  8
0
 62
7
 10
9.84125457E+01
 20
2.67507750E+01
 11
9.84125457E+01
 21
1.71107750E+01
  0
ARC
  8
0
 62
7
 10
1.05422635E+02
 20
2.19086757E+01
 40
8.50322162E+00
 50
3.47113875E+01
 51
5.55520409E+01
  0
LINE
  8
0
 62
7
 10
1.12412546E+02
 20
2.67507750E+01
 11
1.12412546E+02
 21
1.71107750E+01
  0
ARC
  8
0
 62
7
 10
1.05411522E+02
 20
2.19317985E+01
 40
8.50038818E+00
 50
3.04551957E+02
 51
3.25448043E+02
  0
LINE
  8
0
 62
7
 10
1.00592546E+02
 20
1.49307750E+01
 11
1.10232546E+02
 21
1.49307750E+01
  0
ARC
  8
0
 62
7
 10
1.05406525E+02
 20
2.19247546E+01
 40
8.49059197E+00
 50
2.14539767E+02
 51
2.35460233E+02
  0
CIRCLE
  8
0
 62
7
 10
1.05412546E+02
 20
2.19307750E+01
 40
7.00000000E+00
  0
LINE
  8
0
  6
CENTER
 62
6
 10
-1.21822027E+01
 20
7.66607750E+01
 11
-1.21822027E+01
 21
6.19407750E+01
  0
LINE
  8
0
 62
4
 10
-1.41822027E+01
 20
7.42079699E+01
 11
-1.41822027E+01
 21
7.52252539E+01
  0
LINE
  8
0
 62
4
 10
-1.66822027E+01
 20
7.52252539E+01
 11
-7.68220269E+00
 21
7.52252539E+01
  0
LINE
  8
0
 62
4
 10
-1.41822027E+01
 20
7.44607750E+01
 11
-1.01822027E+01
 21
7.44607750E+01
  0
CIRCLE
  8
0
 62
4
 10
-1.21830780E+01
 20
6.93583165E+01
 40
2.50000000E+00
  0
LINE
  8
0
 62
4
 10
-5.18220271E+00
 20
6.73607750E+01
 11
3.17797289E-01
 21
6.73607750E+01
  0
LINE
  8
0
 62
4
 10
-5.18220271E+00
 20
7.13607750E+01
 11
3.17797289E-01
 21
7.13607750E+01
  0
LINE
  8
0
 62
4
 10
-7.68220271E+00
 20
6.61107750E+01
 11
-5.18220271E+00
 21
6.61107750E+01
  0
LINE
  8
0
 62
4
 10
-7.68220271E+00
 20
7.26107750E+01
 11
-5.18220271E+00
 21
7.26107750E+01
  0
LINE
  8
0
 62
4
 10
-5.18220271E+00
 20
6.61107750E+01
 11
-5.18220271E+00
 21
7.26107750E+01
  0
LINE
  8
0
 62
4
 10
-1.91822027E+01
 20
7.26107750E+01
 11
-1.66822027E+01
 21
7.26107750E+01
  0
LINE
  8
0
 62
4
 10
-1.91822027E+01
 20
6.61107750E+01
 11
-1.66822027E+01
 21
6.61107750E+01
  0
LINE
  8
0
 62
4
 10
-2.46822027E+01
 20
6.83607750E+01
 11
-2.36822027E+01
 21
6.73607750E+01
  0
LINE
  8
0
 62
4
 10
-2.46822027E+01
 20
7.03607750E+01
 11
-2.36822027E+01
 21
7.13607750E+01
  0
LINE
  8
0
 62
4
 10
-2.36822027E+01
 20
7.13607750E+01
 11
-2.36822027E+01
 21
6.73607750E+01
  0
LINE
  8
0
 62
4
 10
-2.36822027E+01
 20
7.13607750E+01
 11
-1.91822027E+01
 21
7.13607750E+01
  0
LINE
  8
0
 62
4
 10
-2.36822027E+01
 20
6.73607750E+01
 11
-1.91822027E+01
 21
6.73607750E+01
  0
LINE
  8
0
 62
4
 10
-2.46822027E+01
 20
7.03607750E+01
 11
-2.46822027E+01
 21
6.83607750E+01
  0
LINE
  8
0
 62
4
 10
3.17797289E-01
 20
7.13607750E+01
 11
3.17797289E-01
 21
6.73607750E+01
  0
LINE
  8
0
 62
4
 10
-1.11747693E+01
 20
6.83582084E+01
 11
-1.32447693E+01
 21
7.04182084E+01
  0
LINE
  8
0
 62
4
 10
-1.32447693E+01
 20
6.82982084E+01
 11
-1.11247693E+01
 21
7.04182084E+01
  0
LINE
  8
0
 62
4
 10
-1.10722027E+01
 20
6.82607750E+01
 11
-1.11222027E+01
 21
6.83007750E+01
  0
LINE
  8
0
 62
4
 10
-1.66822027E+01
 20
6.37107750E+01
 11
-7.68220271E+00
 21
6.37107750E+01
  0
LINE
  8
0
 62
4
 10
-1.91822027E+01
 20
6.61107750E+01
 11
-1.91822027E+01
 21
7.26107750E+01
  0
LINE
  8
0
 62
4
 10
-1.66822027E+01
 20
6.50607750E+01
 11
-7.68220271E+00
 21
6.50607750E+01
  0
LINE
  8
0
 62
4
 10
-1.66822027E+01
 20
7.36608117E+01
 11
-7.68220271E+00
 21
7.36608117E+01
  0
LINE
  8
0
 62
4
 10
3.17797289E-01
 20
7.13607750E+01
 11
3.31779729E+00
 21
7.06607750E+01
  0
LINE
  8
0
 62
4
 10
3.31779728E+00
 20
7.06607750E+01
 11
8.25479637E+00
 21
7.06607750E+01
  0
LINE
  8
0
 62
4
 10
3.31779728E+00
 20
6.80607750E+01
 11
5.65479637E+00
 21
6.80607750E+01
  0
LINE
  8
0
 62
4
 10
3.17797289E-01
 20
6.73607750E+01
 11
3.31779728E+00
 21
6.80607750E+01
  0
LINE
  8
0
 62
6
 10
8.25479637E+00
 20
7.06607750E+01
 11
5.65479637E+00
 21
6.80607750E+01
  0
LINE
  8
0
 62
4
 10
-1.66822027E+01
 20
7.42079699E+01
 11
-7.68220269E+00
 21
7.42079699E+01
  0
LINE
  8
0
 62
4
 10
-1.66822027E+01
 20
6.37107750E+01
 11
-1.66822027E+01
 21
7.52252539E+01
  0
LINE
  8
0
 62
4
 10
-7.68220271E+00
 20
6.37107750E+01
 11
-7.68220271E+00
 21
7.52252539E+01
  0
LINE
  8
0
 62
4
 10
-1.01822027E+01
 20
7.52252539E+01
 11
-1.01822027E+01
 21
7.42079699E+01
  0
LINE
  8
0
  6
CENTER
 62
6
 10
-2.68162794E+01
 20
6.93607750E+01
 11
9.48937332E+00
 21
6.93607750E+01
  0
LINE
  8
0
 62
4
 10
3.31779728E+00
 20
7.06607750E+01
 11
3.31779728E+00
 21
6.80607750E+01
  0
CIRCLE
  8
0
 62
4
 10
-1.05988101E+02
 20
-4.48104135E+01
 40
4.00000000E+00
  0
LINE
  8
0
  6
CENTER
 62
6
 10
-1.05988101E+02
 20
-3.90606154E+01
 11
-1.05988101E+02
 21
-5.08540975E+01
  0
LINE
  8
0
  6
CENTER
 62
6
 10
-1.11602046E+02
 20
-4.48104135E+01
 11
-1.00405702E+02
 21
-4.48104135E+01
  0
LINE
  8
0
 62
4
 10
-1.21988101E+02
 20
-5.22104135E+01
 11
-8.99881012E+01
 21
-5.22104135E+01
  0
LINE
  8
0
 62
4
 10
-8.99881012E+01
 20
-5.22104135E+01
 11
-8.99881012E+01
 21
-5.38104135E+01
  0
LINE
  8
0
  6
CENTER
 62
6
 10
-1.17088101E+02
 20
-5.58146146E+01
 11
-1.17088101E+02
 21
-5.02569591E+01
  0
LINE
  8
0
  6
CENTER
 62
6
 10
-9.48881012E+01
 20
-5.58146146E+01
 11
-9.48881012E+01
 21
-4.99583900E+01
  0
LINE
  8
0
 62
4
 10
-1.21988101E+02
 20
-5.22104135E+01
 11
-1.21988101E+02
 21
-5.38104135E+01
  0
LINE
  8
0
 62
4
 10
-1.21988101E+02
 20
-5.38104135E+01
 11
-8.99881012E+01
 21
-5.38104135E+01
  0
ARC
  8
0
 62
4
 10
-1.05988101E+02
 20
-4.48104135E+01
 40
7.00000000E+00
 50
4.17832706E+01
 51
1.38216729E+02
  0
LINE
  8
0
 62
4
 10
-8.99881012E+01
 20
-5.22104135E+01
 11
-1.00768407E+02
 21
-4.01462101E+01
  0
LINE
  8
0
 62
4
 10
-1.21988101E+02
 20
-5.22104135E+01
 11
-1.11207795E+02
 21
-4.01462101E+01
  0
LINE
  8
0
  6
CENTER
 62
6
 10
-7.20141479E+01
 20
-4.48104135E+01
 11
-6.60681811E+01
 21
-4.48104135E+01
  0
LINE
  8
0
  6
CENTER
 62
6
 10
-7.49881012E+01
 20
-4.99583900E+01
 11
-7.49881012E+01
 21
-5.58146146E+01
  0
LINE
  8
0
 62
4
 10
-6.79881012E+01
 20
-3.78004135E+01
 11
-6.79881012E+01
 21
-5.12004135E+01
  0
ARC
  8
0
 62
4
 10
-7.05912735E+01
 20
-5.11972412E+01
 40
2.60317420E+00
 50
2.70069822E+02
 51
3.59930178E+02
  0
LINE
  8
0
 62
4
 10
-7.99881012E+01
 20
-5.38004135E+01
 11
-7.05881012E+01
 21
-5.38004135E+01
  0
LINE
  8
0
 62
4
 10
-7.99881012E+01
 20
-5.22004135E+01
 11
-7.99881012E+01
 21
-5.38004135E+01
  0
LINE
  8
0
 62
4
 10
-7.99881012E+01
 20
-5.22004135E+01
 11
-7.05881012E+01
 21
-5.22004135E+01
  0
ARC
  8
0
 62
4
 10
-7.05912725E+01
 20
-5.11972422E+01
 40
1.00317633E+00
 50
2.70181129E+02
 51
3.59818872E+02
  0
LINE
  8
0
 62
4
 10
-6.95881012E+01
 20
-3.78004135E+01
 11
-6.95881012E+01
 21
-5.12004135E+01
  0
LINE
  8
0
 62
4
 10
-6.95881012E+01
 20
-3.78004135E+01
 11
-6.79881012E+01
 21
-3.78004135E+01
  0
LINE
  8
0
 62
4
 10
-7.28881012E+01
 20
-5.22004135E+01
 11
-7.28881012E+01
 21
-5.38004135E+01
  0
LINE
  8
0
 62
4
 10
-7.70881012E+01
 20
-5.22004135E+01
 11
-7.70881012E+01
 21
-5.38004135E+01
  0
LINE
  8
0
  6
CENTER
 62
6
 10
-1.05988101E+02
 20
-8.41041351E+00
 11
-1.05988101E+02
 21
-2.30404135E+01
  0
LINE
  8
0
  6
CENTER
 62
6
 10
-9.48881012E+01
 20
-1.99685643E+01
 11
-9.48881012E+01
 21
-1.36986118E+01
  0
LINE
  8
0
  6
CENTER
 62
6
 10
-1.17088101E+02
 20
-2.02671334E+01
 11
-1.17088101E+02
 21
-1.38004135E+01
  0
LINE
  8
0
 62
4
 10
-1.21988101E+02
 20
-1.14004135E+01
 11
-8.99881012E+01
 21
-1.14004135E+01
  0
LINE
  8
0
 62
4
 10
-1.21988101E+02
 20
-9.80041351E+00
 11
-1.21988101E+02
 21
-1.47004135E+01
  0
LINE
  8
0
 62
4
 10
-8.99881012E+01
 20
-9.80041351E+00
 11
-8.99881012E+01
 21
-1.47004135E+01
  0
LINE
  8
0
 62
4
 10
-1.21988101E+02
 20
-9.80041351E+00
 11
-8.99881012E+01
 21
-9.80041351E+00
  0
LINE
  8
0
 62
4
 10
-1.21988101E+02
 20
-2.18004135E+01
 11
-8.99881012E+01
 21
-2.18004135E+01
  0
LINE
  8
0
  6
CENTER
 62
6
 10
-1.19961983E+02
 20
-1.68004135E+01
 11
-9.21950501E+01
 21
-1.68004135E+01
  0
LINE
  8
0
 62
4
 10
-1.21988101E+02
 20
-1.47004135E+01
 11
-1.17088101E+02
 21
-1.47004135E+01
  0
LINE
  8
0
 62
4
 10
-1.21988101E+02
 20
-1.89004135E+01
 11
-1.17088101E+02
 21
-1.89004135E+01
  0
LINE
  8
0
 62
4
 10
-9.48881012E+01
 20
-1.47004135E+01
 11
-8.99881012E+01
 21
-1.47004135E+01
  0
LINE
  8
0
 62
4
 10
-9.48881012E+01
 20
-1.89004135E+01
 11
-8.99881012E+01
 21
-1.89004135E+01
  0
LINE
  8
0
 62
4
 10
-8.99881012E+01
 20
-1.89004135E+01
 11
-8.99881012E+01
 21
-2.18004135E+01
  0
LINE
  8
0
 62
4
 10
-1.21988101E+02
 20
-1.89004135E+01
 11
-1.21988101E+02
 21
-2.18004135E+01
  0
ARC
  8
0
 62
4
 10
-9.48951514E+01
 20
-1.68004135E+01
 40
2.10001183E+00
 50
8.98076456E+01
 51
2.70192355E+02
  0
ARC
  8
0
 62
4
 10
-1.17095148E+02
 20
-1.68004135E+01
 40
2.10001182E+00
 50
2.70192271E+02
 51
8.98077287E+01
  0
LINE
  8
0
  6
CENTER
 62
6
 10
-4.88810119E+00
 20
-4.20672643E+01
 11
-4.88810119E+00
 21
-4.78270990E+01
  0
LINE
  8
0
  6
CENTER
 62
6
 10
-2.70881012E+01
 20
-4.20672643E+01
 11
-2.70881012E+01
 21
-4.78270990E+01
  0
LINE
  8
0
 62
4
 10
-3.19881012E+01
 20
-3.78104135E+01
 11
-3.19881012E+01
 21
-4.27104135E+01
  0
LINE
  8
0
 62
4
 10
1.18988113E-02
 20
-3.78104135E+01
 11
1.18988113E-02
 21
-4.27104135E+01
  0
CIRCLE
  8
0
 62
4
 10
-1.59881012E+01
 20
-4.48104135E+01
 40
4.00000000E+00
  0
LINE
  8
0
  6
CENTER
 62
6
 10
-1.59881012E+01
 20
-3.96250908E+01
 11
-1.59881012E+01
 21
-5.04524322E+01
  0
LINE
  8
0
  6
CENTER
 62
6
 10
-2.91062609E+01
 20
-4.48104135E+01
 11
-2.48768137E+00
 21
-4.48104135E+01
  0
LINE
  8
0
 62
4
 10
-3.19881012E+01
 20
-4.69104135E+01
 11
-2.70881012E+01
 21
-4.69104135E+01
  0
LINE
  8
0
 62
4
 10
-3.19881012E+01
 20
-4.27104135E+01
 11
-2.70881012E+01
 21
-4.27104135E+01
  0
LINE
  8
0
 62
4
 10
-4.88810119E+00
 20
-4.69104135E+01
 11
1.18988113E-02
 21
-4.69104135E+01
  0
LINE
  8
0
 62
4
 10
-4.88810119E+00
 20
-4.27104135E+01
 11
1.18988113E-02
 21
-4.27104135E+01
  0
LINE
  8
0
 62
4
 10
-3.19881012E+01
 20
-5.18104135E+01
 11
1.18988113E-02
 21
-5.18104135E+01
  0
LINE
  8
0
 62
4
 10
-3.19881012E+01
 20
-3.78104135E+01
 11
1.18988113E-02
 21
-3.78104135E+01
  0
LINE
  8
0
 62
4
 10
1.18988113E-02
 20
-4.69104135E+01
 11
1.18988113E-02
 21
-5.18104135E+01
  0
LINE
  8
0
 62
4
 10
-3.19881012E+01
 20
-4.69104135E+01
 11
-3.19881012E+01
 21
-5.18104135E+01
  0
ARC
  8
0
 62
4
 10
-4.88810119E+00
 20
-4.48104135E+01
 40
2.10000000E+00
 50
9.00000002E+01
 51
2.70000000E+02
  0
ARC
  8
0
 62
4
 10
-2.70881012E+01
 20
-4.48104135E+01
 40
2.10000000E+00
 50
2.70000000E+02
 51
9.00000002E+01
  0
LINE
  8
0
 62
4
 10
2.50118988E+01
 20
-4.27104135E+01
 11
2.66118988E+01
 21
-4.27104135E+01
  0
LINE
  8
0
 62
4
 10
2.50118988E+01
 20
-5.18104135E+01
 11
2.66118988E+01
 21
-5.18104135E+01
  0
LINE
  8
0
 62
4
 10
2.50118988E+01
 20
-4.69104135E+01
 11
2.66118988E+01
 21
-4.69104135E+01
  0
LINE
  8
0
 62
4
 10
2.50118988E+01
 20
-3.78104135E+01
 11
2.50118988E+01
 21
-5.18104135E+01
  0
LINE
  8
0
 62
4
 10
2.66118988E+01
 20
-3.78104135E+01
 11
2.66118988E+01
 21
-5.18104135E+01
  0
LINE
  8
0
 62
4
 10
2.50118988E+01
 20
-3.78104135E+01
 11
2.66118988E+01
 21
-3.78104135E+01
  0
LINE
  8
0
  6
CENTER
 62
6
 10
2.31016383E+01
 20
-4.48104135E+01
 11
2.85788726E+01
 21
-4.48104135E+01
  0
LINE
  8
0
  6
CENTER
 62
6
 10
-1.59881012E+01
 20
-2.05261364E+01
 11
-1.59881012E+01
 21
-1.55709161E+01
  0
LINE
  8
0
  6
CENTER
 62
6
 10
-4.88810119E+00
 20
-2.05261364E+01
 11
-4.88810119E+00
 21
-1.55709161E+01
  0
LINE
  8
0
  6
CENTER
 62
6
 10
-4.88810119E+00
 20
-2.05261364E+01
 11
-4.88810119E+00
 21
-1.55709161E+01
  0
LINE
  8
0
  6
CENTER
 62
6
 10
-2.70881012E+01
 20
-2.05261364E+01
 11
-2.70881012E+01
 21
-1.55709161E+01
  0
LINE
  8
0
  6
CENTER
 62
6
 10
-4.88810119E+00
 20
-2.06338586E+01
 11
-4.88810119E+00
 21
-1.56786383E+01
  0
LINE
  8
0
 62
4
 10
1.18988113E-02
 20
-1.72104135E+01
 11
1.18988113E-02
 21
-1.88104135E+01
  0
LINE
  8
0
 62
4
 10
-3.19881012E+01
 20
-1.72104135E+01
 11
1.18988113E-02
 21
-1.72104135E+01
  0
LINE
  8
0
 62
4
 10
-3.19881012E+01
 20
-1.88104135E+01
 11
1.18988113E-02
 21
-1.88104135E+01
  0
LINE
  8
0
 62
4
 10
-3.19881012E+01
 20
-1.72104135E+01
 11
-3.19881012E+01
 21
-1.88104135E+01
  0
ARC
  8
0
 62
4
 10
8.02052429E+01
 20
-2.30036091E+01
 40
2.80329901E+00
 50
6.53130559E-02
 51
3.81899073E+01
  0
ARC
  8
0
 62
4
 10
8.02032012E+01
 20
-1.26065098E+01
 40
2.80534161E+00
 50
3.21824508E+02
 51
3.59920273E+02
  0
ARC
  8
0
 62
4
 10
8.18026637E+01
 20
-2.30004275E+01
 40
2.79412364E+00
 50
1.41745067E+02
 51
1.79999713E+02
  0
ARC
  8
0
 62
4
 10
8.18047122E+01
 20
-1.26096891E+01
 40
2.79617214E+00
 50
1.80014844E+02
 51
2.18240376E+02
  0
LINE
  8
0
 62
4
 10
7.90085401E+01
 20
-1.26104135E+01
 11
7.90085401E+01
 21
-2.30004135E+01
  0
LINE
  8
0
 62
4
 10
8.30085401E+01
 20
-1.26104135E+01
 11
8.30085401E+01
 21
-2.30004135E+01
  0
LINE
  8
0
  6
CENTER
 62
6
 10
4.70412923E+01
 20
-1.78104135E+01
 11
8.61185401E+01
 21
-1.78104135E+01
  0
LINE
  8
0
 62
6
 10
8.30085401E+01
 20
-2.11339135E+01
 11
8.49185401E+01
 21
-2.11339135E+01
  0
LINE
  8
0
 62
6
 10
8.30085401E+01
 20
-1.44869135E+01
 11
8.49185401E+01
 21
-1.44869135E+01
  0
LINE
  8
0
 62
6
 10
7.84185401E+01
 20
-2.11339135E+01
 11
7.90085401E+01
 21
-2.11339135E+01
  0
LINE
  8
0
 62
6
 10
7.84185401E+01
 20
-1.44869135E+01
 11
7.90085401E+01
 21
-1.44869135E+01
  0
LINE
  8
0
 62
4
 10
7.96085401E+01
 20
-1.43404135E+01
 11
8.24085401E+01
 21
-1.43404135E+01
  0
LINE
  8
0
 62
4
 10
7.96085401E+01
 20
-2.12704135E+01
 11
8.24085401E+01
 21
-2.12704135E+01
  0
LINE
  8
0
 62
4
 10
8.49185401E+01
 20
-1.44104135E+01
 11
8.49185401E+01
 21
-2.12104135E+01
  0
LINE
  8
0
 62
4
 10
7.69185401E+01
 20
-2.18104135E+01
 11
7.90085401E+01
 21
-2.18104135E+01
  0
LINE
  8
0
 62
4
 10
7.69185401E+01
 20
-1.38104135E+01
 11
7.90085401E+01
 21
-1.38104135E+01
  0
LINE
  8
0
 62
4
 10
8.43185401E+01
 20
-1.38104135E+01
 11
8.49185401E+01
 21
-1.44104135E+01
  0
LINE
  8
0
 62
4
 10
8.43185401E+01
 20
-2.18104135E+01
 11
8.49185401E+01
 21
-2.12104135E+01
  0
LINE
  8
0
 62
4
 10
7.84185401E+01
 20
-1.38104135E+01
 11
7.84185401E+01
 21
-2.18104135E+01
  0
LINE
  8
0
 62
4
 10
8.43185401E+01
 20
-1.38104135E+01
 11
8.43185401E+01
 21
-2.18104135E+01
  0
LINE
  8
0
 62
4
 10
8.30085401E+01
 20
-1.38104135E+01
 11
8.43185401E+01
 21
-1.38104135E+01
  0
LINE
  8
0
 62
4
 10
8.30085401E+01
 20
-2.18104135E+01
 11
8.43185401E+01
 21
-2.18104135E+01
  0
ARC
  8
0
 62
4
 10
8.93031660E+01
 20
-1.78035909E+01
 40
1.02946281E+01
 50
1.60341925E+02
 51
1.80037972E+02
  0
ARC
  8
0
 62
4
 10
8.93042802E+01
 20
-1.78070482E+01
 40
1.02957407E+01
 50
1.80018728E+02
 51
1.99656974E+02
  0
ARC
  8
0
 62
4
 10
7.27039398E+01
 20
-1.78053156E+01
 40
1.03046015E+01
 50
3.59971654E+02
 51
1.96484484E+01
  0
ARC
  8
0
 62
4
 10
7.27028283E+01
 20
-1.78053190E+01
 40
1.03057130E+01
 50
3.40352622E+02
 51
3.59971677E+02
  0
LINE
  8
0
 62
4
 10
7.96085401E+01
 20
-1.08804135E+01
 11
8.24085401E+01
 21
-1.08804135E+01
  0
LINE
  8
0
 62
4
 10
7.96085401E+01
 20
-2.47304135E+01
 11
8.24085401E+01
 21
-2.47304135E+01
  0
ARC
  8
0
 62
4
 10
8.18019530E+01
 20
-1.26101810E+01
 40
2.79341289E+00
 50
1.41740010E+02
 51
1.80004770E+02
  0
ARC
  8
0
 62
4
 10
8.18039971E+01
 20
-2.29999371E+01
 40
2.79545698E+00
 50
1.80009764E+02
 51
2.18245456E+02
  0
ARC
  8
0
 62
4
 10
8.02059514E+01
 20
-1.26133634E+01
 40
2.80259031E+00
 50
6.03065249E-02
 51
3.81949138E+01
  0
ARC
  8
0
 62
4
 10
8.02039140E+01
 20
-2.29967570E+01
 40
2.80462852E+00
 50
3.21819478E+02
 51
3.59925302E+02
  0
ARC
  8
0
 62
4
 10
7.05096617E+01
 20
-1.78111868E+01
 40
7.58924133E+00
 50
1.40564328E+02
 51
2.13323128E+02
  0
ARC
  8
0
 62
4
 10
6.93401223E+01
 20
-1.78104135E+01
 40
7.57841784E+00
 50
3.20504571E+02
 51
3.59457435E+02
  0
CIRCLE
  8
0
 62
4
 10
6.59247793E+01
 20
-2.19154127E+01
 40
1.75000000E+00
  0
CIRCLE
  8
0
 62
4
 10
6.59247793E+01
 20
-2.19154127E+01
 40
1.25000000E+00
  0
LINE
  8
0
 62
4
 10
6.75182003E+01
 20
-2.26304135E+01
 11
7.51882003E+01
 21
-2.26304135E+01
  0
LINE
  8
0
 62
4
 10
6.46482003E+01
 20
-1.29904135E+01
 11
7.51882003E+01
 21
-1.29904135E+01
  0
LINE
  8
0
 62
4
 10
7.51882003E+01
 20
-1.29904135E+01
 11
7.51882003E+01
 21
-1.08204135E+01
  0
LINE
  8
0
 62
4
 10
6.46482003E+01
 20
-1.29904135E+01
 11
6.46482003E+01
 21
-1.08204135E+01
  0
LINE
  8
0
 62
4
 10
6.29182003E+01
 20
-1.08204135E+01
 11
7.69182003E+01
 21
-1.08204135E+01
  0
LINE
  8
0
 62
4
 10
6.29182003E+01
 20
-2.48104135E+01
 11
6.29182003E+01
 21
-1.08204135E+01
  0
LINE
  8
0
  6
CENTER
 62
6
 10
6.59182003E+01
 20
-1.92935246E+01
 11
6.59182003E+01
 21
-2.45509081E+01
  0
LINE
  8
0
 62
4
 10
6.47082003E+01
 20
-2.16104135E+01
 11
6.71382003E+01
 21
-2.16104135E+01
  0
LINE
  8
0
 62
4
 10
6.47082003E+01
 20
-2.22104135E+01
 11
6.71382003E+01
 21
-2.22104135E+01
  0
LINE
  8
0
  6
CENTER
 62
6
 10
6.33838162E+01
 20
-2.19104135E+01
 11
6.86081344E+01
 21
-2.19104135E+01
  0
LINE
  8
0
 62
4
 10
7.51882003E+01
 20
-2.26304135E+01
 11
7.51882003E+01
 21
-2.48104135E+01
  0
LINE
  8
0
 62
4
 10
6.46482003E+01
 20
-2.31104135E+01
 11
6.46482003E+01
 21
-2.48104135E+01
  0
LINE
  8
0
 62
4
 10
6.29182003E+01
 20
-2.48104135E+01
 11
7.69182003E+01
 21
-2.48104135E+01
  0
LINE
  8
0
 62
4
 10
7.69182003E+01
 20
-1.08204135E+01
 11
7.69182003E+01
 21
-2.48104135E+01
  0
LINE
  8
0
  6
CENTER
 62
6
 10
7.24182003E+01
 20
-1.36604135E+01
 11
7.24182003E+01
 21
-2.19604135E+01
  0
CIRCLE
  8
0
 62
4
 10
7.24182003E+01
 20
-1.78054137E+01
 40
2.06700000E+00
  0
CIRCLE
  8
0
 62
6
 10
7.24147946E+01
 20
-1.78104135E+01
 40
2.50000000E+00
  0
ARC
  8
0
 62
4
 10
6.93401223E+01
 20
-1.78104135E+01
 40
7.57841784E+00
 50
5.42564325E-01
 51
3.94954291E+01
  0
LINE
  8
0
  6
CENTER
 62
6
 10
9.64372406E+01
 20
-1.78104135E+01
 11
1.12591986E+02
 21
-1.78104135E+01
  0
LINE
  8
0
 62
4
 10
9.97263749E+01
 20
-2.48104135E+01
 11
1.09370026E+02
 21
-2.48104135E+01
  0
ARC
  8
0
 62
4
 10
1.04548200E+02
 20
-1.78104135E+01
 40
8.50000000E+00
 50
2.14560322E+02
 51
2.35439678E+02
  0
ARC
  8
0
 62
4
 10
1.04548200E+02
 20
-1.78104135E+01
 40
8.50000000E+00
 50
3.04560322E+02
 51
3.25439678E+02
  0
LINE
  8
0
 62
4
 10
1.04548200E+02
 20
-2.47386167E+01
 11
9.85482004E+01
 21
-2.12745152E+01
  0
LINE
  8
0
 62
4
 10
1.10548200E+02
 20
-2.12745151E+01
 11
1.04548200E+02
 21
-2.47386167E+01
  0
ARC
  8
0
 62
4
 10
1.04548200E+02
 20
-1.78104135E+01
 40
8.50000000E+00
 50
1.24560322E+02
 51
1.45439678E+02
  0
LINE
  8
0
 62
4
 10
9.97263749E+01
 20
-1.08104135E+01
 11
1.09370026E+02
 21
-1.08104135E+01
  0
ARC
  8
0
 62
4
 10
1.04548200E+02
 20
-1.78104135E+01
 40
8.50000000E+00
 50
3.45603218E+01
 51
5.54396782E+01
  0
LINE
  8
0
 62
4
 10
1.10548200E+02
 20
-1.43463119E+01
 11
1.04548200E+02
 21
-1.08822103E+01
  0
LINE
  8
0
 62
4
 10
1.04548200E+02
 20
-1.08822103E+01
 11
9.85482003E+01
 21
-1.43463119E+01
  0
LINE
  8
0
 62
4
 10
1.10548200E+02
 20
-2.12745151E+01
 11
1.10548200E+02
 21
-1.43463119E+01
  0
LINE
  8
0
 62
4
 10
9.85482003E+01
 20
-2.12745151E+01
 11
9.85482003E+01
 21
-1.43463119E+01
  0
LINE
  8
0
 62
4
 10
1.11548200E+02
 20
-2.26322389E+01
 11
1.11548200E+02
 21
-1.29885881E+01
  0
LINE
  8
0
 62
4
 10
9.75482003E+01
 20
-2.26322389E+01
 11
9.75482003E+01
 21
-1.29885881E+01
  0
LINE
  8
0
  6
CENTER
 62
6
 10
1.04548200E+02
 20
-2.58933173E+01
 11
1.04548200E+02
 21
-9.81041351E+00
  0
CIRCLE
  8
0
 62
6
 10
1.04548200E+02
 20
-1.78104135E+01
 40
3.50000000E+00
  0
CIRCLE
  8
0
 62
4
 10
1.04548200E+02
 20
-1.78104135E+01
 40
4.00000000E+00
  0
CIRCLE
  8
0
 62
4
 10
1.04548200E+02
 20
-1.78104135E+01
 40
5.99999998E+00
  0
CIRCLE
  8
0
 62
4
 10
1.04548200E+02
 20
-1.78104135E+01
 40
7.00000000E+00
  0
LINE
  8
0
 62
2
 10
4.40628670E+01
 20
-2.33104135E+01
 11
5.04135337E+01
 21
-1.23104135E+01
  0
LINE
  8
0
 62
7
 10
5.04182003E+01
 20
-1.23104135E+01
 11
6.29182003E+01
 21
-1.23104135E+01
  0
LINE
  8
0
 62
7
 10
4.40682003E+01
 20
-2.33104135E+01
 11
6.29182003E+01
 21
-2.33104135E+01
  0
TEXT
  8
0
 62
7
 10
-1.02049994E+02
 20
-8.34000031E+01
 40
3.20000005E+00
  1
-45
 41
1.00000000E+00
  7
MONOTXT
  0
TEXT
  8
0
 62
7
 10
-8.12499939E+01
 20
-7.74000031E+01
 40
3.20000005E+00
  1
45
 41
1.00000000E+00
  7
MONOTXT
  0
TEXT
  8
0
 62
7
 10
-7.16499939E+01
 20
-7.74000031E+01
 40
3.20000005E+00
  1
60
 41
1.00000000E+00
  7
MONOTXT
  0
TEXT
  8
0
 62
7
 10
-9.24499940E+01
 20
-8.34000031E+01
 40
3.20000005E+00
  1
-30
 41
1.00000000E+00
  7
MONOTXT
  0
TEXT
  8
0
 62
7
 10
-8.28499940E+01
 20
-8.34000031E+01
 40
3.20000005E+00
  1
-15
 41
1.00000000E+00
  7
MONOTXT
  0
TEXT
  8
0
 62
7
 10
-7.00499939E+01
 20
-8.34000031E+01
 40
3.20000005E+00
  1
0
 41
1.00000000E+00
  7
MONOTXT
  0
TEXT
  8
0
 62
7
 10
-1.15538202E+02
 20
-7.07696827E+01
 40
3.20000005E+00
  1
STRETCH LIST
 41
1.05263158E+00
  7
MONOTXT
  0
TEXT
  8
0
 62
7
 10
-7.50437339E+01
 20
-7.10119966E+01
 40
3.20000005E+00
  1
(mm)
 41
1.00000000E+00
  7
MONOTXT
  0
TEXT
  8
0
 62
7
 10
-1.26249994E+02
 20
-8.34000031E+01
 40
3.20000005E+00
  1
STRETCH
 41
1.00000000E+00
  7
MONOTXT
  0
TEXT
  8
0
 62
7
 10
-1.24649994E+02
 20
-7.74000031E+01
 40
3.20000005E+00
  1
STROKE
 41
1.00000000E+00
  7
MONOTXT
  0
TEXT
  8
0
 62
7
 10
-7.16499939E+01
 20
-7.74000031E+01
 40
3.20000005E+00
  1
60
 41
1.00000000E+00
  7
MONOTXT
  0
LINE
  8
0
 62
7
 10
-6.39999939E+01
 20
-8.48000031E+01
 11
-6.39999939E+01
 21
-7.28000031E+01
  0
TEXT
  8
0
 62
7
 10
-8.12499939E+01
 20
-7.74000031E+01
 40
3.20000005E+00
  1
45
 41
1.00000000E+00
  7
MONOTXT
  0
LINE
  8
0
 62
7
 10
-7.35999939E+01
 20
-8.48000031E+01
 11
-7.35999939E+01
 21
-7.28000031E+01
  0
TEXT
  8
0
 62
7
 10
-9.08499939E+01
 20
-7.74000031E+01
 40
3.20000005E+00
  1
30
 41
1.00000000E+00
  7
MONOTXT
  0
LINE
  8
0
 62
7
 10
-8.31999939E+01
 20
-8.48000031E+01
 11
-8.31999939E+01
 21
-7.28000031E+01
  0
TEXT
  8
0
 62
7
 10
-1.00449994E+02
 20
-7.74000031E+01
 40
3.20000005E+00
  1
15
 41
1.00000000E+00
  7
MONOTXT
  0
LINE
  8
0
 62
7
 10
-9.27999939E+01
 20
-8.48000031E+01
 11
-9.27999939E+01
 21
-7.28000031E+01
  0
LINE
  8
0
 62
7
 10
-1.28399994E+02
 20
-7.28000031E+01
 11
-6.39999939E+01
 21
-7.28000031E+01
  0
LINE
  8
0
 62
7
 10
-1.02399994E+02
 20
-8.48000031E+01
 11
-1.02399994E+02
 21
-7.28000031E+01
  0
LINE
  8
0
 62
7
 10
-1.28399994E+02
 20
-7.88000031E+01
 11
-6.39999939E+01
 21
-7.88000031E+01
  0
LINE
  8
0
 62
7
 10
-1.28399994E+02
 20
-8.48000031E+01
 11
-1.28399994E+02
 21
-7.28000031E+01
  0
LINE
  8
0
 62
7
 10
-1.28399994E+02
 20
-8.48000031E+01
 11
-6.39999939E+01
 21
-8.48000031E+01
  0
TEXT
  8
0
 10
-7.11946426E+00
 20
4.58986239E+01
 40
3.20000005E+00
  1
STRETCH LINE
 41
1.05263158E+00
  7
MONOTXT
  0
LINE
  8
0
 62
7
 10
-1.38399994E+02
 20
9.45000000E+01
 11
1.38350006E+02
 21
9.45000000E+01
  0
LINE
  8
0
 62
7
 10
1.38350006E+02
 20
9.45000000E+01
 11
1.38350006E+02
 21
-9.48000031E+01
  0
LINE
  8
0
 62
7
 10
-1.38399994E+02
 20
-9.48000031E+01
 11
1.38350006E+02
 21
-9.48000031E+01
  0
LINE
  8
0
 62
7
 10
-1.38399994E+02
 20
9.45000000E+01
 11
-1.38399994E+02
 21
-9.48000031E+01
  0
LINE
  8
0
 62
7
 10
7.33500061E+01
 20
-8.48000031E+01
 11
1.38350006E+02
 21
-8.48000031E+01
  0
LINE
  8
0
 62
7
 10
-1.38399994E+02
 20
8.45000000E+01
 11
-7.33999939E+01
 21
8.45000000E+01
  0
LINE
  8
0
 62
7
 10
7.33500061E+01
 20
8.45000000E+01
 11
1.38350006E+02
 21
8.45000000E+01
  0
LINE
  8
0
 62
7
 10
7.33500061E+01
 20
-8.48000031E+01
 11
7.33500061E+01
 21
-9.48000031E+01
  0
LINE
  8
0
 62
7
 10
7.33500061E+01
 20
9.45000000E+01
 11
7.33500061E+01
 21
8.45000000E+01
  0
LINE
  8
0
 62
7
 10
-7.33999939E+01
 20
9.45000000E+01
 11
-7.33999939E+01
 21
8.45000000E+01
  0
TEXT
  8
0
 62
7
 10
7.72426624E+01
 20
-9.20500031E+01
 40
4.50000000E+00
  1
KOGANEI CORP.
 41
1.04838710E+00
  7
MONOTXT
  0
TEXT
  8
0
 62
7
 10
9.35071483E+01
 20
8.79000000E+01
 40
3.20000005E+00
  1
Ver. 1.1
 41
1.08108108E+00
  7
MONOTXT
  0
TEXT
  8
0
 62
7
 10
-1.31042852E+02
 20
8.79000000E+01
 40
3.20000005E+00
  1
NEW PEN CYLINDER
 41
1.08108108E+00
  7
MONOTXT
  0
TEXT
  8
0
 62
7
 10
-1.29085994E+02
 20
7.29000000E+01
 40
3.20000005E+00
  1
MODEL:PBDAUS10*ST(60)-A-ZC230
 41
1.00000000E+00
  7
MONOTXT
  0
ENDSEC
  0
EOF
