  0
SECTION
  2
HEADER
  9
$ACADVER
  1
AC1003
  9
$EXTMIN
 10
-1.94250000E+02
 20
-1.33500000E+02
  9
$EXTMAX
 10
1.94800003E+02
 20
1.32600006E+02
  9
$LIMMIN
 10
-1.94251000E+02
 20
-1.33501000E+02
  9
$LIMMAX
 10
1.94801003E+02
 20
1.32601006E+02
  9
$SNAPUNIT
 10
1
 20
1
  9
$SNAPBASE
 10
0
 20
0
  9
$GRIDMODE
 70
0
  9
$GRIDUNIT
 10
0
 20
0
  9
$LTSCALE
 40
6.48416672E+00
  9
$TEXTSIZE
 40
3.2
  9
$DIMTAD
 70
0
  9
$LUNITS
 70
2
  9
$LUPREC
 70
4
  9
$FILLETRAD
 40
0
  9
$AUNITS
 70
0
  9
$AUPREC
 70
0
  0
ENDSEC
  0
SECTION
  2
TABLES
  0
TABLE
  2
LTYPE
 70
2
  0
LTYPE
  2
CONTINUOUS
 70
64
  3
Solid-Line
 72
65
 73
0
 40
0
  0
LTYPE
  2
DASHED
 70
64
  3
DASHED
 72
65
 73
2
 40
.75
 49
.5
 49
-.25
  0
LTYPE
  2
HIDDEN
 70
64
  3
HIDDEN
 72
65
 73
2
 40
.375
 49
.25
 49
-.125
  0
LTYPE
  2
CENTER
 70
64
  3
CENTER
 72
65
 73
4
 40
2
 49
1.25
 49
-.25
 49
.25
 49
-.25
  0
LTYPE
  2
PHANTOM
 70
64
  3
PHANTOM
 72
65
 73
6
 40
2.5
 49
1.25
 49
-.25
 49
.25
 49
-.25
 49
.25
 49
-.25
  0
ENDTAB
  0
TABLE
  2
LAYER
 70
1
  0
LAYER
  2
1
 70
0
 62
7
  6
CONTINUOUS
 0
ENDTAB
  0
TABLE
  2
STYLE
 70
2
  0
STYLE
  2
MONOTXT
 70
0
 40
0
 41
1
 50
0
 71
0
 42
.2
  3
monotxt
  0
STYLE
  2
BIGFONT
 70
0
 40
0
 41
1
 50
0
 71
0
 42
.2
  3
txt
  4
bigfont
  0
ENDTAB
  0
ENDSEC
  0
SECTION
  2
ENTITIES
  0
LINE
  8
0
  6
CENTER
 62
6
 10
2.57260572E+00
 20
5.38277579E+01
 11
2.57260572E+00
 21
2.07830988E+01
  0
LINE
  8
0
  6
CENTER
 62
6
 10
4.25726057E+01
 20
5.38277579E+01
 11
4.25726057E+01
 21
2.07830988E+01
  0
LINE
  8
0
  6
CENTER
 62
6
 10
-3.69273943E+01
 20
5.38277579E+01
 11
-3.69273943E+01
 21
2.07830988E+01
  0
LINE
  8
0
  6
PHANTOM
 10
6.72538850E+01
 20
1.17078876E+01
 11
6.72538850E+01
 21
5.36681721E+01
  0
LINE
  8
0
  6
PHANTOM
 10
-1.29472606E+01
 20
1.17078876E+01
 11
-1.29472606E+01
 21
5.36681721E+01
  0
TEXT
  8
0
 62
7
 10
-2.97633318E+01
 20
2.31177732E+01
 40
1.50000000E+00
  1
PBDATS16-7
 41
1.00000000E+00
  7
MONOTXT
  0
LINE
  8
0
 62
7
 10
3.80726057E+01
 20
2.20277579E+01
 11
7.07260572E+00
 21
2.20277579E+01
  0
LINE
  8
0
 62
7
 10
4.95726057E+01
 20
3.90177579E+01
 11
1.00072606E+02
 21
3.90177579E+01
  0
LINE
  8
0
 62
7
 10
9.57260572E+00
 20
3.90177579E+01
 11
3.55726057E+01
 21
3.90177579E+01
  0
LINE
  8
0
 62
7
 10
-1.92739428E+00
 20
2.20277579E+01
 11
-3.24273943E+01
 21
2.20277579E+01
  0
LINE
  8
0
 62
7
 10
-4.14273943E+01
 20
2.20277579E+01
 11
-6.44273943E+01
 21
2.20277579E+01
  0
LINE
  8
0
 62
7
 10
-2.99273943E+01
 20
3.90177579E+01
 11
-4.42739428E+00
 21
3.90177579E+01
  0
ARC
  8
0
 62
7
 10
9.40589080E+01
 20
3.05227579E+01
 40
6.01657241E+00
 50
1.77122186E+00
 51
4.48740934E+01
  0
ARC
  8
0
 62
7
 10
9.40589080E+01
 20
3.05227579E+01
 40
6.01657241E+00
 50
3.15125907E+02
 51
3.58228778E+02
  0
CIRCLE
  8
0
 62
7
 10
9.20767622E+01
 20
3.05177575E+01
 40
2.50000000E+00
  0
ARC
  8
0
 62
4
 10
-8.59562611E+01
 20
3.39102052E+01
 40
1.49888586E+00
 50
2.88704672E-01
 51
4.82097042E+01
  0
ARC
  8
0
 62
4
 10
-8.59562808E+01
 20
2.71452965E+01
 40
1.49888853E+00
 50
3.11791214E+02
 51
9.40875246E-02
  0
ARC
  8
0
 62
4
 10
-8.59568443E+01
 20
2.71399425E+01
 40
1.49947035E+00
 50
2.98629638E-01
 51
4.81997792E+01
  0
ARC
  8
0
 62
4
 10
-8.98755382E+01
 20
3.05311155E+01
 40
5.41814492E+00
 50
3.35191781E+02
 51
3.59964493E+02
  0
ARC
  8
0
 62
4
 10
-8.59531341E+01
 20
3.39239019E+01
 40
1.49575246E+00
 50
3.11736944E+02
 51
3.59764647E+02
  0
ARC
  8
0
 62
4
 10
-8.98776347E+01
 20
3.05339332E+01
 40
5.42024398E+00
 50
3.59934723E+02
 51
2.48034007E+01
  0
ARC
  8
0
 62
4
 10
-8.69732897E+01
 20
3.39168549E+01
 40
1.48410487E+00
 50
1.31536451E+02
 51
1.79965140E+02
  0
ARC
  8
0
 62
4
 10
-8.69764479E+01
 20
3.39172382E+01
 40
1.48094647E+00
 50
1.79979895E+02
 51
2.28518513E+02
  0
ARC
  8
0
 62
4
 10
-8.69733144E+01
 20
2.71386864E+01
 40
1.48410757E+00
 50
1.79649782E+02
 51
2.28464917E+02
  0
ARC
  8
0
 62
4
 10
-8.69727007E+01
 20
2.71465896E+01
 40
1.48469402E+00
 50
1.31546676E+02
 51
1.79954915E+02
  0
ARC
  8
0
 62
4
 10
-8.30562019E+01
 20
3.05273817E+01
 40
5.40119241E+00
 50
1.79996010E+02
 51
2.04847715E+02
  0
ARC
  8
0
 62
4
 10
-8.30541056E+01
 20
3.05376507E+01
 40
5.40329773E+00
 50
1.55156975E+02
 51
1.80104902E+02
  0
LINE
  8
0
 62
7
 10
9.83226057E+01
 20
2.62777579E+01
 11
9.83226057E+01
 21
2.20177579E+01
  0
LINE
  8
0
 62
7
 10
9.83226057E+01
 20
3.90177579E+01
 11
9.83226057E+01
 21
3.47677579E+01
  0
LINE
  8
0
 62
7
 10
7.48226057E+01
 20
3.47677579E+01
 11
9.83226057E+01
 21
3.47677579E+01
  0
LINE
  8
0
 62
7
 10
7.48226057E+01
 20
2.62777579E+01
 11
9.83226057E+01
 21
2.62777579E+01
  0
LINE
  8
0
 62
7
 10
7.30726057E+01
 20
3.90177579E+01
 11
7.30726057E+01
 21
2.20177579E+01
  0
LINE
  8
0
  6
CENTER
 62
2
 10
9.20726057E+01
 20
3.47677579E+01
 11
9.20726057E+01
 21
2.62777579E+01
  0
LINE
  8
0
  6
CENTER
 62
2
 10
7.75726057E+01
 20
4.13986697E+01
 11
7.75726057E+01
 21
3.24852749E+01
  0
LINE
  8
0
 62
7
 10
1.00072606E+02
 20
3.90177579E+01
 11
1.00072606E+02
 21
2.20177579E+01
  0
LINE
  8
0
 62
4
 10
-8.79573943E+01
 20
2.82577579E+01
 11
-8.49573943E+01
 21
2.82577579E+01
  0
LINE
  8
0
 62
4
 10
-8.79573943E+01
 20
3.28077579E+01
 11
-8.49573943E+01
 21
3.28077579E+01
  0
LINE
  8
0
 62
7
 10
-8.44573943E+01
 20
3.30277579E+01
 11
-7.24273943E+01
 21
3.30277579E+01
  0
LINE
  8
0
 62
7
 10
-8.44573943E+01
 20
2.80277579E+01
 11
-7.24273943E+01
 21
2.80277579E+01
  0
LINE
  8
0
 62
4
 10
-8.79573943E+01
 20
3.50277579E+01
 11
-8.49573943E+01
 21
3.50277579E+01
  0
LINE
  8
0
 62
4
 10
-8.79573943E+01
 20
2.60277579E+01
 11
-8.49573943E+01
 21
2.60277579E+01
  0
LINE
  8
0
 62
4
 10
-8.44573943E+01
 20
3.39177579E+01
 11
-8.44573943E+01
 21
2.71477579E+01
  0
LINE
  8
0
 62
4
 10
-8.84573943E+01
 20
3.39168549E+01
 11
-8.84573943E+01
 21
2.71477579E+01
  0
LINE
  8
0
 62
7
 10
-9.19273943E+01
 20
3.30277579E+01
 11
-9.19273943E+01
 21
2.80277579E+01
  0
LINE
  8
0
 62
7
 10
-9.24273943E+01
 20
2.85277579E+01
 11
-9.19273943E+01
 21
2.80277579E+01
  0
LINE
  8
0
 62
7
 10
-9.24273943E+01
 20
3.25277579E+01
 11
-9.19273943E+01
 21
3.30277579E+01
  0
LINE
  8
0
 62
7
 10
-7.74273943E+01
 20
3.30277579E+01
 11
-7.74273943E+01
 21
2.80277579E+01
  0
LINE
  8
0
 62
7
 10
-9.24273943E+01
 20
3.25277579E+01
 11
-9.24273943E+01
 21
2.85277579E+01
  0
LINE
  8
0
 62
7
 10
-9.19273943E+01
 20
2.80277579E+01
 11
-8.84573943E+01
 21
2.80277579E+01
  0
LINE
  8
0
 62
7
 10
-9.19273943E+01
 20
3.30277579E+01
 11
-8.84573943E+01
 21
3.30277579E+01
  0
LINE
  8
0
 62
7
 10
-7.14273943E+01
 20
3.55277579E+01
 11
-7.14273943E+01
 21
2.55277579E+01
  0
LINE
  8
0
 62
7
 10
-6.59273943E+01
 20
3.55277579E+01
 11
-6.59273943E+01
 21
2.55277579E+01
  0
LINE
  8
0
  6
CENTER
 62
2
 10
-9.51930405E+01
 20
3.05177579E+01
 11
1.01592606E+02
 21
3.05177579E+01
  0
LINE
  8
0
 62
7
 10
-7.24273943E+01
 20
2.65277579E+01
 11
-7.14273943E+01
 21
2.55277579E+01
  0
LINE
  8
0
 62
7
 10
-7.24273943E+01
 20
3.45277579E+01
 11
-7.14273943E+01
 21
3.55277579E+01
  0
LINE
  8
0
 62
7
 10
-7.14273943E+01
 20
3.55277579E+01
 11
-6.44273943E+01
 21
3.55277579E+01
  0
LINE
  8
0
 62
7
 10
-7.14273943E+01
 20
2.55277579E+01
 11
-6.44273943E+01
 21
2.55277579E+01
  0
LINE
  8
0
 62
7
 10
-7.24273943E+01
 20
3.45277579E+01
 11
-7.24273943E+01
 21
2.65277579E+01
  0
LINE
  8
0
 62
2
 10
-9.24273943E+01
 20
2.84607579E+01
 11
-8.84573943E+01
 21
2.84607579E+01
  0
LINE
  8
0
 62
2
 10
-9.23603943E+01
 20
3.25947579E+01
 11
-8.84573943E+01
 21
3.25947579E+01
  0
LINE
  8
0
 62
2
 10
-8.44573943E+01
 20
2.84607579E+01
 11
-7.74273943E+01
 21
2.84607579E+01
  0
LINE
  8
0
 62
2
 10
-8.44573943E+01
 20
3.25947579E+01
 11
-7.74273943E+01
 21
3.25947579E+01
  0
LINE
  8
0
 62
2
 10
-7.22393943E+01
 20
2.63397579E+01
 11
-6.59273943E+01
 21
2.63397579E+01
  0
LINE
  8
0
 62
2
 10
-7.22393943E+01
 20
3.47157579E+01
 11
-6.59273943E+01
 21
3.47157579E+01
  0
LINE
  8
0
 62
7
 10
7.48226057E+01
 20
3.47673953E+01
 11
7.48226057E+01
 21
3.90273953E+01
  0
ARC
  8
0
 62
7
 10
7.90930927E+01
 20
3.05236684E+01
 40
6.02048817E+00
 50
1.35180079E+02
 51
2.24819921E+02
  0
LINE
  8
0
 62
7
 10
7.48226057E+01
 20
2.62773953E+01
 11
7.48226057E+01
 21
2.20273953E+01
  0
LINE
  8
0
  6
CENTER
 62
2
 10
-5.74273943E+01
 20
4.07777579E+01
 11
-5.74273943E+01
 21
3.47677579E+01
  0
LINE
  8
0
  6
CENTER
 62
2
 10
1.75726057E+01
 20
4.10148054E+01
 11
1.75726057E+01
 21
3.21225145E+01
  0
ARC
  8
0
 62
7
 10
2.10534423E+01
 20
3.05245772E+01
 40
6.01916427E+00
 50
3.02763694E-02
 51
4.48251130E+01
  0
ARC
  8
0
 62
7
 10
1.90917691E+01
 20
3.05245772E+01
 40
6.01916427E+00
 50
1.35174887E+02
 51
1.79969724E+02
  0
ARC
  8
0
 62
7
 10
-5.84465447E+01
 20
3.05245826E+01
 40
6.01915123E+00
 50
3.02252231E-02
 51
4.48251641E+01
  0
ARC
  8
0
 62
7
 10
-5.84082309E+01
 20
3.05245772E+01
 40
6.01916427E+00
 50
1.35174887E+02
 51
1.79969724E+02
  0
ARC
  8
0
 62
7
 10
2.10578937E+01
 20
3.05291013E+01
 40
6.01471222E+00
 50
3.15157408E+02
 51
3.59987203E+02
  0
ARC
  8
0
 62
7
 10
1.90873178E+01
 20
3.05291013E+01
 40
6.01471222E+00
 50
1.80012797E+02
 51
2.24842592E+02
  0
ARC
  8
0
 62
7
 10
-5.84420933E+01
 20
3.05290959E+01
 40
6.01469917E+00
 50
3.15157357E+02
 51
3.59987254E+02
  0
ARC
  8
0
 62
7
 10
-5.84126822E+01
 20
3.05291013E+01
 40
6.01471222E+00
 50
1.80012797E+02
 51
2.24842592E+02
  0
LINE
  8
0
 62
7
 10
2.53226057E+01
 20
3.47677579E+01
 11
2.53226057E+01
 21
3.90177579E+01
  0
LINE
  8
0
 62
7
 10
2.70726057E+01
 20
2.20277579E+01
 11
2.70726057E+01
 21
3.90177579E+01
  0
LINE
  8
0
 62
7
 10
2.53226057E+01
 20
3.47677579E+01
 11
1.48226057E+01
 21
3.47677579E+01
  0
LINE
  8
0
 62
7
 10
1.48226057E+01
 20
3.47677579E+01
 11
1.48226057E+01
 21
3.90177579E+01
  0
LINE
  8
0
 62
7
 10
1.30726057E+01
 20
3.05277579E+01
 11
1.30726057E+01
 21
3.90177579E+01
  0
LINE
  8
0
 62
7
 10
-6.44273943E+01
 20
3.90177579E+01
 11
-4.39273943E+01
 21
3.90177579E+01
  0
LINE
  8
0
 62
7
 10
-5.24273943E+01
 20
2.20277579E+01
 11
-5.24273943E+01
 21
3.90177579E+01
  0
LINE
  8
0
 62
7
 10
-5.41773943E+01
 20
3.47677579E+01
 11
-5.41773943E+01
 21
3.90177579E+01
  0
LINE
  8
0
 62
7
 10
-6.26773943E+01
 20
3.47677579E+01
 11
-6.26773943E+01
 21
3.90177579E+01
  0
LINE
  8
0
 62
7
 10
-6.26773943E+01
 20
3.47677579E+01
 11
-5.41773943E+01
 21
3.47677579E+01
  0
LINE
  8
0
 62
7
 10
2.53226057E+01
 20
2.62877579E+01
 11
1.48226057E+01
 21
2.62877579E+01
  0
LINE
  8
0
 62
7
 10
2.53226057E+01
 20
2.62877579E+01
 11
2.53226057E+01
 21
2.20277579E+01
  0
LINE
  8
0
 62
7
 10
1.48226057E+01
 20
2.62877579E+01
 11
1.48226057E+01
 21
2.20277579E+01
  0
LINE
  8
0
 62
7
 10
1.30726057E+01
 20
3.05277579E+01
 11
1.30726057E+01
 21
2.20277579E+01
  0
LINE
  8
0
 62
7
 10
-5.41773943E+01
 20
2.62877579E+01
 11
-5.41773943E+01
 21
2.20277579E+01
  0
LINE
  8
0
 62
7
 10
-6.26773943E+01
 20
2.62877579E+01
 11
-6.26773943E+01
 21
2.20277579E+01
  0
LINE
  8
0
 62
7
 10
-6.44273943E+01
 20
3.90177579E+01
 11
-6.44273943E+01
 21
2.20277579E+01
  0
LINE
  8
0
 62
7
 10
-6.26773943E+01
 20
2.62877579E+01
 11
-5.41773943E+01
 21
2.62877579E+01
  0
LINE
  8
0
 62
7
 10
1.00072606E+02
 20
2.20277579E+01
 11
4.70726057E+01
 21
2.20277579E+01
  0
LINE
  8
0
 62
4
 10
-2.99273943E+01
 20
4.38177579E+01
 11
-2.44273943E+01
 21
4.38177579E+01
  0
LINE
  8
0
 62
4
 10
-2.99273943E+01
 20
3.98177579E+01
 11
-2.44273943E+01
 21
3.98177579E+01
  0
LINE
  8
0
 62
4
 10
-4.39273943E+01
 20
4.16177579E+01
 11
-4.39273943E+01
 21
3.85496400E+01
  0
LINE
  8
0
 62
4
 10
-2.99273943E+01
 20
4.16177579E+01
 11
-2.99273943E+01
 21
3.85496400E+01
  0
LINE
  8
0
 62
4
 10
-4.14273943E+01
 20
4.20177579E+01
 11
-3.24273943E+01
 21
4.20177579E+01
  0
LINE
  8
0
 62
4
 10
-4.39273943E+01
 20
3.85496400E+01
 11
-4.14273943E+01
 21
3.85496400E+01
  0
LINE
  8
0
 62
4
 10
-2.99273943E+01
 20
3.85496400E+01
 11
-3.24273943E+01
 21
3.85496400E+01
  0
LINE
  8
0
 62
4
 10
-3.24273943E+01
 20
4.17177579E+01
 11
-3.24273943E+01
 21
4.85177579E+01
  0
LINE
  8
0
 62
4
 10
-4.14273943E+01
 20
4.17177579E+01
 11
-4.14273943E+01
 21
4.85177579E+01
  0
LINE
  8
0
 62
4
 10
-3.24273943E+01
 20
4.16177579E+01
 11
-2.99273943E+01
 21
4.16177579E+01
  0
LINE
  8
0
 62
4
 10
-3.24273943E+01
 20
4.20177579E+01
 11
-2.99273943E+01
 21
4.20177579E+01
  0
LINE
  8
0
 62
4
 10
-3.24273943E+01
 20
4.48177579E+01
 11
-2.99273943E+01
 21
4.48177579E+01
  0
LINE
  8
0
 62
4
 10
-4.39273943E+01
 20
4.16177579E+01
 11
-4.14273943E+01
 21
4.16177579E+01
  0
LINE
  8
0
 62
4
 10
-4.39273943E+01
 20
4.20177579E+01
 11
-4.14273943E+01
 21
4.20177579E+01
  0
LINE
  8
0
 62
4
 10
-4.39273943E+01
 20
4.48177579E+01
 11
-4.14273943E+01
 21
4.48177579E+01
  0
LINE
  8
0
 62
4
 10
-4.14273943E+01
 20
2.18677732E+01
 11
-3.24273943E+01
 21
2.18677732E+01
  0
LINE
  8
0
 62
4
 10
-2.99273943E+01
 20
4.48177579E+01
 11
-2.99273943E+01
 21
4.20177579E+01
  0
ARC
  8
0
 62
4
 10
-3.54290599E+01
 20
5.00160922E+01
 40
1.00166704E+00
 50
9.52762946E-02
 51
8.99047236E+01
  0
ARC
  8
0
 62
4
 10
-3.84266028E+01
 20
5.00169664E+01
 40
1.00079180E+00
 50
9.00000002E+01
 51
1.79954687E+02
  0
LINE
  8
0
 62
4
 10
-4.39273943E+01
 20
4.48177579E+01
 11
-4.39273943E+01
 21
4.20177579E+01
  0
LINE
  8
0
 62
4
 10
-4.94273943E+01
 20
4.28177579E+01
 11
-4.84273943E+01
 21
4.38177579E+01
  0
LINE
  8
0
 62
6
 10
-3.81573943E+01
 20
4.95177579E+01
 11
-3.81573943E+01
 21
4.85177579E+01
  0
LINE
  8
0
 62
6
 10
-3.56973943E+01
 20
4.95177579E+01
 11
-3.56973943E+01
 21
4.85177579E+01
  0
LINE
  8
0
 62
4
 10
-3.84273943E+01
 20
4.95177579E+01
 11
-3.84273943E+01
 21
4.85177579E+01
  0
LINE
  8
0
 62
4
 10
-3.54273943E+01
 20
4.95177579E+01
 11
-3.54273943E+01
 21
4.85177579E+01
  0
LINE
  8
0
 62
4
 10
-3.84273943E+01
 20
5.10177579E+01
 11
-3.54273943E+01
 21
5.10177579E+01
  0
LINE
  8
0
 62
4
 10
-3.94273943E+01
 20
4.95177579E+01
 11
-3.44273943E+01
 21
4.95177579E+01
  0
LINE
  8
0
 62
4
 10
-4.94273943E+01
 20
4.28177579E+01
 11
-4.94273943E+01
 21
4.08177579E+01
  0
LINE
  8
0
 62
4
 10
-4.14273943E+01
 20
4.85177579E+01
 11
-3.24273943E+01
 21
4.85177579E+01
  0
LINE
  8
0
 62
4
 10
-4.84273943E+01
 20
3.98177579E+01
 11
-4.39273943E+01
 21
3.98177579E+01
  0
LINE
  8
0
 62
4
 10
-4.84273943E+01
 20
4.38177579E+01
 11
-4.39273943E+01
 21
4.38177579E+01
  0
LINE
  8
0
 62
4
 10
-3.44273943E+01
 20
5.00177579E+01
 11
-3.44273943E+01
 21
4.95177579E+01
  0
LINE
  8
0
 62
4
 10
-3.94273943E+01
 20
5.00177579E+01
 11
-3.94273943E+01
 21
4.95177579E+01
  0
LINE
  8
0
 62
4
 10
-4.94273943E+01
 20
4.08177579E+01
 11
-4.84273943E+01
 21
3.98177579E+01
  0
LINE
  8
0
 62
4
 10
-4.84273943E+01
 20
4.38177579E+01
 11
-4.84273943E+01
 21
3.98177579E+01
  0
LINE
  8
0
 62
4
 10
-3.24273943E+01
 20
4.17177579E+01
 11
-3.24273943E+01
 21
2.18677732E+01
  0
LINE
  8
0
 62
4
 10
-4.14273943E+01
 20
4.17177579E+01
 11
-4.14273943E+01
 21
2.18677732E+01
  0
LINE
  8
0
 62
4
 10
-2.44273943E+01
 20
4.38177579E+01
 11
-2.14273943E+01
 21
4.31177579E+01
  0
LINE
  8
0
 62
4
 10
-2.44273943E+01
 20
3.98177579E+01
 11
-2.14273943E+01
 21
4.05177579E+01
  0
LINE
  8
0
 62
4
 10
-2.44273943E+01
 20
4.38177579E+01
 11
-2.44273943E+01
 21
3.98177579E+01
  0
LINE
  8
0
 62
4
 10
-1.64903952E+01
 20
4.31177579E+01
 11
-1.90903952E+01
 21
4.05177579E+01
  0
LINE
  8
0
 62
4
 10
-2.14273943E+01
 20
4.05177579E+01
 11
-1.90903952E+01
 21
4.05177579E+01
  0
LINE
  8
0
 62
4
 10
-2.14273943E+01
 20
4.31177579E+01
 11
-2.14273943E+01
 21
4.05177579E+01
  0
LINE
  8
0
 62
4
 10
-2.14273943E+01
 20
4.31177579E+01
 11
-1.64903952E+01
 21
4.31177579E+01
  0
LINE
  8
0
 62
4
 10
4.95726057E+01
 20
4.38177579E+01
 11
5.50726057E+01
 21
4.38177579E+01
  0
LINE
  8
0
 62
4
 10
4.95726057E+01
 20
3.98177579E+01
 11
5.50726057E+01
 21
3.98177579E+01
  0
LINE
  8
0
 62
4
 10
3.55726057E+01
 20
4.16177579E+01
 11
3.55726057E+01
 21
3.85496400E+01
  0
LINE
  8
0
 62
4
 10
4.95726057E+01
 20
4.16177579E+01
 11
4.95726057E+01
 21
3.85496400E+01
  0
LINE
  8
0
 62
4
 10
3.80726057E+01
 20
4.20177579E+01
 11
4.70726057E+01
 21
4.20177579E+01
  0
LINE
  8
0
 62
4
 10
3.55726057E+01
 20
3.85496400E+01
 11
3.80726057E+01
 21
3.85496400E+01
  0
LINE
  8
0
 62
4
 10
4.95726057E+01
 20
3.85496400E+01
 11
4.70726057E+01
 21
3.85496400E+01
  0
LINE
  8
0
 62
4
 10
4.70726057E+01
 20
4.17177579E+01
 11
4.70726057E+01
 21
4.85177579E+01
  0
LINE
  8
0
 62
4
 10
3.80726057E+01
 20
4.17177579E+01
 11
3.80726057E+01
 21
4.85177579E+01
  0
LINE
  8
0
 62
4
 10
4.70726057E+01
 20
4.16177579E+01
 11
4.95726057E+01
 21
4.16177579E+01
  0
LINE
  8
0
 62
4
 10
4.70726057E+01
 20
4.20177579E+01
 11
4.95726057E+01
 21
4.20177579E+01
  0
LINE
  8
0
 62
4
 10
4.70726057E+01
 20
4.48177579E+01
 11
4.95726057E+01
 21
4.48177579E+01
  0
LINE
  8
0
 62
4
 10
3.55726057E+01
 20
4.16177579E+01
 11
3.80726057E+01
 21
4.16177579E+01
  0
LINE
  8
0
 62
4
 10
3.55726057E+01
 20
4.20177579E+01
 11
3.80726057E+01
 21
4.20177579E+01
  0
LINE
  8
0
 62
4
 10
3.55726057E+01
 20
4.48177579E+01
 11
3.80726057E+01
 21
4.48177579E+01
  0
LINE
  8
0
 62
4
 10
3.80726057E+01
 20
2.18677732E+01
 11
4.70726057E+01
 21
2.18677732E+01
  0
LINE
  8
0
 62
4
 10
4.95726057E+01
 20
4.48177579E+01
 11
4.95726057E+01
 21
4.20177579E+01
  0
ARC
  8
0
 62
4
 10
4.40709401E+01
 20
5.00160922E+01
 40
1.00166704E+00
 50
9.52762946E-02
 51
8.99047236E+01
  0
ARC
  8
0
 62
4
 10
4.10733972E+01
 20
5.00169664E+01
 40
1.00079180E+00
 50
9.00000002E+01
 51
1.79954687E+02
  0
LINE
  8
0
 62
4
 10
3.55726057E+01
 20
4.48177579E+01
 11
3.55726057E+01
 21
4.20177579E+01
  0
LINE
  8
0
 62
4
 10
3.00726057E+01
 20
4.28177579E+01
 11
3.10726057E+01
 21
4.38177579E+01
  0
LINE
  8
0
 62
6
 10
4.13426057E+01
 20
4.95177579E+01
 11
4.13426057E+01
 21
4.85177579E+01
  0
LINE
  8
0
 62
6
 10
4.38026057E+01
 20
4.95177579E+01
 11
4.38026057E+01
 21
4.85177579E+01
  0
LINE
  8
0
 62
4
 10
4.10726057E+01
 20
4.95177579E+01
 11
4.10726057E+01
 21
4.85177579E+01
  0
LINE
  8
0
 62
4
 10
4.40726057E+01
 20
4.95177579E+01
 11
4.40726057E+01
 21
4.85177579E+01
  0
LINE
  8
0
 62
4
 10
4.10726057E+01
 20
5.10177579E+01
 11
4.40726057E+01
 21
5.10177579E+01
  0
LINE
  8
0
 62
4
 10
4.00726057E+01
 20
4.95177579E+01
 11
4.50726057E+01
 21
4.95177579E+01
  0
LINE
  8
0
 62
4
 10
3.00726057E+01
 20
4.28177579E+01
 11
3.00726057E+01
 21
4.08177579E+01
  0
LINE
  8
0
 62
4
 10
3.80726057E+01
 20
4.85177579E+01
 11
4.70726057E+01
 21
4.85177579E+01
  0
LINE
  8
0
 62
4
 10
3.10726057E+01
 20
3.98177579E+01
 11
3.55726057E+01
 21
3.98177579E+01
  0
LINE
  8
0
 62
4
 10
3.10726057E+01
 20
4.38177579E+01
 11
3.55726057E+01
 21
4.38177579E+01
  0
LINE
  8
0
 62
4
 10
4.50726057E+01
 20
5.00177579E+01
 11
4.50726057E+01
 21
4.95177579E+01
  0
LINE
  8
0
 62
4
 10
4.00726057E+01
 20
5.00177579E+01
 11
4.00726057E+01
 21
4.95177579E+01
  0
LINE
  8
0
 62
4
 10
3.00726057E+01
 20
4.08177579E+01
 11
3.10726057E+01
 21
3.98177579E+01
  0
LINE
  8
0
 62
4
 10
3.10726057E+01
 20
4.38177579E+01
 11
3.10726057E+01
 21
3.98177579E+01
  0
LINE
  8
0
 62
4
 10
4.70726057E+01
 20
4.17177579E+01
 11
4.70726057E+01
 21
2.18677732E+01
  0
LINE
  8
0
 62
4
 10
3.80726057E+01
 20
4.17177579E+01
 11
3.80726057E+01
 21
2.18677732E+01
  0
LINE
  8
0
 62
4
 10
5.50726057E+01
 20
4.38177579E+01
 11
5.80726057E+01
 21
4.31177579E+01
  0
LINE
  8
0
 62
4
 10
5.50726057E+01
 20
3.98177579E+01
 11
5.80726057E+01
 21
4.05177579E+01
  0
LINE
  8
0
 62
4
 10
5.50726057E+01
 20
4.38177579E+01
 11
5.50726057E+01
 21
3.98177579E+01
  0
LINE
  8
0
 62
4
 10
6.30096048E+01
 20
4.31177579E+01
 11
6.04096048E+01
 21
4.05177579E+01
  0
LINE
  8
0
 62
4
 10
5.80726057E+01
 20
4.05177579E+01
 11
6.04096048E+01
 21
4.05177579E+01
  0
LINE
  8
0
 62
4
 10
5.80726057E+01
 20
4.31177579E+01
 11
5.80726057E+01
 21
4.05177579E+01
  0
LINE
  8
0
 62
4
 10
5.80726057E+01
 20
4.31177579E+01
 11
6.30096048E+01
 21
4.31177579E+01
  0
LINE
  8
0
 62
4
 10
9.57260572E+00
 20
4.38177579E+01
 11
1.50726057E+01
 21
4.38177579E+01
  0
LINE
  8
0
 62
4
 10
9.57260572E+00
 20
3.98177579E+01
 11
1.50726057E+01
 21
3.98177579E+01
  0
LINE
  8
0
 62
4
 10
-4.42739428E+00
 20
4.16177579E+01
 11
-4.42739428E+00
 21
3.85496400E+01
  0
LINE
  8
0
 62
4
 10
9.57260572E+00
 20
4.16177579E+01
 11
9.57260572E+00
 21
3.85496400E+01
  0
LINE
  8
0
 62
4
 10
-1.92739428E+00
 20
4.20177579E+01
 11
7.07260572E+00
 21
4.20177579E+01
  0
LINE
  8
0
 62
4
 10
-4.42739426E+00
 20
3.85496400E+01
 11
-1.92739426E+00
 21
3.85496400E+01
  0
LINE
  8
0
 62
4
 10
9.57260570E+00
 20
3.85496400E+01
 11
7.07260570E+00
 21
3.85496400E+01
  0
LINE
  8
0
 62
4
 10
7.07260572E+00
 20
4.17177579E+01
 11
7.07260572E+00
 21
4.85177579E+01
  0
LINE
  8
0
 62
4
 10
-1.92739428E+00
 20
4.17177579E+01
 11
-1.92739428E+00
 21
4.85177579E+01
  0
LINE
  8
0
 62
4
 10
7.07260572E+00
 20
4.16177579E+01
 11
9.57260572E+00
 21
4.16177579E+01
  0
LINE
  8
0
 62
4
 10
7.07260572E+00
 20
4.20177579E+01
 11
9.57260572E+00
 21
4.20177579E+01
  0
LINE
  8
0
 62
4
 10
7.07260572E+00
 20
4.48177579E+01
 11
9.57260572E+00
 21
4.48177579E+01
  0
LINE
  8
0
 62
4
 10
-4.42739429E+00
 20
4.16177579E+01
 11
-1.92739428E+00
 21
4.16177579E+01
  0
LINE
  8
0
 62
4
 10
-4.42739429E+00
 20
4.20177579E+01
 11
-1.92739428E+00
 21
4.20177579E+01
  0
LINE
  8
0
 62
4
 10
-4.42739429E+00
 20
4.48177579E+01
 11
-1.92739428E+00
 21
4.48177579E+01
  0
LINE
  8
0
 62
4
 10
-1.92739429E+00
 20
2.18677732E+01
 11
7.07260572E+00
 21
2.18677732E+01
  0
LINE
  8
0
 62
4
 10
9.57260572E+00
 20
4.48177579E+01
 11
9.57260572E+00
 21
4.20177579E+01
  0
ARC
  8
0
 62
4
 10
4.07094006E+00
 20
5.00160922E+01
 40
1.00166704E+00
 50
9.52762946E-02
 51
8.99047236E+01
  0
ARC
  8
0
 62
4
 10
1.07339721E+00
 20
5.00169664E+01
 40
1.00079180E+00
 50
9.00000002E+01
 51
1.79954687E+02
  0
LINE
  8
0
 62
4
 10
-4.42739428E+00
 20
4.48177579E+01
 11
-4.42739428E+00
 21
4.20177579E+01
  0
LINE
  8
0
 62
4
 10
-9.92739428E+00
 20
4.28177579E+01
 11
-8.92739428E+00
 21
4.38177579E+01
  0
LINE
  8
0
 62
6
 10
1.34260572E+00
 20
4.95177579E+01
 11
1.34260572E+00
 21
4.85177579E+01
  0
LINE
  8
0
 62
6
 10
3.80260572E+00
 20
4.95177579E+01
 11
3.80260572E+00
 21
4.85177579E+01
  0
LINE
  8
0
 62
4
 10
1.07260572E+00
 20
4.95177579E+01
 11
1.07260572E+00
 21
4.85177579E+01
  0
LINE
  8
0
 62
4
 10
4.07260572E+00
 20
4.95177579E+01
 11
4.07260572E+00
 21
4.85177579E+01
  0
LINE
  8
0
 62
4
 10
1.07260572E+00
 20
5.10177579E+01
 11
4.07260572E+00
 21
5.10177579E+01
  0
LINE
  8
0
 62
4
 10
7.26057206E-02
 20
4.95177579E+01
 11
5.07260572E+00
 21
4.95177579E+01
  0
LINE
  8
0
 62
4
 10
-9.92739428E+00
 20
4.28177579E+01
 11
-9.92739428E+00
 21
4.08177579E+01
  0
LINE
  8
0
 62
4
 10
-1.92739428E+00
 20
4.85177579E+01
 11
7.07260572E+00
 21
4.85177579E+01
  0
LINE
  8
0
 62
4
 10
-8.92739428E+00
 20
3.98177579E+01
 11
-4.42739428E+00
 21
3.98177579E+01
  0
LINE
  8
0
 62
4
 10
-8.92739428E+00
 20
4.38177579E+01
 11
-4.42739428E+00
 21
4.38177579E+01
  0
LINE
  8
0
 62
4
 10
5.07260572E+00
 20
5.00177579E+01
 11
5.07260572E+00
 21
4.95177579E+01
  0
LINE
  8
0
 62
4
 10
7.26057206E-02
 20
5.00177579E+01
 11
7.26057206E-02
 21
4.95177579E+01
  0
LINE
  8
0
 62
4
 10
-9.92739428E+00
 20
4.08177579E+01
 11
-8.92739428E+00
 21
3.98177579E+01
  0
LINE
  8
0
 62
4
 10
-8.92739428E+00
 20
4.38177579E+01
 11
-8.92739428E+00
 21
3.98177579E+01
  0
LINE
  8
0
 62
4
 10
7.07260572E+00
 20
4.17177579E+01
 11
7.07260572E+00
 21
2.18677732E+01
  0
LINE
  8
0
 62
4
 10
-1.92739428E+00
 20
4.17177579E+01
 11
-1.92739428E+00
 21
2.18677732E+01
  0
LINE
  8
0
 62
4
 10
1.50726057E+01
 20
4.38177579E+01
 11
1.80726057E+01
 21
4.31177579E+01
  0
LINE
  8
0
 62
4
 10
1.50726057E+01
 20
3.98177579E+01
 11
1.80726057E+01
 21
4.05177579E+01
  0
LINE
  8
0
 62
4
 10
1.50726057E+01
 20
4.38177579E+01
 11
1.50726057E+01
 21
3.98177579E+01
  0
LINE
  8
0
 62
4
 10
2.30096048E+01
 20
4.31177579E+01
 11
2.04096048E+01
 21
4.05177579E+01
  0
LINE
  8
0
 62
4
 10
1.80726057E+01
 20
4.05177579E+01
 11
2.04096048E+01
 21
4.05177579E+01
  0
LINE
  8
0
 62
4
 10
1.80726057E+01
 20
4.31177579E+01
 11
1.80726057E+01
 21
4.05177579E+01
  0
LINE
  8
0
 62
4
 10
1.80726057E+01
 20
4.31177579E+01
 11
2.30096048E+01
 21
4.31177579E+01
  0
CIRCLE
  8
0
 62
7
 10
-1.24287405E+02
 20
3.05277575E+01
 40
5.00000000E+00
  0
CIRCLE
  8
0
 62
4
 10
-1.24287405E+02
 20
3.05277575E+01
 40
4.00000000E+00
  0
ARC
  8
0
 62
7
 10
-1.24292389E+02
 20
3.05227653E+01
 40
9.50105469E+00
 50
2.96605398E+02
 51
3.33529257E+02
  0
ARC
  8
0
 62
7
 10
-1.24287405E+02
 20
3.05277577E+01
 40
9.49882072E+00
 50
2.06511100E+02
 51
2.43488900E+02
  0
ARC
  8
0
 62
7
 10
-1.24292397E+02
 20
3.05227735E+01
 40
9.50105520E+00
 50
1.16470744E+02
 51
1.53394601E+02
  0
ARC
  8
0
 62
7
 10
-1.24287405E+02
 20
3.05277577E+01
 40
9.50328916E+00
 50
2.65650517E+01
 51
6.34349484E+01
  0
CIRCLE
  8
0
 62
7
 10
-1.24287405E+02
 20
3.05277575E+01
 40
8.50000000E+00
  0
CIRCLE
  8
0
 62
7
 10
-1.24287405E+02
 20
3.05277575E+01
 40
2.50000000E+00
  0
LINE
  8
0
  6
CENTER
 62
2
 10
-1.34554515E+02
 20
3.05277579E+01
 11
-1.14288395E+02
 21
3.05277579E+01
  0
LINE
  8
0
  6
CENTER
 62
2
 10
-1.24287405E+02
 20
5.23755563E+01
 11
-1.24287405E+02
 21
1.98778399E+01
  0
LINE
  8
0
 62
7
 10
-1.28527405E+02
 20
3.90277579E+01
 11
-1.20037405E+02
 21
3.90277579E+01
  0
LINE
  8
0
 62
7
 10
-1.28527405E+02
 20
2.20277579E+01
 11
-1.20037405E+02
 21
2.20277579E+01
  0
LINE
  8
0
 62
7
 10
-1.32787405E+02
 20
3.47777579E+01
 11
-1.32787405E+02
 21
2.62877579E+01
  0
LINE
  8
0
 62
7
 10
-1.15787405E+02
 20
3.47777579E+01
 11
-1.15787405E+02
 21
2.62877579E+01
  0
LINE
  8
0
 62
4
 10
-1.24287404E+02
 20
2.59089559E+01
 11
-1.28287404E+02
 21
2.82183570E+01
  0
LINE
  8
0
 62
4
 10
-1.20287405E+02
 20
2.82183572E+01
 11
-1.24287405E+02
 21
2.59089561E+01
  0
LINE
  8
0
 62
4
 10
-1.20287405E+02
 20
3.28371591E+01
 11
-1.20287405E+02
 21
2.82183570E+01
  0
LINE
  8
0
 62
4
 10
-1.24287405E+02
 20
3.51465598E+01
 11
-1.20287405E+02
 21
3.28371587E+01
  0
LINE
  8
0
 62
4
 10
-1.28287405E+02
 20
3.28371585E+01
 11
-1.24287405E+02
 21
3.51465596E+01
  0
LINE
  8
0
 62
4
 10
-1.28287404E+02
 20
2.82183566E+01
 11
-1.28287404E+02
 21
3.28371587E+01
  0
CIRCLE
  8
0
 62
2
 10
-1.24287405E+02
 20
3.05277579E+01
 40
2.06700000E+00
  0
ARC
  8
0
 62
2
 10
-1.24287405E+02
 20
3.05277579E+01
 40
4.18800000E+00
 50
1.02767362E+02
 51
1.37232638E+02
  0
ARC
  8
0
 62
2
 10
-1.24287405E+02
 20
3.05277579E+01
 40
4.18800000E+00
 50
1.62767362E+02
 51
1.97232638E+02
  0
ARC
  8
0
 62
2
 10
-1.24287405E+02
 20
3.05277579E+01
 40
4.18800000E+00
 50
2.22767362E+02
 51
2.57232638E+02
  0
ARC
  8
0
 62
2
 10
-1.24287405E+02
 20
3.05277579E+01
 40
4.18800000E+00
 50
2.82767362E+02
 51
3.17232638E+02
  0
ARC
  8
0
 62
2
 10
-1.24287405E+02
 20
3.05277579E+01
 40
4.18800000E+00
 50
3.42767362E+02
 51
1.72326382E+01
  0
ARC
  8
0
 62
2
 10
-1.24287405E+02
 20
3.05277579E+01
 40
4.18800000E+00
 50
4.27673618E+01
 51
7.72326384E+01
  0
LINE
  8
0
 62
4
 10
-1.29499444E+02
 20
4.40524913E+01
 11
-1.29837405E+02
 21
4.42477579E+01
  0
LINE
  8
0
 62
6
 10
-1.25517405E+02
 20
4.69277579E+01
 11
-1.25517405E+02
 21
4.55577579E+01
  0
LINE
  8
0
 62
6
 10
-1.23057405E+02
 20
4.69277579E+01
 11
-1.23057405E+02
 21
4.55577579E+01
  0
LINE
  8
0
 62
4
 10
-1.25787405E+02
 20
4.69277579E+01
 11
-1.25787405E+02
 21
4.58277579E+01
  0
LINE
  8
0
 62
4
 10
-1.22787405E+02
 20
4.69277579E+01
 11
-1.22787405E+02
 21
4.58277579E+01
  0
LINE
  8
0
 62
4
 10
-1.25287405E+02
 20
3.98277579E+01
 11
-1.25287405E+02
 21
3.95277579E+01
  0
LINE
  8
0
 62
4
 10
-1.25287405E+02
 20
4.41277579E+01
 11
-1.25287405E+02
 21
4.38277579E+01
  0
LINE
  8
0
 62
4
 10
-1.26337405E+02
 20
4.38277579E+01
 11
-1.26337405E+02
 21
3.98277579E+01
  0
LINE
  8
0
 62
4
 10
-1.22237405E+02
 20
4.38277579E+01
 11
-1.22237405E+02
 21
3.98277579E+01
  0
LINE
  8
0
 62
4
 10
-1.23287405E+02
 20
3.98277579E+01
 11
-1.23287405E+02
 21
3.95277579E+01
  0
LINE
  8
0
 62
4
 10
-1.23287405E+02
 20
4.41277579E+01
 11
-1.23287405E+02
 21
4.38277579E+01
  0
LINE
  8
0
 62
4
 10
-1.23287405E+02
 20
4.41277579E+01
 11
-1.25287405E+02
 21
4.41277579E+01
  0
LINE
  8
0
 62
4
 10
-1.22237405E+02
 20
4.38277579E+01
 11
-1.26337405E+02
 21
4.38277579E+01
  0
LINE
  8
0
 62
4
 10
-1.22237405E+02
 20
3.98277579E+01
 11
-1.26337405E+02
 21
3.98277579E+01
  0
LINE
  8
0
 62
4
 10
-1.21037405E+02
 20
4.55277579E+01
 11
-1.21037405E+02
 21
4.20277579E+01
  0
LINE
  8
0
 62
4
 10
-1.21037405E+02
 20
4.20277579E+01
 11
-1.22237405E+02
 21
4.20277579E+01
  0
LINE
  8
0
 62
4
 10
-1.21037405E+02
 20
4.16277579E+01
 11
-1.22237405E+02
 21
4.16277579E+01
  0
LINE
  8
0
 62
4
 10
-1.21037405E+02
 20
4.16277579E+01
 11
-1.21037405E+02
 21
3.90277579E+01
  0
LINE
  8
0
 62
4
 10
-1.27537405E+02
 20
4.55277579E+01
 11
-1.27537405E+02
 21
3.90277579E+01
  0
ARC
  8
0
 62
4
 10
-1.22787658E+02
 20
5.00275051E+01
 40
1.00025280E+00
 50
1.44788446E-02
 51
9.00000002E+01
  0
ARC
  8
0
 62
4
 10
-1.25788817E+02
 20
5.00291702E+01
 40
9.98588677E-01
 50
8.99189656E+01
 51
1.80081034E+02
  0
ARC
  8
0
 62
4
 10
-1.28788553E+02
 20
4.51451135E+01
 40
4.98857363E-01
 50
1.80270562E+02
 51
2.09445368E+02
  0
ARC
  8
0
 62
4
 10
-1.29587201E+02
 20
4.46808921E+01
 40
5.00207143E-01
 50
1.79786293E+02
 51
2.39986760E+02
  0
ARC
  8
0
 62
4
 10
-1.27289067E+02
 20
4.72294204E+01
 40
4.98340176E-01
 50
8.98088454E+01
 51
1.80191155E+02
  0
ARC
  8
0
 62
4
 10
-1.21287409E+02
 20
4.72277536E+01
 40
5.00004290E-01
 50
4.91607912E-04
 51
9.00000002E+01
  0
ARC
  8
0
 62
4
 10
-1.27789067E+02
 20
4.77294204E+01
 40
7.98339134E-01
 50
8.98806771E+01
 51
1.80119323E+02
  0
ARC
  8
0
 62
4
 10
-1.20787408E+02
 20
4.77277546E+01
 40
8.00003254E-01
 50
2.33015759E-04
 51
9.00000002E+01
  0
LINE
  8
0
 62
4
 10
-1.22787405E+02
 20
4.90277579E+01
 11
-1.25787405E+02
 21
4.90277579E+01
  0
LINE
  8
0
 62
4
 10
-1.26787405E+02
 20
5.00277579E+01
 11
-1.26787405E+02
 21
4.95277579E+01
  0
LINE
  8
0
 62
4
 10
-1.21787405E+02
 20
5.00277579E+01
 11
-1.21787405E+02
 21
4.95277579E+01
  0
LINE
  8
0
 62
4
 10
-1.22787405E+02
 20
5.10277579E+01
 11
-1.25787405E+02
 21
5.10277579E+01
  0
LINE
  8
0
 62
4
 10
-1.21787405E+02
 20
4.95277579E+01
 11
-1.26787405E+02
 21
4.95277579E+01
  0
LINE
  8
0
 62
4
 10
-1.27787405E+02
 20
4.13277579E+01
 11
-1.28587405E+02
 21
4.13277579E+01
  0
LINE
  8
0
 62
4
 10
-1.19987405E+02
 20
4.20277579E+01
 11
-1.20787405E+02
 21
4.20277579E+01
  0
LINE
  8
0
 62
4
 10
-1.22787405E+02
 20
4.95277579E+01
 11
-1.22787405E+02
 21
4.85277579E+01
  0
LINE
  8
0
 62
4
 10
-1.25787405E+02
 20
4.95277579E+01
 11
-1.25787405E+02
 21
4.85277579E+01
  0
LINE
  8
0
 62
4
 10
-1.28712405E+02
 20
4.73527579E+01
 11
-1.29212405E+02
 21
4.73527579E+01
  0
LINE
  8
0
 62
4
 10
-1.29212405E+02
 20
4.73527579E+01
 11
-1.29212405E+02
 21
4.49322619E+01
  0
LINE
  8
0
 62
4
 10
-1.28712405E+02
 20
4.73527579E+01
 11
-1.28712405E+02
 21
4.48527579E+01
  0
LINE
  8
0
 62
4
 10
-1.21037405E+02
 20
4.48277579E+01
 11
-1.27537405E+02
 21
4.48277579E+01
  0
LINE
  8
0
 62
4
 10
-1.21037405E+02
 20
4.55277579E+01
 11
-1.27537405E+02
 21
4.55277579E+01
  0
LINE
  8
0
 62
4
 10
-1.20787405E+02
 20
4.72277579E+01
 11
-1.20937405E+02
 21
4.72277579E+01
  0
LINE
  8
0
 62
4
 10
-1.20937405E+02
 20
4.72277579E+01
 11
-1.20937405E+02
 21
4.20277579E+01
  0
LINE
  8
0
 62
4
 10
-1.28587405E+02
 20
4.44517579E+01
 11
-1.28801510E+02
 21
4.45759386E+01
  0
LINE
  8
0
 62
4
 10
-1.30087405E+02
 20
4.68277579E+01
 11
-1.30087405E+02
 21
4.46827579E+01
  0
LINE
  8
0
 62
4
 10
-1.21287405E+02
 20
4.77277579E+01
 11
-1.27287405E+02
 21
4.77277579E+01
  0
LINE
  8
0
 62
4
 10
-1.28587405E+02
 20
4.13277579E+01
 11
-1.28587405E+02
 21
4.77277579E+01
  0
LINE
  8
0
 62
4
 10
-1.19987405E+02
 20
4.77277579E+01
 11
-1.19987405E+02
 21
4.20277579E+01
  0
LINE
  8
0
 62
6
 10
-1.23057405E+02
 20
4.90277579E+01
 11
-1.23057405E+02
 21
4.85277579E+01
  0
LINE
  8
0
 62
6
 10
-1.25517405E+02
 20
4.90277579E+01
 11
-1.25517405E+02
 21
4.85277579E+01
  0
LINE
  8
0
 62
4
 10
-1.22142405E+02
 20
4.69277579E+01
 11
-1.26432405E+02
 21
4.69277579E+01
  0
LINE
  8
0
 62
4
 10
-1.22002405E+02
 20
4.77277579E+01
 11
-1.22142405E+02
 21
4.69277579E+01
  0
LINE
  8
0
 62
4
 10
-1.26572405E+02
 20
4.77277579E+01
 11
-1.26432405E+02
 21
4.69277579E+01
  0
LINE
  8
0
 62
4
 10
-1.29287405E+02
 20
4.68277579E+01
 11
-1.30087405E+02
 21
4.68277579E+01
  0
LINE
  8
0
 62
4
 10
-1.29287405E+02
 20
4.68277579E+01
 11
-1.29287405E+02
 21
4.51427579E+01
  0
LINE
  8
0
 62
4
 10
-1.28587405E+02
 20
4.35255356E+01
 11
-1.29056923E+02
 21
4.37968129E+01
  0
LINE
  8
0
 62
4
 10
-1.20787405E+02
 20
4.72277579E+01
 11
-1.20787405E+02
 21
4.20277579E+01
  0
LINE
  8
0
 62
4
 10
-1.27787405E+02
 20
4.72277579E+01
 11
-1.27787405E+02
 21
4.13277579E+01
  0
LINE
  8
0
 62
4
 10
-1.20787405E+02
 20
4.85277579E+01
 11
-1.27787405E+02
 21
4.85277579E+01
  0
ARC
  8
0
 62
4
 10
-1.24287405E+02
 20
3.05277579E+01
 40
8.65000000E+00
 50
3.49314255E+02
 51
1.06857449E+01
  0
LINE
  8
0
 62
4
 10
-1.20937405E+02
 20
4.20277579E+01
 11
-1.18908668E+02
 21
3.83624044E+01
  0
LINE
  8
0
 62
4
 10
-1.20787405E+02
 20
4.20277579E+01
 11
-1.18642391E+02
 21
3.81727771E+01
  0
LINE
  8
0
 62
4
 10
-1.28712405E+02
 20
4.48527579E+01
 11
-1.31291465E+02
 21
3.69479658E+01
  0
LINE
  8
0
 62
4
 10
-1.29810513E+02
 20
4.10034677E+01
 11
-1.31051458E+02
 21
3.71999838E+01
  0
LINE
  8
0
 62
4
 10
-1.29212405E+02
 20
4.49322619E+01
 11
-1.31669136E+02
 21
3.74024063E+01
  0
LINE
  8
0
 62
4
 10
-1.29953101E+02
 20
4.10500386E+01
 11
-1.29810499E+02
 21
4.10035125E+01
  0
LINE
  8
0
 62
4
 10
-1.31193796E+02
 20
3.72473193E+01
 11
-1.31669136E+02
 21
3.74024063E+01
  0
LINE
  8
0
 62
4
 10
-1.23287405E+02
 20
3.95277579E+01
 11
-1.25287405E+02
 21
3.95277579E+01
  0
LINE
  8
0
 62
4
 10
-1.25787405E+02
 20
4.58277579E+01
 11
-1.25487405E+02
 21
4.55277579E+01
  0
LINE
  8
0
 62
4
 10
-1.22787405E+02
 20
4.58277579E+01
 11
-1.23087405E+02
 21
4.55277579E+01
  0
LINE
  8
0
 62
4
 10
-1.25787405E+02
 20
4.58277579E+01
 11
-1.25487405E+02
 21
4.55277579E+01
  0
LINE
  8
0
 62
4
 10
-1.22787405E+02
 20
4.58277579E+01
 11
-1.23087405E+02
 21
4.55277579E+01
  0
ARC
  8
0
 62
4
 10
-1.24287405E+02
 20
3.05277579E+01
 40
8.65000000E+00
 50
1.69314255E+02
 51
1.90685745E+02
  0
ARC
  8
0
 62
4
 10
-1.24287405E+02
 20
3.05277579E+01
 40
8.65000000E+00
 50
2.59314255E+02
 51
2.80685745E+02
  0
LINE
  8
0
 62
4
 10
-1.25337405E+02
 20
4.28277579E+01
 11
-1.25337405E+02
 21
4.08277579E+01
  0
LINE
  8
0
 62
4
 10
-1.23237405E+02
 20
4.28277579E+01
 11
-1.25337405E+02
 21
4.28277579E+01
  0
LINE
  8
0
 62
4
 10
-1.23237405E+02
 20
4.28277579E+01
 11
-1.23237405E+02
 21
4.08277579E+01
  0
LINE
  8
0
 62
4
 10
-1.23237405E+02
 20
4.08277579E+01
 11
-1.25337405E+02
 21
4.08277579E+01
  0
LINE
  8
0
 62
4
 10
-1.26337405E+02
 20
4.38277579E+01
 11
-1.25337405E+02
 21
4.28277579E+01
  0
LINE
  8
0
 62
4
 10
-1.23237405E+02
 20
4.28277579E+01
 11
-1.22237405E+02
 21
4.38277579E+01
  0
LINE
  8
0
 62
4
 10
-1.25337405E+02
 20
4.08277579E+01
 11
-1.26337405E+02
 21
3.98277579E+01
  0
LINE
  8
0
 62
4
 10
-1.23237405E+02
 20
4.08277579E+01
 11
-1.22237405E+02
 21
3.98277579E+01
  0
ARC
  8
0
 62
4
 10
1.43634007E+02
 20
5.00291702E+01
 40
9.98588677E-01
 50
3.59918966E+02
 51
9.00810348E+01
  0
ARC
  8
0
 62
4
 10
1.40632848E+02
 20
5.00275051E+01
 40
1.00025280E+00
 50
9.00000002E+01
 51
1.79985521E+02
  0
LINE
  8
0
  6
CENTER
 62
2
 10
1.42132595E+02
 20
2.01877579E+01
 11
1.42132595E+02
 21
5.27828806E+01
  0
ARC
  8
0
 62
7
 10
1.42139252E+02
 20
3.05277579E+01
 40
8.49958100E+00
 50
1.12894629E+02
 51
2.47105371E+02
  0
ARC
  8
0
 62
7
 10
1.42138718E+02
 20
3.05285610E+01
 40
8.49387723E+00
 50
2.92817324E+02
 51
6.71826762E+01
  0
ARC
  8
0
 62
7
 10
1.42147621E+02
 20
3.05158015E+01
 40
9.49428151E+00
 50
2.66589370E+01
 51
6.37062909E+01
  0
ARC
  8
0
 62
7
 10
1.42135923E+02
 20
3.05244302E+01
 40
9.49435798E+00
 50
2.96502094E+02
 51
3.33497906E+02
  0
ARC
  8
0
 62
7
 10
1.42135924E+02
 20
3.05310867E+01
 40
9.50328580E+00
 50
2.06520101E+02
 51
2.43479899E+02
  0
ARC
  8
0
 62
7
 10
1.42130927E+02
 20
3.05194422E+01
 40
9.50551887E+00
 50
1.16479727E+02
 51
1.53385619E+02
  0
LINE
  8
0
  6
CENTER
 62
2
 10
1.31280311E+02
 20
3.05277579E+01
 11
1.52702595E+02
 21
3.05277579E+01
  0
LINE
  8
0
 62
7
 10
1.38832595E+02
 20
2.20277579E+01
 11
1.38832595E+02
 21
3.90277579E+01
  0
LINE
  8
0
 62
7
 10
1.45432595E+02
 20
2.20277579E+01
 11
1.45432595E+02
 21
3.90277579E+01
  0
LINE
  8
0
 62
7
 10
1.37892595E+02
 20
2.20277579E+01
 11
1.46372595E+02
 21
2.20277579E+01
  0
LINE
  8
0
 62
7
 10
1.37892595E+02
 20
3.90277579E+01
 11
1.46353329E+02
 21
3.90277579E+01
  0
LINE
  8
0
 62
7
 10
1.33632595E+02
 20
2.62877579E+01
 11
1.33632595E+02
 21
3.47777579E+01
  0
LINE
  8
0
 62
4
 10
1.47344634E+02
 20
4.40524913E+01
 11
1.47682595E+02
 21
4.42477579E+01
  0
LINE
  8
0
 62
6
 10
1.43362595E+02
 20
4.69277579E+01
 11
1.43362595E+02
 21
4.55577579E+01
  0
LINE
  8
0
 62
6
 10
1.40902595E+02
 20
4.69277579E+01
 11
1.40902595E+02
 21
4.55577579E+01
  0
LINE
  8
0
 62
4
 10
1.43632595E+02
 20
4.69277579E+01
 11
1.43632595E+02
 21
4.58277579E+01
  0
LINE
  8
0
 62
4
 10
1.40632595E+02
 20
4.69277579E+01
 11
1.40632595E+02
 21
4.58277579E+01
  0
LINE
  8
0
 62
4
 10
1.43432595E+02
 20
4.05277579E+01
 11
1.44182595E+02
 21
3.98277579E+01
  0
LINE
  8
0
 62
4
 10
1.43432595E+02
 20
4.31277579E+01
 11
1.44182595E+02
 21
4.38277579E+01
  0
LINE
  8
0
 62
4
 10
1.43432595E+02
 20
4.31277579E+01
 11
1.43432595E+02
 21
4.05277579E+01
  0
LINE
  8
0
 62
4
 10
1.43132595E+02
 20
3.98277579E+01
 11
1.43132595E+02
 21
3.95277579E+01
  0
LINE
  8
0
 62
4
 10
1.43132595E+02
 20
4.41277579E+01
 11
1.43132595E+02
 21
4.38277579E+01
  0
LINE
  8
0
 62
4
 10
1.44182595E+02
 20
4.38277579E+01
 11
1.44182595E+02
 21
3.98277579E+01
  0
LINE
  8
0
 62
4
 10
1.40082595E+02
 20
4.38277579E+01
 11
1.40832595E+02
 21
4.31277579E+01
  0
LINE
  8
0
 62
4
 10
1.40832595E+02
 20
4.31277579E+01
 11
1.40832595E+02
 21
4.05277579E+01
  0
LINE
  8
0
 62
4
 10
1.40082595E+02
 20
4.38277579E+01
 11
1.40082595E+02
 21
3.98277579E+01
  0
LINE
  8
0
 62
4
 10
1.41132595E+02
 20
3.98277579E+01
 11
1.41132595E+02
 21
3.95277579E+01
  0
LINE
  8
0
 62
4
 10
1.41132595E+02
 20
4.41277579E+01
 11
1.41132595E+02
 21
4.38277579E+01
  0
LINE
  8
0
 62
4
 10
1.40832595E+02
 20
4.31277579E+01
 11
1.43432595E+02
 21
4.31277579E+01
  0
LINE
  8
0
 62
4
 10
1.41132595E+02
 20
4.41277579E+01
 11
1.43132595E+02
 21
4.41277579E+01
  0
LINE
  8
0
 62
4
 10
1.40082595E+02
 20
4.38277579E+01
 11
1.44182595E+02
 21
4.38277579E+01
  0
LINE
  8
0
 62
4
 10
1.40082595E+02
 20
3.98277579E+01
 11
1.44182595E+02
 21
3.98277579E+01
  0
LINE
  8
0
 62
4
 10
1.38882595E+02
 20
4.55277579E+01
 11
1.38882595E+02
 21
4.20277579E+01
  0
LINE
  8
0
 62
4
 10
1.38882595E+02
 20
4.20277579E+01
 11
1.40082595E+02
 21
4.20277579E+01
  0
LINE
  8
0
 62
4
 10
1.38882595E+02
 20
4.16277579E+01
 11
1.40082595E+02
 21
4.16277579E+01
  0
LINE
  8
0
 62
4
 10
1.38882595E+02
 20
4.16277579E+01
 11
1.38882595E+02
 21
3.90277579E+01
  0
LINE
  8
0
 62
4
 10
1.45382595E+02
 20
4.55277579E+01
 11
1.45382595E+02
 21
3.90277579E+01
  0
ARC
  8
0
 62
4
 10
1.46633743E+02
 20
4.51451135E+01
 40
4.98857363E-01
 50
3.30554632E+02
 51
3.59729437E+02
  0
ARC
  8
0
 62
4
 10
1.47432392E+02
 20
4.46808921E+01
 40
5.00207143E-01
 50
3.00013240E+02
 51
2.13706628E-01
  0
ARC
  8
0
 62
4
 10
1.45134258E+02
 20
4.72294204E+01
 40
4.98340176E-01
 50
3.59808845E+02
 51
9.01911544E+01
  0
ARC
  8
0
 62
4
 10
1.39132599E+02
 20
4.72277536E+01
 40
5.00004290E-01
 50
9.00000002E+01
 51
1.79999508E+02
  0
ARC
  8
0
 62
4
 10
1.45634258E+02
 20
4.77294204E+01
 40
7.98339134E-01
 50
3.59880678E+02
 51
9.01193227E+01
  0
ARC
  8
0
 62
4
 10
1.38632598E+02
 20
4.77277546E+01
 40
8.00003254E-01
 50
9.00000002E+01
 51
1.79999767E+02
  0
LINE
  8
0
 62
4
 10
1.40632595E+02
 20
4.90277579E+01
 11
1.43632595E+02
 21
4.90277579E+01
  0
LINE
  8
0
 62
4
 10
1.44632595E+02
 20
5.00277579E+01
 11
1.44632595E+02
 21
4.95277579E+01
  0
LINE
  8
0
 62
4
 10
1.39632595E+02
 20
5.00277579E+01
 11
1.39632595E+02
 21
4.95277579E+01
  0
LINE
  8
0
 62
4
 10
1.39632595E+02
 20
4.95277579E+01
 11
1.44632595E+02
 21
4.95277579E+01
  0
LINE
  8
0
 62
4
 10
1.45632595E+02
 20
4.13277579E+01
 11
1.46432595E+02
 21
4.13277579E+01
  0
LINE
  8
0
 62
4
 10
1.37832595E+02
 20
4.20277579E+01
 11
1.38632595E+02
 21
4.20277579E+01
  0
LINE
  8
0
 62
4
 10
1.40632595E+02
 20
4.95277579E+01
 11
1.40632595E+02
 21
4.85277579E+01
  0
LINE
  8
0
 62
4
 10
1.43632595E+02
 20
4.95277579E+01
 11
1.43632595E+02
 21
4.85277579E+01
  0
LINE
  8
0
 62
4
 10
1.46557595E+02
 20
4.73527579E+01
 11
1.47057595E+02
 21
4.73527579E+01
  0
LINE
  8
0
 62
4
 10
1.47057595E+02
 20
4.73527579E+01
 11
1.47057595E+02
 21
4.49322619E+01
  0
LINE
  8
0
 62
4
 10
1.46557595E+02
 20
4.73527579E+01
 11
1.46557595E+02
 21
4.48527579E+01
  0
LINE
  8
0
 62
4
 10
1.38882595E+02
 20
4.48277579E+01
 11
1.45382595E+02
 21
4.48277579E+01
  0
LINE
  8
0
 62
4
 10
1.38882595E+02
 20
4.55277579E+01
 11
1.45382595E+02
 21
4.55277579E+01
  0
LINE
  8
0
 62
4
 10
1.38632595E+02
 20
4.72277579E+01
 11
1.38782595E+02
 21
4.72277579E+01
  0
LINE
  8
0
 62
4
 10
1.38782595E+02
 20
4.72277579E+01
 11
1.38782595E+02
 21
4.20277579E+01
  0
LINE
  8
0
 62
4
 10
1.46432595E+02
 20
4.44517579E+01
 11
1.46646700E+02
 21
4.45759386E+01
  0
LINE
  8
0
 62
4
 10
1.47932595E+02
 20
4.68277579E+01
 11
1.47932595E+02
 21
4.46827579E+01
  0
LINE
  8
0
 62
4
 10
1.39132595E+02
 20
4.77277579E+01
 11
1.45132595E+02
 21
4.77277579E+01
  0
LINE
  8
0
 62
4
 10
1.46432595E+02
 20
4.13277579E+01
 11
1.46432595E+02
 21
4.77277579E+01
  0
LINE
  8
0
 62
4
 10
1.37832595E+02
 20
4.77277579E+01
 11
1.37832595E+02
 21
4.20277579E+01
  0
LINE
  8
0
 62
6
 10
1.40902595E+02
 20
4.90277579E+01
 11
1.40902595E+02
 21
4.85277579E+01
  0
LINE
  8
0
 62
6
 10
1.43362595E+02
 20
4.90277579E+01
 11
1.43362595E+02
 21
4.85277579E+01
  0
LINE
  8
0
 62
4
 10
1.39987595E+02
 20
4.69277579E+01
 11
1.44277595E+02
 21
4.69277579E+01
  0
LINE
  8
0
 62
4
 10
1.39847595E+02
 20
4.77277579E+01
 11
1.39987595E+02
 21
4.69277579E+01
  0
LINE
  8
0
 62
4
 10
1.44417595E+02
 20
4.77277579E+01
 11
1.44277595E+02
 21
4.69277579E+01
  0
LINE
  8
0
 62
4
 10
1.47132595E+02
 20
4.68277579E+01
 11
1.47932595E+02
 21
4.68277579E+01
  0
LINE
  8
0
 62
4
 10
1.47132595E+02
 20
4.68277579E+01
 11
1.47132595E+02
 21
4.51427579E+01
  0
LINE
  8
0
 62
4
 10
1.46432595E+02
 20
4.35255356E+01
 11
1.46902113E+02
 21
4.37968129E+01
  0
LINE
  8
0
 62
4
 10
1.38632595E+02
 20
4.72277579E+01
 11
1.38632595E+02
 21
4.20277579E+01
  0
LINE
  8
0
 62
4
 10
1.45632595E+02
 20
4.72277579E+01
 11
1.45632595E+02
 21
4.13277579E+01
  0
LINE
  8
0
 62
4
 10
1.38632595E+02
 20
4.85277579E+01
 11
1.45632595E+02
 21
4.85277579E+01
  0
CIRCLE
  8
0
 62
4
 10
1.42132595E+02
 20
4.18277579E+01
 40
1.30000000E+00
  0
ARC
  8
0
 62
4
 10
1.42132595E+02
 20
3.05277579E+01
 40
8.65000000E+00
 50
1.69314255E+02
 51
1.90685745E+02
  0
LINE
  8
0
 62
4
 10
1.38782595E+02
 20
4.20277579E+01
 11
1.36749872E+02
 21
3.83552024E+01
  0
LINE
  8
0
 62
4
 10
1.38632595E+02
 20
4.20277579E+01
 11
1.36483509E+02
 21
3.81654584E+01
  0
LINE
  8
0
 62
4
 10
1.46557595E+02
 20
4.48527579E+01
 11
1.49139723E+02
 21
3.69385650E+01
  0
LINE
  8
0
 62
4
 10
1.47655704E+02
 20
4.10034677E+01
 11
1.48899793E+02
 21
3.71903460E+01
  0
LINE
  8
0
 62
4
 10
1.47057595E+02
 20
4.49322619E+01
 11
1.49514327E+02
 21
3.74024063E+01
  0
LINE
  8
0
 62
4
 10
1.47798291E+02
 20
4.10500386E+01
 11
1.47655689E+02
 21
4.10035125E+01
  0
LINE
  8
0
 62
4
 10
1.49038987E+02
 20
3.72473193E+01
 11
1.49514327E+02
 21
3.74024063E+01
  0
LINE
  8
0
 62
4
 10
1.40832595E+02
 20
4.05277579E+01
 11
1.40082595E+02
 21
3.98277579E+01
  0
LINE
  8
0
 62
4
 10
1.40832595E+02
 20
4.05277579E+01
 11
1.43432595E+02
 21
4.05277579E+01
  0
LINE
  8
0
 62
4
 10
1.41132595E+02
 20
3.95277579E+01
 11
1.43132595E+02
 21
3.95277579E+01
  0
LINE
  8
0
 62
4
 10
1.43632595E+02
 20
4.58277579E+01
 11
1.43332595E+02
 21
4.55277579E+01
  0
LINE
  8
0
 62
4
 10
1.40632595E+02
 20
4.58277579E+01
 11
1.40932595E+02
 21
4.55277579E+01
  0
LINE
  8
0
 62
4
 10
1.43632595E+02
 20
4.58277579E+01
 11
1.43332595E+02
 21
4.55277579E+01
  0
LINE
  8
0
 62
4
 10
1.40632595E+02
 20
4.58277579E+01
 11
1.40932595E+02
 21
4.55277579E+01
  0
LINE
  8
0
 62
7
 10
1.50632595E+02
 20
2.62877579E+01
 11
1.50632595E+02
 21
3.47777579E+01
  0
ARC
  8
0
 62
4
 10
1.42132595E+02
 20
3.05277579E+01
 40
8.65000000E+00
 50
3.49314256E+02
 51
1.06857436E+01
  0
ARC
  8
0
 62
4
 10
1.42132595E+02
 20
3.05277579E+01
 40
8.65000000E+00
 50
2.59314255E+02
 51
2.80685745E+02
  0
LINE
  8
0
 62
4
 10
1.40632595E+02
 20
5.10277579E+01
 11
1.43632595E+02
 21
5.10277579E+01
  0
LINE
  8
0
  6
PHANTOM
 10
6.72538455E+01
 20
5.36680121E+01
 11
6.72538965E+01
 21
9.56282965E+01
  0
LINE
  8
0
  6
PHANTOM
 10
-1.29473001E+01
 20
5.36681095E+01
 11
-1.29472492E+01
 21
9.56283940E+01
  0
TEXT
  8
0
 62
7
 10
-2.97633513E+01
 20
7.01277157E+01
 40
1.50000000E+00
  1
PBDATS16-7
 50
3.59999930E+02
 41
1.00000000E+00
  7
MONOTXT
  0
LINE
  8
0
 62
7
 10
4.70726055E+01
 20
8.60276224E+01
 11
1.00072606E+02
 21
8.60275580E+01
  0
LINE
  8
0
 62
7
 10
4.70725848E+01
 20
6.90276224E+01
 11
1.00072585E+02
 21
6.90275580E+01
  0
ARC
  8
0
 62
7
 10
1.75725952E+01
 20
7.75276582E+01
 40
2.06700000E+00
 50
3.89712146E+01
 51
1.24995751E+02
  0
ARC
  8
0
 62
2
 10
1.75784234E+01
 20
7.75276597E+01
 40
2.50000000E+00
 50
3.13321409E+01
 51
1.33408770E+02
  0
ARC
  8
0
 62
7
 10
1.90945110E+01
 20
7.75233397E+01
 40
6.02191737E+00
 50
1.35185612E+02
 51
1.60558872E+02
  0
LINE
  8
0
 62
7
 10
1.30725976E+01
 20
7.95276637E+01
 11
1.30726055E+01
 21
8.60276637E+01
  0
LINE
  8
0
 62
7
 10
-3.24274152E+01
 20
6.90277190E+01
 11
-1.92741515E+00
 21
6.90276819E+01
  0
LINE
  8
0
 62
7
 10
-3.24273945E+01
 20
8.60277190E+01
 11
-1.92739450E+00
 21
8.60276819E+01
  0
LINE
  8
0
 62
2
 10
-8.44574073E+01
 20
7.54607822E+01
 11
-7.74274073E+01
 21
7.54607736E+01
  0
LINE
  8
0
 62
2
 10
-8.44574023E+01
 20
7.95947822E+01
 11
-7.74274023E+01
 21
7.95947736E+01
  0
LINE
  8
0
 62
2
 10
-9.23604023E+01
 20
7.95947918E+01
 11
-8.84574023E+01
 21
7.95947870E+01
  0
LINE
  8
0
 62
2
 10
-9.23604073E+01
 20
7.54607918E+01
 11
-8.84574073E+01
 21
7.54607870E+01
  0
CIRCLE
  8
0
 62
7
 10
7.75725952E+01
 20
7.75275853E+01
 40
2.06700000E+00
  0
CIRCLE
  8
0
 62
7
 10
-5.74274048E+01
 20
7.75277493E+01
 40
2.06700000E+00
  0
ARC
  8
0
 62
7
 10
7.90930822E+01
 20
7.75238565E+01
 40
6.02048817E+00
 50
1.35180010E+02
 51
1.79964462E+02
  0
ARC
  8
0
 62
7
 10
7.90966068E+01
 20
7.75227647E+01
 40
6.02401354E+00
 50
1.79954098E+02
 51
2.24806033E+02
  0
ARC
  8
0
 62
7
 10
9.40513018E+01
 20
7.75369451E+01
 40
6.01182959E+00
 50
3.31858473E+01
 51
4.47258291E+01
  0
CIRCLE
  8
0
 62
2
 10
7.75767593E+01
 20
7.75275868E+01
 40
2.50000000E+00
  0
CIRCLE
  8
0
 62
2
 10
-5.74332331E+01
 20
7.75277509E+01
 40
2.50000000E+00
  0
ARC
  8
0
 62
7
 10
9.40294664E+01
 20
7.74910683E+01
 40
6.01536046E+00
 50
3.15536228E+02
 51
3.27144016E+02
  0
ARC
  8
0
 62
7
 10
-5.84493207E+01
 20
7.75234339E+01
 40
6.02191737E+00
 50
3.15167279E+02
 51
4.48142486E+01
  0
ARC
  8
0
 62
7
 10
-5.84154634E+01
 20
7.75275507E+01
 40
6.01194142E+00
 50
1.35146446E+02
 51
2.24853415E+02
  0
LINE
  8
0
 62
7
 10
7.48225900E+01
 20
7.32775887E+01
 11
7.48225848E+01
 21
6.90275887E+01
  0
LINE
  8
0
 62
7
 10
7.48226003E+01
 20
8.17675887E+01
 11
7.48226055E+01
 21
8.60275887E+01
  0
LINE
  8
0
 62
7
 10
7.30726055E+01
 20
8.60275908E+01
 11
7.30725848E+01
 21
6.90275908E+01
  0
LINE
  8
0
 62
7
 10
1.00072591E+02
 20
7.42275580E+01
 11
1.00072585E+02
 21
6.90275580E+01
  0
LINE
  8
0
 62
7
 10
8.20725992E+01
 20
8.08275798E+01
 11
1.00072599E+02
 21
8.08275580E+01
  0
LINE
  8
0
 62
7
 10
8.20725912E+01
 20
7.42275798E+01
 11
1.00072591E+02
 21
7.42275580E+01
  0
LINE
  8
0
 62
7
 10
8.20725992E+01
 20
8.08275798E+01
 11
8.20725912E+01
 21
7.42275798E+01
  0
LINE
  8
0
 62
7
 10
9.83225900E+01
 20
7.32775601E+01
 11
9.83225848E+01
 21
6.90275601E+01
  0
LINE
  8
0
 62
7
 10
9.83226055E+01
 20
8.60275601E+01
 11
9.83226003E+01
 21
8.17675601E+01
  0
LINE
  8
0
 62
7
 10
7.48226003E+01
 20
8.17675887E+01
 11
9.83226003E+01
 21
8.17675601E+01
  0
LINE
  8
0
 62
7
 10
7.48225900E+01
 20
7.32775887E+01
 11
9.83225900E+01
 21
7.32775601E+01
  0
LINE
  8
0
  6
CENTER
 62
2
 10
9.20726079E+01
 20
8.79615885E+01
 11
9.20725832E+01
 21
6.76708077E+01
  0
LINE
  8
0
  6
CENTER
 62
2
 10
7.75726003E+01
 20
8.17675853E+01
 11
7.75725900E+01
 21
7.32775853E+01
  0
LINE
  8
0
 62
7
 10
1.00072606E+02
 20
8.60275580E+01
 11
1.00072599E+02
 21
8.08275580E+01
  0
LINE
  8
0
  6
CENTER
 62
2
 10
-9.30374048E+01
 20
7.75277926E+01
 11
8.20725952E+01
 21
7.75275798E+01
  0
LINE
  8
0
 62
7
 10
-5.41773997E+01
 20
8.17677454E+01
 11
-5.41773945E+01
 21
8.60277454E+01
  0
LINE
  8
0
 62
7
 10
-6.26773997E+01
 20
8.17677557E+01
 11
-6.26773945E+01
 21
8.60277557E+01
  0
LINE
  8
0
 62
7
 10
-6.26773997E+01
 20
8.17677557E+01
 11
-5.41773997E+01
 21
8.17677454E+01
  0
LINE
  8
0
 62
7
 10
-6.44274152E+01
 20
6.90277579E+01
 11
-6.44273945E+01
 21
8.60277579E+01
  0
LINE
  8
0
 62
7
 10
-8.44574018E+01
 20
8.00277822E+01
 11
-7.24274018E+01
 21
8.00277676E+01
  0
LINE
  8
0
  6
CENTER
 62
2
 10
-5.74273997E+01
 20
8.17677493E+01
 11
-5.74274100E+01
 21
7.32777493E+01
  0
LINE
  8
0
 62
7
 10
-5.41774100E+01
 20
7.32777454E+01
 11
-5.41774152E+01
 21
6.90277454E+01
  0
LINE
  8
0
 62
7
 10
-6.26774100E+01
 20
7.32777557E+01
 11
-6.26774152E+01
 21
6.90277557E+01
  0
LINE
  8
0
 62
7
 10
-8.44574079E+01
 20
7.50277822E+01
 11
-7.24274079E+01
 21
7.50277676E+01
  0
LINE
  8
0
 62
7
 10
-9.19274018E+01
 20
8.00277913E+01
 11
-9.19274079E+01
 21
7.50277913E+01
  0
LINE
  8
0
 62
7
 10
-9.24274073E+01
 20
7.55277919E+01
 11
-9.19274079E+01
 21
7.50277913E+01
  0
LINE
  8
0
 62
7
 10
-9.24274024E+01
 20
7.95277919E+01
 11
-9.19274018E+01
 21
8.00277913E+01
  0
LINE
  8
0
 62
7
 10
-7.74274018E+01
 20
8.00277736E+01
 11
-7.74274079E+01
 21
7.50277736E+01
  0
LINE
  8
0
 62
7
 10
-9.24274024E+01
 20
7.95277919E+01
 11
-9.24274073E+01
 21
7.55277919E+01
  0
LINE
  8
0
 62
7
 10
-9.19274079E+01
 20
7.50277913E+01
 11
-8.84574079E+01
 21
7.50277870E+01
  0
LINE
  8
0
 62
7
 10
-9.19274018E+01
 20
8.00277913E+01
 11
-8.84574018E+01
 21
8.00277870E+01
  0
LINE
  8
0
 62
7
 10
-6.26774100E+01
 20
7.32777557E+01
 11
-5.41774100E+01
 21
7.32777454E+01
  0
LINE
  8
0
 62
7
 10
-7.14273988E+01
 20
8.25277664E+01
 11
-7.14274109E+01
 21
7.25277664E+01
  0
LINE
  8
0
 62
7
 10
-6.59273988E+01
 20
8.25277597E+01
 11
-6.59274109E+01
 21
7.25277597E+01
  0
LINE
  8
0
 62
7
 10
-7.24274000E+01
 20
8.15277676E+01
 11
-7.14273988E+01
 21
8.25277664E+01
  0
LINE
  8
0
 62
7
 10
-7.14273988E+01
 20
8.25277664E+01
 11
-6.44273988E+01
 21
8.25277579E+01
  0
LINE
  8
0
 62
2
 10
-7.22393997E+01
 20
8.17157673E+01
 11
-6.59273997E+01
 21
8.17157597E+01
  0
LINE
  8
0
 62
7
 10
-7.14274109E+01
 20
7.25277664E+01
 11
-6.44274109E+01
 21
7.25277579E+01
  0
LINE
  8
0
 62
7
 10
-7.24274000E+01
 20
8.15277676E+01
 11
-7.24274097E+01
 21
7.35277676E+01
  0
LINE
  8
0
 62
2
 10
-7.22394099E+01
 20
7.33397673E+01
 11
-6.59274099E+01
 21
7.33397597E+01
  0
LINE
  8
0
 62
7
 10
-7.24274097E+01
 20
7.35277676E+01
 11
-7.14274109E+01
 21
7.25277664E+01
  0
ARC
  8
0
 62
7
 10
1.75725952E+01
 20
7.75276582E+01
 40
2.06700000E+00
 50
2.35004110E+02
 51
3.21028646E+02
  0
ARC
  8
0
 62
2
 10
1.75784234E+01
 20
7.75276597E+01
 40
2.50000000E+00
 50
2.26591173E+02
 51
3.28667638E+02
  0
ARC
  8
0
 62
7
 10
1.90945110E+01
 20
7.75233397E+01
 40
6.02191737E+00
 50
1.99353903E+02
 51
2.24832581E+02
  0
ARC
  8
0
 62
7
 10
2.10606538E+01
 20
7.75274541E+01
 40
6.01194142E+00
 50
3.15146446E+02
 51
4.48534149E+01
  0
LINE
  8
0
 62
7
 10
1.48226003E+01
 20
8.17676616E+01
 11
1.48226055E+01
 21
8.60276616E+01
  0
LINE
  8
0
 62
7
 10
2.53226003E+01
 20
8.17676488E+01
 11
2.53226055E+01
 21
8.60276488E+01
  0
LINE
  8
0
 62
7
 10
1.30725848E+01
 20
6.90276637E+01
 11
1.30725927E+01
 21
7.55276637E+01
  0
LINE
  8
0
  6
CENTER
 62
2
 10
1.75726003E+01
 20
8.17676582E+01
 11
1.75725900E+01
 21
7.32776582E+01
  0
LINE
  8
0
 62
7
 10
2.53226003E+01
 20
8.17676488E+01
 11
1.48226003E+01
 21
8.17676616E+01
  0
LINE
  8
0
 62
7
 10
1.48225900E+01
 20
7.32776616E+01
 11
1.48225848E+01
 21
6.90276616E+01
  0
LINE
  8
0
 62
7
 10
2.53225900E+01
 20
7.32776488E+01
 11
2.53225848E+01
 21
6.90276488E+01
  0
LINE
  8
0
 62
7
 10
2.53225900E+01
 20
7.32776488E+01
 11
1.48225900E+01
 21
7.32776616E+01
  0
LINE
  8
0
 62
7
 10
2.70725848E+01
 20
6.90276467E+01
 11
2.70726055E+01
 21
8.60276467E+01
  0
LINE
  8
0
 62
4
 10
-8.44574097E+01
 20
7.35277825E+01
 11
-8.44574000E+01
 21
8.15277819E+01
  0
LINE
  8
0
 62
4
 10
-8.84574000E+01
 20
8.15277867E+01
 11
-8.84574097E+01
 21
7.35277874E+01
  0
LINE
  8
0
 62
4
 10
-8.84574000E+01
 20
8.15277867E+01
 11
-8.44574000E+01
 21
8.15277819E+01
  0
LINE
  8
0
 62
4
 10
-8.84574097E+01
 20
7.35277874E+01
 11
-8.44574097E+01
 21
7.35277825E+01
  0
LINE
  8
0
 62
4
 10
-8.79574048E+01
 20
7.75277864E+01
 11
-8.49574048E+01
 21
7.75277828E+01
  0
ARC
  8
0
 62
4
 10
-8.42074031E+01
 20
7.95277817E+01
 40
4.24999934E+00
 50
1.51927441E+02
 51
2.08072419E+02
  0
ARC
  8
0
 62
4
 10
-8.42074079E+01
 20
7.55277821E+01
 40
4.24999934E+00
 50
1.51927441E+02
 51
2.08072419E+02
  0
ARC
  8
0
 62
4
 10
-8.87074017E+01
 20
7.95277872E+01
 40
4.24999934E+00
 50
3.31927441E+02
 51
2.80724195E+01
  0
ARC
  8
0
 62
4
 10
-8.87074066E+01
 20
7.55277875E+01
 40
4.24999934E+00
 50
3.31927441E+02
 51
2.80724195E+01
  0
LINE
  8
0
 62
7
 10
-6.44274152E+01
 20
6.90277579E+01
 11
-4.14274152E+01
 21
6.90277299E+01
  0
LINE
  8
0
 62
7
 10
-6.44273945E+01
 20
8.60277579E+01
 11
-4.14273945E+01
 21
8.60277299E+01
  0
LINE
  8
0
 62
7
 10
-5.24274136E+01
 20
6.90277433E+01
 11
-5.24273930E+01
 21
8.60277433E+01
  0
LINE
  8
0
 62
4
 10
-3.24274153E+01
 20
6.88777190E+01
 11
-3.24273943E+01
 21
8.61777190E+01
  0
LINE
  8
0
  6
CENTER
 62
6
 10
-3.69273927E+01
 20
8.75277231E+01
 11
-3.69274170E+01
 21
6.75277244E+01
  0
LINE
  8
0
 62
4
 10
-4.14273996E+01
 20
8.18277299E+01
 11
-3.24273996E+01
 21
8.18277190E+01
  0
LINE
  8
0
 62
4
 10
-4.14273988E+01
 20
8.24527299E+01
 11
-3.24273988E+01
 21
8.24527190E+01
  0
LINE
  8
0
 62
4
 10
-4.14273994E+01
 20
8.19527299E+01
 11
-3.24273994E+01
 21
8.19527190E+01
  0
LINE
  8
0
 62
4
 10
-4.14273958E+01
 20
8.49027299E+01
 11
-3.24273959E+01
 21
8.49027190E+01
  0
LINE
  8
0
 62
4
 10
-3.89273978E+01
 20
8.33277269E+01
 11
-3.49273978E+01
 21
8.33277220E+01
  0
LINE
  8
0
 62
4
 10
-3.89273987E+01
 20
8.25277269E+01
 11
-3.49273988E+01
 21
8.25277220E+01
  0
LINE
  8
0
 62
4
 10
-4.14273943E+01
 20
8.61777299E+01
 11
-3.24273943E+01
 21
8.61777190E+01
  0
LINE
  8
0
 62
4
 10
-3.49273978E+01
 20
8.33277220E+01
 11
-3.49273988E+01
 21
8.24527220E+01
  0
LINE
  8
0
 62
4
 10
-4.14274100E+01
 20
7.32277299E+01
 11
-3.24274101E+01
 21
7.32277190E+01
  0
LINE
  8
0
 62
4
 10
-4.14274153E+01
 20
6.88777299E+01
 11
-3.24274153E+01
 21
6.88777190E+01
  0
LINE
  8
0
 62
6
 10
-1.64904042E+01
 20
7.88276996E+01
 11
-1.90904073E+01
 21
7.62277028E+01
  0
LINE
  8
0
 62
4
 10
-2.14274064E+01
 20
7.62277056E+01
 11
-1.90904073E+01
 21
7.62277028E+01
  0
LINE
  8
0
 62
4
 10
-2.44274073E+01
 20
7.55277092E+01
 11
-2.14274064E+01
 21
7.62277056E+01
  0
LINE
  8
0
 62
4
 10
-2.14274032E+01
 20
7.88277056E+01
 11
-2.14274064E+01
 21
7.62277056E+01
  0
LINE
  8
0
 62
4
 10
-2.14274033E+01
 20
7.88277056E+01
 11
-1.64904042E+01
 21
7.88276996E+01
  0
LINE
  8
0
 62
4
 10
-2.44274024E+01
 20
7.95277092E+01
 11
-2.14274032E+01
 21
7.88277056E+01
  0
LINE
  8
0
 62
4
 10
-8.92740240E+00
 20
7.95276904E+01
 11
-8.92740726E+00
 21
7.55276904E+01
  0
LINE
  8
0
 62
4
 10
-3.24274009E+01
 20
8.07777190E+01
 11
-2.99274009E+01
 21
8.07777159E+01
  0
LINE
  8
0
 62
4
 10
-2.99274088E+01
 20
7.42777159E+01
 11
-2.99274009E+01
 21
8.07777159E+01
  0
LINE
  8
0
 62
4
 10
-2.99274024E+01
 20
7.95277159E+01
 11
-2.44274024E+01
 21
7.95277092E+01
  0
LINE
  8
0
 62
4
 10
-2.99274073E+01
 20
7.55277159E+01
 11
-2.44274073E+01
 21
7.55277092E+01
  0
LINE
  8
0
 62
4
 10
-3.24274088E+01
 20
7.42777190E+01
 11
-2.99274088E+01
 21
7.42777159E+01
  0
LINE
  8
0
 62
4
 10
-4.14274153E+01
 20
6.88777299E+01
 11
-4.14273943E+01
 21
8.61777299E+01
  0
LINE
  8
0
 62
4
 10
-3.89273988E+01
 20
8.24527269E+01
 11
-3.89273978E+01
 21
8.33277269E+01
  0
LINE
  8
0
 62
4
 10
-3.59174060E+01
 20
7.65277232E+01
 11
-3.79874035E+01
 21
7.85877257E+01
  0
LINE
  8
0
 62
4
 10
-3.79874061E+01
 20
7.64677257E+01
 11
-3.58674035E+01
 21
7.85877231E+01
  0
CIRCLE
  8
0
 62
4
 10
-3.69282801E+01
 20
7.75252659E+01
 40
2.50000000E+00
  0
LINE
  8
0
 62
4
 10
-4.39274088E+01
 20
7.42777329E+01
 11
-4.14274088E+01
 21
7.42777299E+01
  0
LINE
  8
0
 62
4
 10
-4.84274073E+01
 20
7.55277384E+01
 11
-4.39274073E+01
 21
7.55277329E+01
  0
LINE
  8
0
 62
4
 10
-4.94274060E+01
 20
7.65277396E+01
 11
-4.84274073E+01
 21
7.55277384E+01
  0
LINE
  8
0
 62
4
 10
-4.94274036E+01
 20
7.85277396E+01
 11
-4.94274060E+01
 21
7.65277396E+01
  0
LINE
  8
0
 62
4
 10
-4.39274009E+01
 20
8.07777329E+01
 11
-4.14274009E+01
 21
8.07777299E+01
  0
LINE
  8
0
 62
4
 10
-4.84274024E+01
 20
7.95277384E+01
 11
-4.39274024E+01
 21
7.95277329E+01
  0
LINE
  8
0
 62
4
 10
-4.84274024E+01
 20
7.95277384E+01
 11
-4.84274073E+01
 21
7.55277384E+01
  0
LINE
  8
0
 62
4
 10
-4.39274088E+01
 20
7.42777329E+01
 11
-4.39274009E+01
 21
8.07777329E+01
  0
LINE
  8
0
 62
4
 10
-4.94274036E+01
 20
7.85277396E+01
 11
-4.84274024E+01
 21
7.95277384E+01
  0
LINE
  8
0
 62
4
 10
7.07258466E+00
 20
6.88776710E+01
 11
7.07260568E+00
 21
8.61776710E+01
  0
LINE
  8
0
  6
CENTER
 62
6
 10
2.57260732E+00
 20
8.75276751E+01
 11
2.57258302E+00
 21
6.75276764E+01
  0
LINE
  8
0
 62
4
 10
-1.92739957E+00
 20
8.18276819E+01
 11
7.07260043E+00
 21
8.18276710E+01
  0
LINE
  8
0
 62
4
 10
-1.92739881E+00
 20
8.24526819E+01
 11
7.07260119E+00
 21
8.24526710E+01
  0
LINE
  8
0
 62
4
 10
-1.92739942E+00
 20
8.19526819E+01
 11
7.07260058E+00
 21
8.19526710E+01
  0
LINE
  8
0
 62
4
 10
-1.92739584E+00
 20
8.49026819E+01
 11
7.07260414E+00
 21
8.49026710E+01
  0
LINE
  8
0
 62
4
 10
5.72602250E-01
 20
8.33276789E+01
 11
4.57260225E+00
 21
8.33276740E+01
  0
LINE
  8
0
 62
4
 10
5.72601278E-01
 20
8.25276789E+01
 11
4.57260125E+00
 21
8.25276740E+01
  0
LINE
  8
0
 62
4
 10
-1.92739432E+00
 20
8.61776819E+01
 11
7.07260568E+00
 21
8.61776710E+01
  0
LINE
  8
0
 62
4
 10
4.57260222E+00
 20
8.33276740E+01
 11
4.57260116E+00
 21
8.24526740E+01
  0
LINE
  8
0
 62
4
 10
-1.92741002E+00
 20
7.32276819E+01
 11
7.07258995E+00
 21
7.32276710E+01
  0
LINE
  8
0
 62
4
 10
-1.92741534E+00
 20
6.88776819E+01
 11
7.07258466E+00
 21
6.88776710E+01
  0
LINE
  8
0
 62
6
 10
2.30095958E+01
 20
7.88276516E+01
 11
2.04095927E+01
 21
7.62276548E+01
  0
LINE
  8
0
 62
4
 10
1.80725936E+01
 20
7.62276576E+01
 11
2.04095927E+01
 21
7.62276548E+01
  0
LINE
  8
0
 62
4
 10
1.50725927E+01
 20
7.55276613E+01
 11
1.80725936E+01
 21
7.62276576E+01
  0
LINE
  8
0
 62
4
 10
1.80725968E+01
 20
7.88276576E+01
 11
1.80725936E+01
 21
7.62276576E+01
  0
LINE
  8
0
 62
4
 10
1.80725967E+01
 20
7.88276576E+01
 11
2.30095958E+01
 21
7.88276516E+01
  0
LINE
  8
0
 62
4
 10
1.50725976E+01
 20
7.95276613E+01
 11
1.80725968E+01
 21
7.88276576E+01
  0
LINE
  8
0
 62
4
 10
1.50725976E+01
 20
7.95276613E+01
 11
1.50725927E+01
 21
7.55276613E+01
  0
LINE
  8
0
 62
4
 10
7.07259912E+00
 20
8.07776710E+01
 11
9.57259912E+00
 21
8.07776679E+01
  0
LINE
  8
0
 62
4
 10
9.57259123E+00
 20
7.42776679E+01
 11
9.57259912E+00
 21
8.07776679E+01
  0
LINE
  8
0
 62
4
 10
9.57259760E+00
 20
7.95276679E+01
 11
1.50725976E+01
 21
7.95276613E+01
  0
LINE
  8
0
 62
4
 10
9.57259274E+00
 20
7.55276679E+01
 11
1.50725927E+01
 21
7.55276613E+01
  0
LINE
  8
0
 62
4
 10
7.07259123E+00
 20
7.42776710E+01
 11
9.57259123E+00
 21
7.42776679E+01
  0
LINE
  8
0
 62
4
 10
-1.92741534E+00
 20
6.88776819E+01
 11
-1.92739432E+00
 21
8.61776819E+01
  0
LINE
  8
0
 62
4
 10
5.72601158E-01
 20
8.24526789E+01
 11
5.72602222E-01
 21
8.33276789E+01
  0
LINE
  8
0
 62
4
 10
3.58259396E+00
 20
7.65276752E+01
 11
1.51259646E+00
 21
7.85876777E+01
  0
LINE
  8
0
 62
4
 10
1.51259389E+00
 20
7.64676777E+01
 11
3.63259646E+00
 21
7.85876752E+01
  0
CIRCLE
  8
0
 62
4
 10
2.57171993E+00
 20
7.75252179E+01
 40
2.50000000E+00
  0
LINE
  8
0
 62
4
 10
-4.42740877E+00
 20
7.42776849E+01
 11
-1.92740877E+00
 21
7.42776819E+01
  0
LINE
  8
0
 62
4
 10
-8.92740726E+00
 20
7.55276904E+01
 11
-4.42740726E+00
 21
7.55276849E+01
  0
LINE
  8
0
 62
4
 10
-9.92740604E+00
 20
7.65276916E+01
 11
-8.92740726E+00
 21
7.55276904E+01
  0
LINE
  8
0
 62
4
 10
-9.92740361E+00
 20
7.85276916E+01
 11
-9.92740604E+00
 21
7.65276916E+01
  0
LINE
  8
0
 62
4
 10
-4.42740088E+00
 20
8.07776849E+01
 11
-1.92740088E+00
 21
8.07776819E+01
  0
LINE
  8
0
 62
4
 10
-8.92740240E+00
 20
7.95276904E+01
 11
-4.42740240E+00
 21
7.95276849E+01
  0
LINE
  8
0
 62
4
 10
-2.44274024E+01
 20
7.95277092E+01
 11
-2.44274073E+01
 21
7.55277092E+01
  0
LINE
  8
0
 62
4
 10
-4.42740877E+00
 20
7.42776849E+01
 11
-4.42740088E+00
 21
8.07776849E+01
  0
LINE
  8
0
 62
4
 10
-9.92740361E+00
 20
7.85276916E+01
 11
-8.92740240E+00
 21
7.95276904E+01
  0
LINE
  8
0
 62
4
 10
4.70725847E+01
 20
6.88776224E+01
 11
4.70726057E+01
 21
8.61776224E+01
  0
LINE
  8
0
  6
CENTER
 62
6
 10
4.25726073E+01
 20
8.75276265E+01
 11
4.25725830E+01
 21
6.75276278E+01
  0
LINE
  8
0
 62
4
 10
3.80726004E+01
 20
8.18276333E+01
 11
4.70726004E+01
 21
8.18276224E+01
  0
LINE
  8
0
 62
4
 10
3.80726012E+01
 20
8.24526333E+01
 11
4.70726012E+01
 21
8.24526224E+01
  0
LINE
  8
0
 62
4
 10
3.80726006E+01
 20
8.19526333E+01
 11
4.70726006E+01
 21
8.19526224E+01
  0
LINE
  8
0
 62
4
 10
3.80726042E+01
 20
8.49026333E+01
 11
4.70726041E+01
 21
8.49026224E+01
  0
LINE
  8
0
 62
4
 10
4.05726022E+01
 20
8.33276303E+01
 11
4.45726022E+01
 21
8.33276254E+01
  0
LINE
  8
0
 62
4
 10
4.05726013E+01
 20
8.25276303E+01
 11
4.45726012E+01
 21
8.25276254E+01
  0
LINE
  8
0
 62
4
 10
3.80726057E+01
 20
8.61776333E+01
 11
4.70726057E+01
 21
8.61776224E+01
  0
LINE
  8
0
 62
4
 10
4.45726022E+01
 20
8.33276254E+01
 11
4.45726012E+01
 21
8.24526254E+01
  0
LINE
  8
0
 62
4
 10
3.80725900E+01
 20
7.32276333E+01
 11
4.70725899E+01
 21
7.32276224E+01
  0
LINE
  8
0
 62
4
 10
3.80725847E+01
 20
6.88776333E+01
 11
4.70725847E+01
 21
6.88776224E+01
  0
LINE
  8
0
 62
6
 10
6.30095958E+01
 20
7.88276030E+01
 11
6.04095927E+01
 21
7.62276062E+01
  0
LINE
  8
0
 62
4
 10
5.80725936E+01
 20
7.62276090E+01
 11
6.04095927E+01
 21
7.62276062E+01
  0
LINE
  8
0
 62
4
 10
5.50725927E+01
 20
7.55276127E+01
 11
5.80725936E+01
 21
7.62276090E+01
  0
LINE
  8
0
 62
4
 10
5.80725968E+01
 20
7.88276090E+01
 11
5.80725936E+01
 21
7.62276090E+01
  0
LINE
  8
0
 62
4
 10
5.80725967E+01
 20
7.88276090E+01
 11
6.30095958E+01
 21
7.88276030E+01
  0
LINE
  8
0
 62
4
 10
5.50725976E+01
 20
7.95276127E+01
 11
5.80725968E+01
 21
7.88276090E+01
  0
LINE
  8
0
 62
4
 10
5.50725976E+01
 20
7.95276127E+01
 11
5.50725927E+01
 21
7.55276127E+01
  0
LINE
  8
0
 62
4
 10
4.70725991E+01
 20
8.07776224E+01
 11
4.95725991E+01
 21
8.07776193E+01
  0
LINE
  8
0
 62
4
 10
4.95725912E+01
 20
7.42776193E+01
 11
4.95725991E+01
 21
8.07776193E+01
  0
LINE
  8
0
 62
4
 10
4.95725976E+01
 20
7.95276193E+01
 11
5.50725976E+01
 21
7.95276127E+01
  0
LINE
  8
0
 62
4
 10
4.95725927E+01
 20
7.55276193E+01
 11
5.50725927E+01
 21
7.55276127E+01
  0
LINE
  8
0
 62
4
 10
4.70725912E+01
 20
7.42776224E+01
 11
4.95725912E+01
 21
7.42776193E+01
  0
LINE
  8
0
 62
4
 10
3.80725847E+01
 20
6.88776333E+01
 11
3.80726057E+01
 21
8.61776333E+01
  0
LINE
  8
0
 62
4
 10
4.05726012E+01
 20
8.24526303E+01
 11
4.05726022E+01
 21
8.33276303E+01
  0
LINE
  8
0
 62
4
 10
4.35825940E+01
 20
7.65276266E+01
 11
4.15125965E+01
 21
7.85876291E+01
  0
LINE
  8
0
 62
4
 10
4.15125939E+01
 20
7.64676291E+01
 11
4.36325965E+01
 21
7.85876266E+01
  0
CIRCLE
  8
0
 62
4
 10
4.25717199E+01
 20
7.75251693E+01
 40
2.50000000E+00
  0
LINE
  8
0
 62
4
 10
3.55725912E+01
 20
7.42776363E+01
 11
3.80725912E+01
 21
7.42776333E+01
  0
LINE
  8
0
 62
4
 10
3.10725927E+01
 20
7.55276418E+01
 11
3.55725927E+01
 21
7.55276363E+01
  0
LINE
  8
0
 62
4
 10
3.00725940E+01
 20
7.65276430E+01
 11
3.10725927E+01
 21
7.55276418E+01
  0
LINE
  8
0
 62
4
 10
3.00725964E+01
 20
7.85276430E+01
 11
3.00725940E+01
 21
7.65276430E+01
  0
LINE
  8
0
 62
4
 10
3.55725991E+01
 20
8.07776363E+01
 11
3.80725991E+01
 21
8.07776333E+01
  0
LINE
  8
0
 62
4
 10
3.10725976E+01
 20
7.95276418E+01
 11
3.55725976E+01
 21
7.95276363E+01
  0
LINE
  8
0
 62
4
 10
3.10725976E+01
 20
7.95276418E+01
 11
3.10725927E+01
 21
7.55276418E+01
  0
LINE
  8
0
 62
4
 10
3.55725912E+01
 20
7.42776363E+01
 11
3.55725991E+01
 21
8.07776363E+01
  0
LINE
  8
0
 62
4
 10
3.00725964E+01
 20
7.85276430E+01
 11
3.10725976E+01
 21
7.95276418E+01
  0
LINE
  8
0
 62
7
 10
7.07260550E+00
 20
8.60276710E+01
 11
3.80726055E+01
 21
8.60276333E+01
  0
LINE
  8
0
 62
7
 10
7.07258485E+00
 20
6.90276710E+01
 11
3.80725848E+01
 21
6.90276333E+01
  0
LINE
  8
0
  6
CENTER
 62
6
 10
-9.95025745E+01
 20
-1.03882116E+02
 11
-9.95025745E+01
 21
-1.11882116E+02
  0
LINE
  8
0
  6
CENTER
 62
6
 10
-6.43025745E+01
 20
-1.03882116E+02
 11
-6.43025745E+01
 21
-1.11882116E+02
  0
LINE
  8
0
  6
CENTER
 62
6
 10
-8.19025745E+01
 20
-6.49579563E+01
 11
-8.19025745E+01
 21
-1.11882116E+02
  0
ARC
  8
0
 62
4
 10
-8.89025745E+01
 20
-1.01882116E+02
 40
3.00000000E+00
 50
9.00000002E+01
 51
1.80000000E+02
  0
ARC
  8
0
 62
4
 10
-7.49025745E+01
 20
-1.01882116E+02
 40
3.00000000E+00
 50
0.00000000E+00
 51
9.00000002E+01
  0
ARC
  8
0
 62
4
 10
-9.29025745E+01
 20
-1.05882116E+02
 40
3.00000000E+00
 50
2.70000000E+02
 51
0.00000000E+00
  0
ARC
  8
0
 62
4
 10
-7.09025745E+01
 20
-1.05882116E+02
 40
3.00000000E+00
 50
1.80000000E+02
 51
2.70000000E+02
  0
ARC
  8
0
 62
4
 10
-7.49025745E+01
 20
-1.01882116E+02
 40
1.00000000E+00
 50
0.00000000E+00
 51
9.00000002E+01
  0
ARC
  8
0
 62
4
 10
-7.09025745E+01
 20
-1.05882116E+02
 40
1.00000000E+00
 50
1.80000000E+02
 51
2.70000000E+02
  0
ARC
  8
0
 62
4
 10
-8.89025745E+01
 20
-1.01882116E+02
 40
1.00000000E+00
 50
9.00000002E+01
 51
1.80000000E+02
  0
ARC
  8
0
 62
4
 10
-9.29025745E+01
 20
-1.05882116E+02
 40
1.00000000E+00
 50
2.70000000E+02
 51
0.00000000E+00
  0
LINE
  8
0
 62
4
 10
-7.09025745E+01
 20
-1.06882116E+02
 11
-5.79025745E+01
 21
-1.06882116E+02
  0
LINE
  8
0
 62
4
 10
-7.09025745E+01
 20
-1.08882116E+02
 11
-5.79025745E+01
 21
-1.08882116E+02
  0
LINE
  8
0
 62
4
 10
-5.79025745E+01
 20
-1.06882116E+02
 11
-5.79025745E+01
 21
-1.08882116E+02
  0
LINE
  8
0
 62
4
 10
-1.05902574E+02
 20
-1.06882116E+02
 11
-1.05902574E+02
 21
-1.08882116E+02
  0
LINE
  8
0
 62
4
 10
-7.19025745E+01
 20
-1.01882116E+02
 11
-7.19025745E+01
 21
-1.05882116E+02
  0
LINE
  8
0
 62
4
 10
-7.39025745E+01
 20
-1.01882116E+02
 11
-7.39025745E+01
 21
-1.05882116E+02
  0
LINE
  8
0
 62
4
 10
-8.99025745E+01
 20
-1.01882116E+02
 11
-8.99025745E+01
 21
-1.05882116E+02
  0
LINE
  8
0
 62
4
 10
-9.19025745E+01
 20
-1.01882116E+02
 11
-9.19025745E+01
 21
-1.05882116E+02
  0
LINE
  8
0
 62
4
 10
-1.05902574E+02
 20
-1.06882116E+02
 11
-9.29025745E+01
 21
-1.06882116E+02
  0
LINE
  8
0
 62
4
 10
-1.05902574E+02
 20
-1.08882116E+02
 11
-9.29025745E+01
 21
-1.08882116E+02
  0
LINE
  8
0
 62
4
 10
-8.89025745E+01
 20
-1.00882116E+02
 11
-7.49025745E+01
 21
-1.00882116E+02
  0
LINE
  8
0
 62
4
 10
-8.51025745E+01
 20
-6.84921163E+01
 11
-7.87025745E+01
 21
-6.84921163E+01
  0
LINE
  8
0
 62
4
 10
-8.60025745E+01
 20
-1.01882116E+02
 11
-7.78025745E+01
 21
-1.01882116E+02
  0
LINE
  8
0
 62
4
 10
-7.78025745E+01
 20
-1.00882116E+02
 11
-7.78025745E+01
 21
-1.06882116E+02
  0
LINE
  8
0
 62
4
 10
-8.60025745E+01
 20
-1.00882116E+02
 11
-8.60025745E+01
 21
-1.06882116E+02
  0
LINE
  8
0
 62
4
 10
-8.60025745E+01
 20
-1.06882116E+02
 11
-7.78025745E+01
 21
-1.06882116E+02
  0
LINE
  8
0
 62
4
 10
-8.79025745E+01
 20
-8.78821163E+01
 11
-8.79025745E+01
 21
-9.88821163E+01
  0
LINE
  8
0
 62
4
 10
-8.51025745E+01
 20
-8.78821163E+01
 11
-8.79025745E+01
 21
-8.78821163E+01
  0
LINE
  8
0
 62
4
 10
-8.51025745E+01
 20
-6.68821163E+01
 11
-8.51025745E+01
 21
-8.78821163E+01
  0
LINE
  8
0
 62
4
 10
-8.89025745E+01
 20
-9.88821163E+01
 11
-7.49025745E+01
 21
-9.88821163E+01
  0
LINE
  8
0
 62
4
 10
-7.87025745E+01
 20
-6.68821163E+01
 11
-7.87025745E+01
 21
-8.78821163E+01
  0
LINE
  8
0
 62
4
 10
-7.59025745E+01
 20
-8.78821163E+01
 11
-7.59025745E+01
 21
-9.88821163E+01
  0
LINE
  8
0
 62
4
 10
-8.51025745E+01
 20
-6.68821163E+01
 11
-7.87025745E+01
 21
-6.68821163E+01
  0
LINE
  8
0
  6
CENTER
 62
6
 10
-8.64525745E+01
 20
-7.38821163E+01
 11
-7.73525745E+01
 21
-7.38821163E+01
  0
LINE
  8
0
 62
4
 10
-7.87025745E+01
 20
-8.78821163E+01
 11
-7.59025745E+01
 21
-8.78821163E+01
  0
LINE
  8
0
  6
CENTER
 62
6
 10
-1.48902574E+02
 20
-7.38821163E+01
 11
-1.30902574E+02
 21
-7.38821163E+01
  0
LINE
  8
0
 62
4
 10
-1.53902574E+02
 20
-9.88821163E+01
 11
-1.25902574E+02
 21
-9.88821163E+01
  0
LINE
  8
0
 62
4
 10
-1.53902574E+02
 20
-1.08882116E+02
 11
-1.25902574E+02
 21
-1.08882116E+02
  0
LINE
  8
0
 62
4
 10
-1.53902574E+02
 20
-1.06882116E+02
 11
-1.25902574E+02
 21
-1.06882116E+02
  0
LINE
  8
0
 62
4
 10
-1.29302574E+02
 20
-1.06882116E+02
 11
-1.29302574E+02
 21
-1.08882116E+02
  0
LINE
  8
0
 62
4
 10
-1.25902574E+02
 20
-9.88821163E+01
 11
-1.25902574E+02
 21
-1.08882116E+02
  0
ARC
  8
0
 62
4
 10
-1.39902574E+02
 20
-7.88821182E+01
 40
1.19980057E+01
 50
5.99945013E+01
 51
1.20005499E+02
  0
CIRCLE
  8
0
 62
4
 10
-1.39902574E+02
 20
-7.38821163E+01
 40
2.54999924E+00
  0
LINE
  8
0
 62
4
 10
-1.50502574E+02
 20
-1.06882116E+02
 11
-1.50502574E+02
 21
-1.08882116E+02
  0
LINE
  8
0
 62
4
 10
-1.45302574E+02
 20
-1.06882116E+02
 11
-1.45302574E+02
 21
-1.08882116E+02
  0
LINE
  8
0
 62
4
 10
-1.34502574E+02
 20
-1.06882116E+02
 11
-1.34502574E+02
 21
-1.08882116E+02
  0
LINE
  8
0
 62
4
 10
-1.53902574E+02
 20
-9.88821163E+01
 11
-1.53902574E+02
 21
-1.08882116E+02
  0
LINE
  8
0
 62
4
 10
-1.45902574E+02
 20
-6.84921163E+01
 11
-1.45902574E+02
 21
-9.88821163E+01
  0
LINE
  8
0
 62
4
 10
-1.33902574E+02
 20
-6.84921163E+01
 11
-1.33902574E+02
 21
-9.88821163E+01
  0
LINE
  8
0
 62
4
 10
-1.45902574E+02
 20
-8.78821163E+01
 11
-1.33902574E+02
 21
-8.78821163E+01
  0
LINE
  8
0
  6
CENTER
 62
6
 10
-1.39902574E+02
 20
-6.49579563E+01
 11
-1.39902574E+02
 21
-1.11882116E+02
  0
LINE
  8
0
  6
CENTER
 62
6
 10
-1.47902574E+02
 20
-1.03882116E+02
 11
-1.47902574E+02
 21
-1.11882116E+02
  0
LINE
  8
0
  6
CENTER
 62
6
 10
-1.31902574E+02
 20
-1.03882116E+02
 11
-1.31902574E+02
 21
-1.11882116E+02
  0
ARC
  8
0
 62
4
 10
-6.43025745E+01
 20
-1.98821220E+01
 40
2.60000000E+00
 50
9.00000002E+01
 51
2.70000000E+02
  0
LINE
  8
0
  6
CENTER
 62
6
 10
-6.43025745E+01
 20
-2.54821220E+01
 11
-6.43025745E+01
 21
-1.42821220E+01
  0
LINE
  8
0
 62
4
 10
-5.79025745E+01
 20
-1.72821220E+01
 11
-6.43025745E+01
 21
-1.72821220E+01
  0
LINE
  8
0
  6
CENTER
 62
6
 10
-5.73757259E+01
 20
-1.98821220E+01
 11
-6.99025745E+01
 21
-1.98821220E+01
  0
LINE
  8
0
 62
4
 10
-5.79025745E+01
 20
-2.24821220E+01
 11
-6.43025745E+01
 21
-2.24821220E+01
  0
LINE
  8
0
 62
4
 10
-5.79025745E+01
 20
-1.38821220E+01
 11
-5.79025745E+01
 21
-1.72821220E+01
  0
ARC
  8
0
 62
4
 10
-9.95025745E+01
 20
-1.98821220E+01
 40
2.60000000E+00
 50
2.70000000E+02
 51
9.00000002E+01
  0
LINE
  8
0
 62
4
 10
-1.05902574E+02
 20
-1.38821220E+01
 11
-1.05902574E+02
 21
-1.72821220E+01
  0
LINE
  8
0
  6
CENTER
 62
6
 10
-9.95025745E+01
 20
-2.54821220E+01
 11
-9.95025745E+01
 21
-1.42821220E+01
  0
LINE
  8
0
 62
4
 10
-1.05902574E+02
 20
-1.72821220E+01
 11
-9.95025745E+01
 21
-1.72821220E+01
  0
LINE
  8
0
  6
CENTER
 62
6
 10
-1.06153791E+02
 20
-1.98821220E+01
 11
-9.39025745E+01
 21
-1.98821220E+01
  0
LINE
  8
0
 62
4
 10
-1.05902574E+02
 20
-2.24821220E+01
 11
-9.95025745E+01
 21
-2.24821220E+01
  0
LINE
  8
0
  6
CENTER
 62
6
 10
-5.49025745E+01
 20
-2.78821220E+01
 11
-1.08902574E+02
 21
-2.78821220E+01
  0
LINE
  8
0
 62
4
 10
-7.59025745E+01
 20
-2.18821220E+01
 11
-8.79025745E+01
 21
-2.18821220E+01
  0
LINE
  8
0
 62
4
 10
-5.79025745E+01
 20
-1.38821220E+01
 11
-1.05902574E+02
 21
-1.38821220E+01
  0
ARC
  8
0
 62
4
 10
-6.43025745E+01
 20
-3.58821220E+01
 40
2.60000000E+00
 50
9.00000002E+01
 51
2.70000000E+02
  0
ARC
  8
0
 62
4
 10
-9.95025745E+01
 20
-3.58821220E+01
 40
2.60000000E+00
 50
2.70000000E+02
 51
9.00000002E+01
  0
LINE
  8
0
 62
4
 10
-5.79025745E+01
 20
-3.84821220E+01
 11
-5.79025745E+01
 21
-4.18821220E+01
  0
LINE
  8
0
 62
4
 10
-1.05902574E+02
 20
-3.84821220E+01
 11
-1.05902574E+02
 21
-4.18821220E+01
  0
LINE
  8
0
  6
CENTER
 62
6
 10
-9.95025745E+01
 20
-3.02821220E+01
 11
-9.95025745E+01
 21
-4.14821220E+01
  0
LINE
  8
0
 62
4
 10
-1.05902574E+02
 20
-3.84821220E+01
 11
-9.95025745E+01
 21
-3.84821220E+01
  0
LINE
  8
0
  6
CENTER
 62
6
 10
-1.06153791E+02
 20
-3.58821220E+01
 11
-9.39025745E+01
 21
-3.58821220E+01
  0
LINE
  8
0
 62
4
 10
-1.05902574E+02
 20
-3.32821220E+01
 11
-9.95025745E+01
 21
-3.32821220E+01
  0
LINE
  8
0
 62
4
 10
-5.79025745E+01
 20
-3.84821220E+01
 11
-6.43025745E+01
 21
-3.84821220E+01
  0
LINE
  8
0
 62
4
 10
-5.79025745E+01
 20
-3.32821220E+01
 11
-6.43025745E+01
 21
-3.32821220E+01
  0
LINE
  8
0
  6
CENTER
 62
6
 10
-6.43025745E+01
 20
-3.02821220E+01
 11
-6.43025745E+01
 21
-4.14821220E+01
  0
LINE
  8
0
  6
CENTER
 62
6
 10
-5.73757259E+01
 20
-3.58821220E+01
 11
-6.99025745E+01
 21
-3.58821220E+01
  0
LINE
  8
0
 62
4
 10
-5.79025745E+01
 20
-4.18821220E+01
 11
-1.05902574E+02
 21
-4.18821220E+01
  0
LINE
  8
0
 62
4
 10
-7.59025745E+01
 20
-3.38821220E+01
 11
-8.79025745E+01
 21
-3.38821220E+01
  0
LINE
  8
0
 62
4
 10
-9.19025745E+01
 20
-1.38821220E+01
 11
-9.19025745E+01
 21
-4.18821220E+01
  0
LINE
  8
0
 62
4
 10
-8.79025745E+01
 20
-2.18821220E+01
 11
-8.79025745E+01
 21
-3.38821220E+01
  0
LINE
  8
0
  6
CENTER
 62
6
 10
-8.19025745E+01
 20
-1.19648352E+01
 11
-8.19025745E+01
 21
-4.36306469E+01
  0
LINE
  8
0
 62
4
 10
-7.59025745E+01
 20
-2.18821220E+01
 11
-7.59025745E+01
 21
-3.38821220E+01
  0
LINE
  8
0
 62
4
 10
-7.19025745E+01
 20
-1.38821220E+01
 11
-7.19025745E+01
 21
-4.18821220E+01
  0
LINE
  8
0
 62
4
 10
-7.87025745E+01
 20
-2.18821220E+01
 11
-7.87025745E+01
 21
-3.38821220E+01
  0
LINE
  8
0
 62
4
 10
-8.51025745E+01
 20
-2.18821220E+01
 11
-8.51025745E+01
 21
-3.38821220E+01
  0
LINE
  8
0
 62
4
 10
-1.05902574E+02
 20
-2.24821220E+01
 11
-1.05902574E+02
 21
-3.32821220E+01
  0
LINE
  8
0
 62
4
 10
-5.79025745E+01
 20
-2.24821220E+01
 11
-5.79025745E+01
 21
-3.32821220E+01
  0
LINE
  8
0
  6
CENTER
 62
6
 10
-1.44545215E+01
 20
-2.99213137E+01
 11
1.29823532E+01
 21
-2.99213137E+01
  0
LINE
  8
0
 62
4
 10
-1.26961050E+01
 20
-2.03013137E+01
 11
-6.69610506E+00
 21
-2.03013137E+01
  0
LINE
  8
0
 62
4
 10
-1.26961050E+01
 20
-3.98191118E+01
 11
-6.69610506E+00
 21
-3.98191118E+01
  0
LINE
  8
0
 62
4
 10
-1.26961051E+01
 20
-3.98191119E+01
 11
-1.26961051E+01
 21
-2.03013137E+01
  0
LINE
  8
0
 62
4
 10
-6.69610506E+00
 20
-3.98191119E+01
 11
-6.69610506E+00
 21
-2.03013137E+01
  0
LINE
  8
0
 62
4
 10
-1.26961051E+01
 20
-2.05913137E+01
 11
-6.69610506E+00
 21
-2.05913137E+01
  0
LINE
  8
0
 62
4
 10
-1.26961050E+01
 20
-2.32670128E+01
 11
-6.69610506E+00
 21
-2.32670128E+01
  0
LINE
  8
0
 62
4
 10
1.30389494E+00
 20
-2.59213137E+01
 11
7.30389494E+00
 21
-2.59213137E+01
  0
LINE
  8
0
 62
4
 10
1.30389494E+00
 20
-3.39213137E+01
 11
7.30389494E+00
 21
-3.39213137E+01
  0
CIRCLE
  8
0
 62
4
 10
6.30389494E+00
 20
-2.99213137E+01
 40
2.00000000E+00
  0
CIRCLE
  8
0
 62
4
 10
6.30389494E+00
 20
-2.99213137E+01
 40
2.50000000E+00
  0
LINE
  8
0
  6
CENTER
 62
6
 10
6.30389494E+00
 20
-2.59213137E+01
 11
6.30389494E+00
 21
-3.39213137E+01
  0
LINE
  8
0
 62
4
 10
1.30389494E+00
 20
-3.39213137E+01
 11
1.30389494E+00
 21
-3.24213137E+01
  0
LINE
  8
0
 62
4
 10
-6.69610504E+00
 20
-2.74213137E+01
 11
1.30389494E+00
 21
-2.74213137E+01
  0
LINE
  8
0
 62
4
 10
-6.69610504E+00
 20
-3.24213137E+01
 11
1.30389494E+00
 21
-3.24213137E+01
  0
LINE
  8
0
 62
4
 10
1.30389494E+00
 20
-2.74213137E+01
 11
1.30389494E+00
 21
-2.59213137E+01
  0
ARC
  8
0
 62
4
 10
7.30389494E+00
 20
-2.99213137E+01
 40
4.00000000E+00
 50
2.70000000E+02
 51
9.00000002E+01
  0
LINE
  8
0
  6
CENTER
 62
6
 10
5.08038949E+01
 20
-2.02572580E+01
 11
5.08038949E+01
 21
-4.21392206E+01
  0
ARC
  8
0
 62
4
 10
5.08056553E+01
 20
-2.99279245E+01
 40
9.89118734E+00
 50
1.94600742E+02
 51
3.48373449E+02
  0
ARC
  8
0
 62
4
 10
4.21698604E+01
 20
-2.32670128E+01
 40
1.00392057E+00
 50
3.22272848E+02
 51
4.46636107E+01
  0
ARC
  8
0
 62
4
 10
4.21700395E+01
 20
-2.32700434E+01
 40
1.40190405E+00
 50
3.22610924E+02
 51
4.48518702E+01
  0
ARC
  8
0
 62
4
 10
5.94377553E+01
 20
-2.32700437E+01
 40
1.40190777E+00
 50
1.35148263E+02
 51
2.17388943E+02
  0
ARC
  8
0
 62
4
 10
5.94379344E+01
 20
-2.32670131E+01
 40
1.00392430E+00
 50
1.35336575E+02
 51
2.17726966E+02
  0
ARC
  8
0
 62
4
 10
5.08127974E+01
 20
-2.99098028E+01
 40
9.89686572E+00
 50
1.42473295E+02
 51
1.65437133E+02
  0
ARC
  8
0
 62
4
 10
5.07989762E+01
 20
-2.99172419E+01
 40
9.89824120E+00
 50
1.16331547E+01
 51
3.75749018E+01
  0
ARC
  8
0
 62
4
 10
5.08072232E+01
 20
-2.99246419E+01
 40
9.49435721E+00
 50
1.95245994E+02
 51
3.33497907E+02
  0
ARC
  8
0
 62
4
 10
5.08129963E+01
 20
-2.99040763E+01
 40
9.49929101E+00
 50
1.53606440E+02
 51
1.64849050E+02
  0
ARC
  8
0
 62
4
 10
5.08122112E+01
 20
-2.99196457E+01
 40
9.50551964E+00
 50
1.41899873E+02
 51
1.53520272E+02
  0
ARC
  8
0
 62
4
 10
5.08005667E+01
 20
-2.99246420E+01
 40
9.50328503E+00
 50
2.65200996E+01
 51
3.80087786E+01
  0
LINE
  8
0
 62
4
 10
5.93038949E+01
 20
-3.39213137E+01
 11
5.97038949E+01
 21
-3.39213137E+01
  0
LINE
  8
0
 62
4
 10
4.08038949E+01
 20
-2.74213137E+01
 11
4.08038949E+01
 21
-3.24213137E+01
  0
LINE
  8
0
 62
4
 10
4.03038949E+01
 20
-3.19213137E+01
 11
4.08038949E+01
 21
-3.24213137E+01
  0
LINE
  8
0
 62
4
 10
4.08038949E+01
 20
-2.74213137E+01
 11
4.03038949E+01
 21
-2.79213137E+01
  0
LINE
  8
0
 62
4
 10
4.03038949E+01
 20
-3.19213137E+01
 11
4.03038949E+01
 21
-2.79213137E+01
  0
LINE
  8
0
 62
4
 10
4.11938949E+01
 20
-2.03013137E+01
 11
4.09038949E+01
 21
-2.05913137E+01
  0
LINE
  8
0
 62
4
 10
4.28838949E+01
 20
-2.25613137E+01
 11
4.09038949E+01
 21
-2.05913137E+01
  0
LINE
  8
0
 62
4
 10
4.31638949E+01
 20
-2.22813137E+01
 11
4.11938949E+01
 21
-2.03013137E+01
  0
LINE
  8
0
 62
4
 10
6.04138949E+01
 20
-2.03013137E+01
 11
6.07038949E+01
 21
-2.05913137E+01
  0
LINE
  8
0
 62
4
 10
5.84438949E+01
 20
-2.22813137E+01
 11
6.04138949E+01
 21
-2.03113137E+01
  0
LINE
  8
0
 62
4
 10
5.93038949E+01
 20
-2.59213137E+01
 11
5.97038949E+01
 21
-2.59213137E+01
  0
LINE
  8
0
 62
4
 10
5.87238949E+01
 20
-2.25613137E+01
 11
6.07038949E+01
 21
-2.05913137E+01
  0
LINE
  8
0
 62
4
 10
6.07038949E+01
 20
-3.19213137E+01
 11
6.07038949E+01
 21
-2.79213137E+01
  0
LINE
  8
0
 62
4
 10
5.97038949E+01
 20
-2.79213137E+01
 11
6.07038949E+01
 21
-2.79213137E+01
  0
LINE
  8
0
 62
4
 10
5.97038949E+01
 20
-3.19213137E+01
 11
6.07038949E+01
 21
-3.19213137E+01
  0
LINE
  8
0
 62
4
 10
5.97038949E+01
 20
-3.39213137E+01
 11
5.97038949E+01
 21
-2.59213137E+01
  0
LINE
  8
0
 62
4
 10
4.08038949E+01
 20
-3.24213137E+01
 11
5.93038949E+01
 21
-3.24213137E+01
  0
LINE
  8
0
 62
4
 10
4.08038949E+01
 20
-2.74213137E+01
 11
5.93038949E+01
 21
-2.74213137E+01
  0
LINE
  8
0
 62
4
 10
5.93038949E+01
 20
-2.56813137E+01
 11
5.93038949E+01
 21
-3.41613137E+01
  0
LINE
  8
0
  6
CENTER
 62
6
 10
3.80575050E+01
 20
-2.99213137E+01
 11
6.25738949E+01
 21
-2.99213137E+01
  0
TEXT
  8
0
 10
4.28252630E+01
 20
9.87399340E+01
 40
3.20000005E+00
  1
STRETCH LINE A
 41
1.09375000E+00
  7
MONOTXT
  0
TEXT
  8
0
 10
-3.62982578E+01
 20
9.83232343E+01
 40
3.20000005E+00
  1
STRETCH LINE B
 41
1.09375000E+00
  7
MONOTXT
  0
TEXT
  8
0
 62
7
 10
-1.85214688E+02
 20
1.05350006E+02
 40
4.50000000E+00
  1
MODEL:PBDATS16*ST1(20)*ST2(20)-7-ZC230
 41
1.00000000E+00
  7
MONOTXT
  0
TEXT
  8
0
 62
7
 10
1.34942863E+02
 20
1.22850006E+02
 40
4.50000000E+00
  1
Ver. 1.1
 41
1.08108085E+00
  7
MONOTXT
  0
TEXT
  8
0
 62
7
 10
-1.87107344E+02
 20
1.22850006E+02
 40
4.50000000E+00
  1
NEW PEN CYLINDER
 41
1.08108108E+00
  7
MONOTXT
  0
TEXT
  8
0
 62
7
 10
2.23500030E+01
 20
-1.27100000E+02
 40
3.20000005E+00
  1
-20
 41
1.00000000E+00
  7
MONOTXT
  0
LINE
  8
0
 62
7
 10
1.64800003E+02
 20
-7.05000000E+01
 11
1.64800003E+02
 21
-9.45000000E+01
  0
LINE
  8
0
 62
7
 10
1.52800003E+02
 20
-7.05000000E+01
 11
1.52800003E+02
 21
-9.45000000E+01
  0
LINE
  8
0
 62
7
 10
1.40800003E+02
 20
-7.05000000E+01
 11
1.40800003E+02
 21
-9.45000000E+01
  0
LINE
  8
0
 62
7
 10
1.28800003E+02
 20
-7.05000000E+01
 11
1.28800003E+02
 21
-9.45000000E+01
  0
LINE
  8
0
 62
7
 10
1.16800003E+02
 20
-7.05000000E+01
 11
1.16800003E+02
 21
-9.45000000E+01
  0
LINE
  8
0
 62
7
 10
1.04800003E+02
 20
-7.05000000E+01
 11
1.04800003E+02
 21
-9.45000000E+01
  0
LINE
  8
0
 62
7
 10
9.28000031E+01
 20
-7.05000000E+01
 11
9.28000031E+01
 21
-9.45000000E+01
  0
LINE
  8
0
 62
7
 10
8.08000031E+01
 20
-7.05000000E+01
 11
8.08000031E+01
 21
-9.45000000E+01
  0
TEXT
  8
0
 62
7
 10
1.56062528E+02
 20
-9.31000000E+01
 40
3.20000005E+00
  1
40
 41
1.00000000E+00
  7
MONOTXT
  0
TEXT
  8
0
 62
7
 10
1.56062528E+02
 20
-8.10963774E+01
 40
3.20000005E+00
  1
60
 41
1.00000000E+00
  7
MONOTXT
  0
TEXT
  8
0
 62
7
 10
1.44062528E+02
 20
-9.31000000E+01
 40
3.20000005E+00
  1
35
 41
1.00000000E+00
  7
MONOTXT
  0
TEXT
  8
0
 62
7
 10
1.44062528E+02
 20
-8.10963774E+01
 40
3.20000005E+00
  1
55
 41
1.00000000E+00
  7
MONOTXT
  0
TEXT
  8
0
 62
7
 10
1.32062528E+02
 20
-9.31000000E+01
 40
3.20000005E+00
  1
30
 41
1.00000000E+00
  7
MONOTXT
  0
TEXT
  8
0
 62
7
 10
1.32062528E+02
 20
-8.10963774E+01
 40
3.20000005E+00
  1
50
 41
1.00000000E+00
  7
MONOTXT
  0
TEXT
  8
0
 62
7
 10
1.20062528E+02
 20
-9.31000000E+01
 40
3.20000005E+00
  1
25
 41
1.00000000E+00
  7
MONOTXT
  0
TEXT
  8
0
 62
7
 10
1.20062528E+02
 20
-8.10963774E+01
 40
3.20000005E+00
  1
45
 41
1.00000000E+00
  7
MONOTXT
  0
TEXT
  8
0
 62
7
 10
1.08062528E+02
 20
-9.31000000E+01
 40
3.20000005E+00
  1
20
 41
1.00000000E+00
  7
MONOTXT
  0
TEXT
  8
0
 62
7
 10
1.08062528E+02
 20
-8.10963774E+01
 40
3.20000005E+00
  1
40
 41
1.00000000E+00
  7
MONOTXT
  0
TEXT
  8
0
 62
7
 10
9.60625279E+01
 20
-9.31000000E+01
 40
3.20000005E+00
  1
15
 41
1.00000000E+00
  7
MONOTXT
  0
TEXT
  8
0
 62
7
 10
9.60625279E+01
 20
-8.10963774E+01
 40
3.20000005E+00
  1
35
 41
1.00000000E+00
  7
MONOTXT
  0
TEXT
  8
0
 62
7
 10
8.40625279E+01
 20
-9.31000000E+01
 40
3.20000005E+00
  1
10
 41
1.00000000E+00
  7
MONOTXT
  0
TEXT
  8
0
 62
7
 10
8.40625279E+01
 20
-8.10963774E+01
 40
3.20000005E+00
  1
30
 41
1.00000000E+00
  7
MONOTXT
  0
TEXT
  8
0
 62
7
 10
7.36625279E+01
 20
-9.31000000E+01
 40
3.20000005E+00
  1
5
 41
1.00000000E+00
  7
MONOTXT
  0
TEXT
  8
0
 62
7
 10
7.20625279E+01
 20
-8.10963774E+01
 40
3.20000005E+00
  1
25
 41
1.00000000E+00
  7
MONOTXT
  0
TEXT
  8
0
 62
7
 10
5.35570026E+01
 20
-6.88802818E+01
 40
3.20000005E+00
  1
STRETCH LIST(ST1)
 41
1.03658537E+00
  7
MONOTXT
  0
TEXT
  8
0
 62
7
 10
1.53453808E+02
 20
-6.88802818E+01
 40
3.20000005E+00
  1
(mm)
 41
1.00000000E+00
  7
MONOTXT
  0
TEXT
  8
0
 62
7
 10
7.16252795E+00
 20
-9.31000000E+01
 40
3.20000005E+00
  1
A
 41
1.00000000E+00
  7
MONOTXT
  0
TEXT
  8
0
 62
7
 10
-3.04100308E+00
 20
-8.26763750E+01
 40
3.20000005E+00
  1
STRETCH
 41
1.00000000E+00
  7
MONOTXT
  0
TEXT
  8
0
 62
7
 10
-3.04100308E+00
 20
-8.74763751E+01
 40
3.20000005E+00
  1
  PLACE
 41
1.20689655E+00
  7
MONOTXT
  0
TEXT
  8
0
 62
7
 10
2.24625279E+01
 20
-9.31000000E+01
 40
3.20000005E+00
  1
-15
 41
1.00000000E+00
  7
MONOTXT
  0
TEXT
  8
0
 62
7
 10
3.44625279E+01
 20
-9.31000000E+01
 40
3.20000005E+00
  1
-10
 41
1.00000000E+00
  7
MONOTXT
  0
TEXT
  8
0
 62
7
 10
4.80625279E+01
 20
-9.31000000E+01
 40
3.20000005E+00
  1
-5
 41
1.00000000E+00
  7
MONOTXT
  0
TEXT
  8
0
 62
7
 10
6.16625279E+01
 20
-9.31000000E+01
 40
3.20000005E+00
  1
0
 41
1.00000000E+00
  7
MONOTXT
  0
TEXT
  8
0
 62
7
 10
2.56625279E+01
 20
-8.10963774E+01
 40
3.20000005E+00
  1
5
 41
1.00000000E+00
  7
MONOTXT
  0
TEXT
  8
0
 62
7
 10
3.60625279E+01
 20
-8.10963774E+01
 40
3.20000005E+00
  1
10
 41
1.00000000E+00
  7
MONOTXT
  0
TEXT
  8
0
 62
7
 10
4.80625279E+01
 20
-8.10963774E+01
 40
3.20000005E+00
  1
15
 41
1.00000000E+00
  7
MONOTXT
  0
TEXT
  8
0
 62
7
 10
6.00625279E+01
 20
-8.10963774E+01
 40
3.20000005E+00
  1
20
 41
1.00000000E+00
  7
MONOTXT
  0
TEXT
  8
0
 62
7
 10
1.62527831E-01
 20
-7.50963812E+01
 40
3.20000005E+00
  1
STROKE
 41
1.00000000E+00
  7
MONOTXT
  0
LINE
  8
0
 62
7
 10
-4.19999695E+00
 20
-7.05000000E+01
 11
-4.19999695E+00
 21
-9.45000000E+01
  0
LINE
  8
0
 62
7
 10
-4.19999695E+00
 20
-7.65000000E+01
 11
1.86900031E+01
 21
-7.65000000E+01
  0
LINE
  8
0
 62
7
 10
2.08000031E+01
 20
-8.85000000E+01
 11
1.86900031E+01
 21
-7.65000000E+01
  0
LINE
  8
0
 62
7
 10
-4.19999695E+00
 20
-8.85000000E+01
 11
1.64800003E+02
 21
-8.85000000E+01
  0
LINE
  8
0
 62
7
 10
-4.19999695E+00
 20
-7.05000000E+01
 11
1.64800003E+02
 21
-7.05000000E+01
  0
LINE
  8
0
 62
7
 10
6.88000031E+01
 20
-7.05000000E+01
 11
6.88000031E+01
 21
-9.45000000E+01
  0
LINE
  8
0
 62
7
 10
5.68000031E+01
 20
-7.05000000E+01
 11
5.68000031E+01
 21
-9.45000000E+01
  0
LINE
  8
0
 62
7
 10
4.48000031E+01
 20
-7.05000000E+01
 11
4.48000031E+01
 21
-9.45000000E+01
  0
LINE
  8
0
 62
7
 10
3.28000031E+01
 20
-7.05000000E+01
 11
3.28000031E+01
 21
-9.45000000E+01
  0
LINE
  8
0
 62
7
 10
2.08000031E+01
 20
-7.05000000E+01
 11
2.08000031E+01
 21
-9.45000000E+01
  0
LINE
  8
0
 62
7
 10
-4.19999695E+00
 20
-9.45000000E+01
 11
1.64800003E+02
 21
-9.45000000E+01
  0
TEXT
  8
0
 62
7
 10
2.35570026E+01
 20
-1.02880282E+02
 40
3.20000005E+00
  1
STRETCH LIST(ST2)
 41
1.03658537E+00
  7
MONOTXT
  0
TEXT
  8
0
 62
7
 10
9.34538078E+01
 20
-1.02880282E+02
 40
3.20000005E+00
  1
(mm)
 41
1.00000000E+00
  7
MONOTXT
  0
LINE
  8
0
 62
7
 10
-4.19999695E+00
 20
-1.28500000E+02
 11
1.04800003E+02
 21
-1.28500000E+02
  0
LINE
  8
0
 62
7
 10
2.08000031E+01
 20
-1.04500000E+02
 11
2.08000031E+01
 21
-1.28500000E+02
  0
LINE
  8
0
 62
7
 10
3.28000031E+01
 20
-1.04500000E+02
 11
3.28000031E+01
 21
-1.28500000E+02
  0
LINE
  8
0
 62
7
 10
4.48000031E+01
 20
-1.04500000E+02
 11
4.48000031E+01
 21
-1.28500000E+02
  0
LINE
  8
0
 62
7
 10
5.68000031E+01
 20
-1.04500000E+02
 11
5.68000031E+01
 21
-1.28500000E+02
  0
LINE
  8
0
 62
7
 10
6.88000031E+01
 20
-1.04500000E+02
 11
6.88000031E+01
 21
-1.28500000E+02
  0
LINE
  8
0
 62
7
 10
-4.19999695E+00
 20
-1.04500000E+02
 11
1.04800003E+02
 21
-1.04500000E+02
  0
LINE
  8
0
 62
7
 10
-4.19999695E+00
 20
-1.22500000E+02
 11
1.04800003E+02
 21
-1.22500000E+02
  0
LINE
  8
0
 62
7
 10
2.08000031E+01
 20
-1.22500000E+02
 11
1.86900031E+01
 21
-1.10500000E+02
  0
LINE
  8
0
 62
7
 10
-4.19999695E+00
 20
-1.10500000E+02
 11
1.86900031E+01
 21
-1.10500000E+02
  0
LINE
  8
0
 62
7
 10
-4.19999695E+00
 20
-1.04500000E+02
 11
-4.19999695E+00
 21
-1.28500000E+02
  0
TEXT
  8
0
 62
7
 10
1.62527831E-01
 20
-1.09096381E+02
 40
3.20000005E+00
  1
STROKE
 41
1.00000000E+00
  7
MONOTXT
  0
TEXT
  8
0
 62
7
 10
7.20625279E+01
 20
-1.15096377E+02
 40
3.20000005E+00
  1
20
 41
1.00000000E+00
  7
MONOTXT
  0
TEXT
  8
0
 62
7
 10
6.00625279E+01
 20
-1.15096377E+02
 40
3.20000005E+00
  1
15
 41
1.00000000E+00
  7
MONOTXT
  0
TEXT
  8
0
 62
7
 10
4.80625279E+01
 20
-1.15096377E+02
 40
3.20000005E+00
  1
10
 41
1.00000000E+00
  7
MONOTXT
  0
TEXT
  8
0
 62
7
 10
3.76625279E+01
 20
-1.15096377E+02
 40
3.20000005E+00
  1
5
 41
1.00000000E+00
  7
MONOTXT
  0
TEXT
  8
0
 62
7
 10
7.36625279E+01
 20
-1.27100000E+02
 40
3.20000005E+00
  1
0
 41
1.00000000E+00
  7
MONOTXT
  0
TEXT
  8
0
 62
7
 10
6.00625279E+01
 20
-1.27100000E+02
 40
3.20000005E+00
  1
-5
 41
1.00000000E+00
  7
MONOTXT
  0
TEXT
  8
0
 62
7
 10
4.64625279E+01
 20
-1.27100000E+02
 40
3.20000005E+00
  1
-10
 41
1.00000000E+00
  7
MONOTXT
  0
TEXT
  8
0
 62
7
 10
3.44625279E+01
 20
-1.27100000E+02
 40
3.20000005E+00
  1
-15
 41
1.00000000E+00
  7
MONOTXT
  0
TEXT
  8
0
 62
7
 10
-3.04100308E+00
 20
-1.16676375E+02
 40
3.20000005E+00
  1
STRETCH
 41
1.00000000E+00
  7
MONOTXT
  0
TEXT
  8
0
 62
7
 10
-3.04100308E+00
 20
-1.21476375E+02
 40
3.20000005E+00
  1
  PLACE
 41
1.20689655E+00
  7
MONOTXT
  0
TEXT
  8
0
 62
7
 10
7.16252795E+00
 20
-1.27100000E+02
 40
3.20000005E+00
  1
B
 41
1.00000000E+00
  7
MONOTXT
  0
TEXT
  8
0
 62
7
 10
8.40625279E+01
 20
-1.15096377E+02
 40
3.20000005E+00
  1
25
 41
1.00000000E+00
  7
MONOTXT
  0
TEXT
  8
0
 62
7
 10
8.56625279E+01
 20
-1.27100000E+02
 40
3.20000005E+00
  1
5
 41
1.00000000E+00
  7
MONOTXT
  0
TEXT
  8
0
 62
7
 10
9.60625279E+01
 20
-1.15096377E+02
 40
3.20000005E+00
  1
30
 41
1.00000000E+00
  7
MONOTXT
  0
TEXT
  8
0
 62
7
 10
9.60625279E+01
 20
-1.27100000E+02
 40
3.20000005E+00
  1
10
 41
1.00000000E+00
  7
MONOTXT
  0
LINE
  8
0
 62
7
 10
8.08000031E+01
 20
-1.04500000E+02
 11
8.08000031E+01
 21
-1.28500000E+02
  0
LINE
  8
0
 62
7
 10
9.28000031E+01
 20
-1.04500000E+02
 11
9.28000031E+01
 21
-1.28500000E+02
  0
LINE
  8
0
 62
7
 10
1.04800003E+02
 20
-1.04500000E+02
 11
1.04800003E+02
 21
-1.28500000E+02
  0
TEXT
  8
0
 62
7
 10
2.55500030E+01
 20
-1.15100000E+02
 40
3.20000005E+00
  1
0
 41
1.00000000E+00
  7
MONOTXT
  0
LINE
  8
0
 62
7
 10
1.09800003E+02
 20
-1.18500000E+02
 11
1.09800003E+02
 21
-1.33500000E+02
  0
LINE
  8
0
 62
7
 10
1.09800003E+02
 20
-1.18500000E+02
 11
1.94800003E+02
 21
-1.18500000E+02
  0
LINE
  8
0
 62
7
 10
1.09800003E+02
 20
1.32600006E+02
 11
1.09800003E+02
 21
1.17600006E+02
  0
LINE
  8
0
 62
7
 10
1.09800003E+02
 20
1.17600006E+02
 11
1.94800003E+02
 21
1.17600006E+02
  0
LINE
  8
0
 62
7
 10
-1.94250000E+02
 20
1.17600006E+02
 11
-1.09250000E+02
 21
1.17600006E+02
  0
LINE
  8
0
 62
7
 10
-1.09250000E+02
 20
1.32600006E+02
 11
-1.09250000E+02
 21
1.17600006E+02
  0
TEXT
  8
0
 62
7
 10
1.15249721E+02
 20
-1.29150000E+02
 40
6.30000019E+00
  1
KOGANEI CORP.
 41
1.04838710E+00
  7
MONOTXT
  0
LINE
  8
0
 62
7
 10
-1.94250000E+02
 20
1.32600006E+02
 11
1.94800003E+02
 21
1.32600006E+02
  0
LINE
  8
0
 62
7
 10
1.94800003E+02
 20
1.32600006E+02
 11
1.94800003E+02
 21
-1.33500000E+02
  0
LINE
  8
0
 62
7
 10
-1.94250000E+02
 20
1.32600006E+02
 11
-1.94250000E+02
 21
-1.33500000E+02
  0
LINE
  8
0
 62
7
 10
-1.94250000E+02
 20
-1.33500000E+02
 11
1.94800003E+02
 21
-1.33500000E+02
  0
ENDSEC
  0
EOF
