  0
SECTION
  2
HEADER
  9
$ACADVER
  1
AC1003
  9
$EXTMIN
 10
-1.94250000E+02
 20
-1.33500000E+02
  9
$EXTMAX
 10
1.94800003E+02
 20
1.32600006E+02
  9
$LIMMIN
 10
-1.94251000E+02
 20
-1.33501000E+02
  9
$LIMMAX
 10
1.94801003E+02
 20
1.32601006E+02
  9
$SNAPUNIT
 10
1
 20
1
  9
$SNAPBASE
 10
0
 20
0
  9
$GRIDMODE
 70
0
  9
$GRIDUNIT
 10
0
 20
0
  9
$LTSCALE
 40
6.48416672E+00
  9
$TEXTSIZE
 40
3.2
  9
$DIMTAD
 70
0
  9
$LUNITS
 70
2
  9
$LUPREC
 70
4
  9
$FILLETRAD
 40
0
  9
$AUNITS
 70
0
  9
$AUPREC
 70
0
  0
ENDSEC
  0
SECTION
  2
TABLES
  0
TABLE
  2
LTYPE
 70
2
  0
LTYPE
  2
CONTINUOUS
 70
64
  3
Solid-Line
 72
65
 73
0
 40
0
  0
LTYPE
  2
DASHED
 70
64
  3
DASHED
 72
65
 73
2
 40
.75
 49
.5
 49
-.25
  0
LTYPE
  2
HIDDEN
 70
64
  3
HIDDEN
 72
65
 73
2
 40
.375
 49
.25
 49
-.125
  0
LTYPE
  2
CENTER
 70
64
  3
CENTER
 72
65
 73
4
 40
2
 49
1.25
 49
-.25
 49
.25
 49
-.25
  0
LTYPE
  2
PHANTOM
 70
64
  3
PHANTOM
 72
65
 73
6
 40
2.5
 49
1.25
 49
-.25
 49
.25
 49
-.25
 49
.25
 49
-.25
  0
ENDTAB
  0
TABLE
  2
LAYER
 70
1
  0
LAYER
  2
1
 70
0
 62
7
  6
CONTINUOUS
 0
ENDTAB
  0
TABLE
  2
STYLE
 70
2
  0
STYLE
  2
MONOTXT
 70
0
 40
0
 41
1
 50
0
 71
0
 42
.2
  3
monotxt
  0
STYLE
  2
BIGFONT
 70
0
 40
0
 41
1
 50
0
 71
0
 42
.2
  3
txt
  4
bigfont
  0
ENDTAB
  0
ENDSEC
  0
SECTION
  2
ENTITIES
  0
LINE
  8
0
  6
CENTER
 62
2
 10
-8.70631724E+01
 20
3.61555314E+01
 11
8.43938524E+01
 21
3.61555314E+01
  0
ARC
  8
0
 62
4
 10
-2.84659972E+01
 20
5.26538658E+01
 40
1.00166704E+00
 50
9.52762946E-02
 51
8.99047236E+01
  0
ARC
  8
0
 62
4
 10
-3.14635401E+01
 20
5.26547399E+01
 40
1.00079180E+00
 50
9.00000002E+01
 51
1.79954687E+02
  0
LINE
  8
0
  6
CENTER
 62
6
 10
-2.99643316E+01
 20
5.61655314E+01
 11
-2.99643316E+01
 21
2.87355314E+01
  0
ARC
  8
0
 62
4
 10
4.85240028E+01
 20
5.26538658E+01
 40
1.00166704E+00
 50
9.52762946E-02
 51
8.99047236E+01
  0
ARC
  8
0
 62
4
 10
4.55264599E+01
 20
5.26547399E+01
 40
1.00079180E+00
 50
9.00000002E+01
 51
1.79954687E+02
  0
LINE
  8
0
  6
CENTER
 62
6
 10
4.70256684E+01
 20
5.61655314E+01
 11
4.70256684E+01
 21
2.87355314E+01
  0
ARC
  8
0
 62
4
 10
1.15340028E+01
 20
5.26538658E+01
 40
1.00166704E+00
 50
9.52762946E-02
 51
8.99047236E+01
  0
ARC
  8
0
 62
4
 10
8.53645992E+00
 20
5.26547399E+01
 40
1.00079180E+00
 50
9.00000002E+01
 51
1.79954687E+02
  0
LINE
  8
0
  6
CENTER
 62
6
 10
1.00356684E+01
 20
5.61655314E+01
 11
1.00356684E+01
 21
2.87355314E+01
  0
LINE
  8
0
  6
PHANTOM
 10
6.80760318E+01
 20
2.24837770E+01
 11
6.80760318E+01
 21
5.39814335E+01
  0
LINE
  8
0
  6
PHANTOM
 10
-6.92396816E+00
 20
2.24837770E+01
 11
-6.92396816E+00
 21
5.39814335E+01
  0
TEXT
  8
0
 62
7
 10
-2.33002691E+01
 20
3.17555314E+01
 40
1.50000000E+00
  1
PBDATS10
 41
1.00000000E+00
  7
MONOTXT
  0
ARC
  8
0
 62
7
 10
-5.28455127E+01
 20
3.61555314E+01
 40
4.62356726E+00
 50
1.82596937E+02
 51
2.31332268E+02
  0
LINE
  8
0
 62
7
 10
1.45356684E+01
 20
3.06555314E+01
 11
1.95356684E+01
 21
3.06555314E+01
  0
LINE
  8
0
 62
7
 10
1.70356684E+01
 20
4.16555314E+01
 11
1.95356684E+01
 21
4.16555314E+01
  0
LINE
  8
0
 62
4
 10
1.70356684E+01
 20
4.64555314E+01
 11
2.25356684E+01
 21
4.64555314E+01
  0
LINE
  8
0
 62
4
 10
1.70356684E+01
 20
4.24555314E+01
 11
2.25356684E+01
 21
4.24555314E+01
  0
LINE
  8
0
 62
4
 10
3.03566843E+00
 20
4.42555314E+01
 11
3.03566843E+00
 21
4.11555314E+01
  0
LINE
  8
0
 62
4
 10
1.70356684E+01
 20
4.42555314E+01
 11
1.70356684E+01
 21
4.11555314E+01
  0
LINE
  8
0
 62
4
 10
5.53566843E+00
 20
4.46555314E+01
 11
1.45356684E+01
 21
4.46555314E+01
  0
LINE
  8
0
 62
4
 10
5.53566843E+00
 20
4.46555314E+01
 11
5.53566843E+00
 21
5.11555314E+01
  0
LINE
  8
0
 62
4
 10
1.45356684E+01
 20
4.46555314E+01
 11
1.45356684E+01
 21
5.11555314E+01
  0
LINE
  8
0
 62
4
 10
1.45356684E+01
 20
4.42555314E+01
 11
1.70356684E+01
 21
4.42555314E+01
  0
LINE
  8
0
 62
4
 10
1.45356684E+01
 20
4.74555314E+01
 11
1.70356684E+01
 21
4.74555314E+01
  0
LINE
  8
0
 62
4
 10
3.03566842E+00
 20
4.74555314E+01
 11
5.53566843E+00
 21
4.74555314E+01
  0
LINE
  8
0
 62
4
 10
3.03566842E+00
 20
4.46555314E+01
 11
5.53566843E+00
 21
4.46555314E+01
  0
LINE
  8
0
 62
4
 10
3.03566842E+00
 20
4.42555314E+01
 11
5.53566843E+00
 21
4.42555314E+01
  0
LINE
  8
0
 62
4
 10
5.53566842E+00
 20
3.05094788E+01
 11
1.45356684E+01
 21
3.05094788E+01
  0
LINE
  8
0
 62
6
 10
8.80566843E+00
 20
5.21555314E+01
 11
8.80566843E+00
 21
5.11555314E+01
  0
LINE
  8
0
 62
6
 10
1.12656684E+01
 20
5.21555314E+01
 11
1.12656684E+01
 21
5.11555314E+01
  0
LINE
  8
0
 62
4
 10
8.53566843E+00
 20
5.21555314E+01
 11
8.53566843E+00
 21
5.11555314E+01
  0
LINE
  8
0
 62
4
 10
1.15356684E+01
 20
5.21555314E+01
 11
1.15356684E+01
 21
5.11555314E+01
  0
LINE
  8
0
 62
4
 10
3.03566843E+00
 20
4.64555314E+01
 11
-1.46433157E+00
 21
4.64555314E+01
  0
LINE
  8
0
 62
4
 10
1.45356684E+01
 20
4.46555314E+01
 11
1.45356684E+01
 21
3.05055314E+01
  0
LINE
  8
0
 62
4
 10
5.53566843E+00
 20
4.46555314E+01
 11
5.53566843E+00
 21
3.05055314E+01
  0
LINE
  8
0
 62
4
 10
5.53566843E+00
 20
5.11555314E+01
 11
1.45356684E+01
 21
5.11555314E+01
  0
LINE
  8
0
 62
4
 10
1.45356684E+01
 20
4.46555314E+01
 11
1.70356684E+01
 21
4.46555314E+01
  0
LINE
  8
0
 62
4
 10
5.53566843E+00
 20
3.05055314E+01
 11
1.45356684E+01
 21
3.05055314E+01
  0
LINE
  8
0
 62
4
 10
-2.46433157E+00
 20
4.54555314E+01
 11
-2.46433157E+00
 21
4.34555314E+01
  0
LINE
  8
0
 62
4
 10
-1.46433157E+00
 20
4.24555314E+01
 11
3.03566843E+00
 21
4.24555314E+01
  0
LINE
  8
0
 62
4
 10
7.53566843E+00
 20
5.21555314E+01
 11
1.25356684E+01
 21
5.21555314E+01
  0
LINE
  8
0
 62
4
 10
1.25356684E+01
 20
5.26555314E+01
 11
1.25356684E+01
 21
5.21555314E+01
  0
LINE
  8
0
 62
4
 10
7.53566843E+00
 20
5.26555314E+01
 11
7.53566843E+00
 21
5.21555314E+01
  0
LINE
  8
0
 62
4
 10
-1.46433157E+00
 20
4.64555314E+01
 11
-1.46433157E+00
 21
4.24555314E+01
  0
LINE
  8
0
 62
4
 10
-2.46433157E+00
 20
4.54555314E+01
 11
-1.46433157E+00
 21
4.64555314E+01
  0
LINE
  8
0
 62
4
 10
-2.46433157E+00
 20
4.34555314E+01
 11
-1.46433157E+00
 21
4.24555314E+01
  0
LINE
  8
0
 62
4
 10
1.70356684E+01
 20
4.74555314E+01
 11
1.70356684E+01
 21
4.46555314E+01
  0
LINE
  8
0
 62
4
 10
3.03566843E+00
 20
4.74555314E+01
 11
3.03566843E+00
 21
4.46555314E+01
  0
LINE
  8
0
 62
4
 10
3.03566843E+00
 20
4.11555314E+01
 11
5.53566843E+00
 21
4.11555314E+01
  0
LINE
  8
0
 62
4
 10
1.45356684E+01
 20
4.11555314E+01
 11
1.70356684E+01
 21
4.11555314E+01
  0
LINE
  8
0
 62
4
 10
2.55356684E+01
 20
4.57555314E+01
 11
3.04726675E+01
 21
4.57555314E+01
  0
LINE
  8
0
 62
4
 10
2.55356684E+01
 20
4.31555314E+01
 11
2.78726675E+01
 21
4.31555314E+01
  0
LINE
  8
0
 62
4
 10
2.25356684E+01
 20
4.24555314E+01
 11
2.55356684E+01
 21
4.31555314E+01
  0
LINE
  8
0
 62
4
 10
2.25356684E+01
 20
4.64555314E+01
 11
2.55356684E+01
 21
4.57555314E+01
  0
LINE
  8
0
 62
4
 10
2.25356684E+01
 20
4.64555314E+01
 11
2.25356684E+01
 21
4.24555314E+01
  0
LINE
  8
0
 62
4
 10
2.55356684E+01
 20
4.57555314E+01
 11
2.55356684E+01
 21
4.31555314E+01
  0
LINE
  8
0
 62
6
 10
3.04726675E+01
 20
4.57555314E+01
 11
2.78726675E+01
 21
4.31555314E+01
  0
LINE
  8
0
 62
7
 10
4.25256684E+01
 20
3.06555314E+01
 11
3.25256684E+01
 21
3.06555314E+01
  0
LINE
  8
0
 62
7
 10
4.00256684E+01
 20
4.16555314E+01
 11
3.25256684E+01
 21
4.16555314E+01
  0
LINE
  8
0
 62
7
 10
-2.54643316E+01
 20
3.06555314E+01
 11
5.53566843E+00
 21
3.06555314E+01
  0
LINE
  8
0
 62
4
 10
5.40256684E+01
 20
4.64555314E+01
 11
5.95256684E+01
 21
4.64555314E+01
  0
LINE
  8
0
 62
4
 10
5.40256684E+01
 20
4.24555314E+01
 11
5.95256684E+01
 21
4.24555314E+01
  0
LINE
  8
0
 62
4
 10
4.00256684E+01
 20
4.42555314E+01
 11
4.00256684E+01
 21
4.11555314E+01
  0
LINE
  8
0
 62
4
 10
5.40256684E+01
 20
4.42555314E+01
 11
5.40256684E+01
 21
4.11555314E+01
  0
LINE
  8
0
 62
4
 10
4.25256684E+01
 20
4.46555314E+01
 11
5.15256684E+01
 21
4.46555314E+01
  0
LINE
  8
0
 62
4
 10
4.25256684E+01
 20
4.46555314E+01
 11
4.25256684E+01
 21
5.11555314E+01
  0
LINE
  8
0
 62
4
 10
5.15256684E+01
 20
4.46555314E+01
 11
5.15256684E+01
 21
5.11555314E+01
  0
LINE
  8
0
 62
4
 10
5.15256684E+01
 20
4.42555314E+01
 11
5.40256684E+01
 21
4.42555314E+01
  0
LINE
  8
0
 62
4
 10
5.15256684E+01
 20
4.74555314E+01
 11
5.40256684E+01
 21
4.74555314E+01
  0
LINE
  8
0
 62
4
 10
4.00256684E+01
 20
4.74555314E+01
 11
4.25256684E+01
 21
4.74555314E+01
  0
LINE
  8
0
 62
4
 10
4.00256684E+01
 20
4.46555314E+01
 11
4.25256684E+01
 21
4.46555314E+01
  0
LINE
  8
0
 62
4
 10
4.00256684E+01
 20
4.42555314E+01
 11
4.25256684E+01
 21
4.42555314E+01
  0
LINE
  8
0
 62
4
 10
4.25256684E+01
 20
3.05094788E+01
 11
5.15256684E+01
 21
3.05094788E+01
  0
LINE
  8
0
 62
6
 10
4.57956684E+01
 20
5.21555314E+01
 11
4.57956684E+01
 21
5.11555314E+01
  0
LINE
  8
0
 62
6
 10
4.82556684E+01
 20
5.21555314E+01
 11
4.82556684E+01
 21
5.11555314E+01
  0
LINE
  8
0
 62
4
 10
4.55256684E+01
 20
5.21555314E+01
 11
4.55256684E+01
 21
5.11555314E+01
  0
LINE
  8
0
 62
4
 10
4.85256684E+01
 20
5.21555314E+01
 11
4.85256684E+01
 21
5.11555314E+01
  0
LINE
  8
0
 62
4
 10
4.00256684E+01
 20
4.64555314E+01
 11
3.55256684E+01
 21
4.64555314E+01
  0
LINE
  8
0
 62
4
 10
5.15256684E+01
 20
4.46555314E+01
 11
5.15256684E+01
 21
3.05055314E+01
  0
LINE
  8
0
 62
4
 10
4.25256684E+01
 20
4.46555314E+01
 11
4.25256684E+01
 21
3.05055314E+01
  0
LINE
  8
0
 62
4
 10
4.25256684E+01
 20
5.11555314E+01
 11
5.15256684E+01
 21
5.11555314E+01
  0
LINE
  8
0
 62
4
 10
5.15256684E+01
 20
4.46555314E+01
 11
5.40256684E+01
 21
4.46555314E+01
  0
LINE
  8
0
 62
4
 10
4.25256684E+01
 20
3.05055314E+01
 11
5.15256684E+01
 21
3.05055314E+01
  0
LINE
  8
0
 62
4
 10
3.45256684E+01
 20
4.54555314E+01
 11
3.45256684E+01
 21
4.34555314E+01
  0
LINE
  8
0
 62
4
 10
3.55256684E+01
 20
4.24555314E+01
 11
4.00256684E+01
 21
4.24555314E+01
  0
LINE
  8
0
 62
4
 10
4.45256684E+01
 20
5.21555314E+01
 11
4.95256684E+01
 21
5.21555314E+01
  0
LINE
  8
0
 62
4
 10
4.95256684E+01
 20
5.26555314E+01
 11
4.95256684E+01
 21
5.21555314E+01
  0
LINE
  8
0
 62
4
 10
4.45256684E+01
 20
5.26555314E+01
 11
4.45256684E+01
 21
5.21555314E+01
  0
LINE
  8
0
 62
4
 10
3.55256684E+01
 20
4.64555314E+01
 11
3.55256684E+01
 21
4.24555314E+01
  0
LINE
  8
0
 62
4
 10
3.45256684E+01
 20
4.54555314E+01
 11
3.55256684E+01
 21
4.64555314E+01
  0
LINE
  8
0
 62
4
 10
3.45256684E+01
 20
4.34555314E+01
 11
3.55256684E+01
 21
4.24555314E+01
  0
LINE
  8
0
 62
4
 10
5.40256684E+01
 20
4.74555314E+01
 11
5.40256684E+01
 21
4.46555314E+01
  0
LINE
  8
0
 62
4
 10
4.00256684E+01
 20
4.74555314E+01
 11
4.00256684E+01
 21
4.46555314E+01
  0
LINE
  8
0
 62
4
 10
4.00256684E+01
 20
4.11555314E+01
 11
4.25256684E+01
 21
4.11555314E+01
  0
LINE
  8
0
 62
4
 10
5.15256684E+01
 20
4.11555314E+01
 11
5.40256684E+01
 21
4.11555314E+01
  0
LINE
  8
0
 62
4
 10
6.25256684E+01
 20
4.57555314E+01
 11
6.74626675E+01
 21
4.57555314E+01
  0
LINE
  8
0
 62
4
 10
6.25256684E+01
 20
4.31555314E+01
 11
6.48626675E+01
 21
4.31555314E+01
  0
LINE
  8
0
 62
4
 10
5.95256684E+01
 20
4.24555314E+01
 11
6.25256684E+01
 21
4.31555314E+01
  0
LINE
  8
0
 62
4
 10
5.95256684E+01
 20
4.64555314E+01
 11
6.25256684E+01
 21
4.57555314E+01
  0
LINE
  8
0
 62
4
 10
5.95256684E+01
 20
4.64555314E+01
 11
5.95256684E+01
 21
4.24555314E+01
  0
LINE
  8
0
 62
4
 10
6.25256684E+01
 20
4.57555314E+01
 11
6.25256684E+01
 21
4.31555314E+01
  0
LINE
  8
0
 62
6
 10
6.74626675E+01
 20
4.57555314E+01
 11
6.48626675E+01
 21
4.31555314E+01
  0
LINE
  8
0
 62
4
 10
-2.29643316E+01
 20
4.64555314E+01
 11
-1.74643316E+01
 21
4.64555314E+01
  0
LINE
  8
0
 62
4
 10
-2.29643316E+01
 20
4.24555314E+01
 11
-1.74643316E+01
 21
4.24555314E+01
  0
LINE
  8
0
 62
4
 10
-3.69643316E+01
 20
4.42555314E+01
 11
-3.69643316E+01
 21
4.11555314E+01
  0
LINE
  8
0
 62
4
 10
-2.29643316E+01
 20
4.42555314E+01
 11
-2.29643316E+01
 21
4.11555314E+01
  0
LINE
  8
0
 62
4
 10
-3.44643316E+01
 20
4.46555314E+01
 11
-2.54643316E+01
 21
4.46555314E+01
  0
LINE
  8
0
 62
4
 10
-3.44643316E+01
 20
4.46555314E+01
 11
-3.44643316E+01
 21
5.11555314E+01
  0
LINE
  8
0
 62
4
 10
-2.54643316E+01
 20
4.46555314E+01
 11
-2.54643316E+01
 21
5.11555314E+01
  0
LINE
  8
0
 62
4
 10
-2.54643316E+01
 20
4.42555314E+01
 11
-2.29643316E+01
 21
4.42555314E+01
  0
LINE
  8
0
 62
4
 10
-2.54643316E+01
 20
4.74555314E+01
 11
-2.29643316E+01
 21
4.74555314E+01
  0
LINE
  8
0
 62
4
 10
-3.69643316E+01
 20
4.74555314E+01
 11
-3.44643316E+01
 21
4.74555314E+01
  0
LINE
  8
0
 62
4
 10
-3.69643316E+01
 20
4.46555314E+01
 11
-3.44643316E+01
 21
4.46555314E+01
  0
LINE
  8
0
 62
4
 10
-3.69643316E+01
 20
4.42555314E+01
 11
-3.44643316E+01
 21
4.42555314E+01
  0
LINE
  8
0
 62
4
 10
-3.44643316E+01
 20
3.05094788E+01
 11
-2.54643316E+01
 21
3.05094788E+01
  0
LINE
  8
0
 62
6
 10
-3.11943316E+01
 20
5.21555314E+01
 11
-3.11943316E+01
 21
5.11555314E+01
  0
LINE
  8
0
 62
6
 10
-2.87343316E+01
 20
5.21555314E+01
 11
-2.87343316E+01
 21
5.11555314E+01
  0
LINE
  8
0
 62
4
 10
-3.14643316E+01
 20
5.21555314E+01
 11
-3.14643316E+01
 21
5.11555314E+01
  0
LINE
  8
0
 62
4
 10
-2.84643316E+01
 20
5.21555314E+01
 11
-2.84643316E+01
 21
5.11555314E+01
  0
LINE
  8
0
 62
4
 10
-3.69643316E+01
 20
4.64555314E+01
 11
-4.14643316E+01
 21
4.64555314E+01
  0
LINE
  8
0
 62
4
 10
-2.54643316E+01
 20
4.46555314E+01
 11
-2.54643316E+01
 21
3.05055314E+01
  0
LINE
  8
0
 62
4
 10
-3.44643316E+01
 20
4.46555314E+01
 11
-3.44643316E+01
 21
3.05055314E+01
  0
LINE
  8
0
 62
4
 10
-3.44643316E+01
 20
5.11555314E+01
 11
-2.54643316E+01
 21
5.11555314E+01
  0
LINE
  8
0
 62
4
 10
-2.54643316E+01
 20
4.46555314E+01
 11
-2.29643316E+01
 21
4.46555314E+01
  0
LINE
  8
0
 62
4
 10
-3.44643316E+01
 20
3.05055314E+01
 11
-2.54643316E+01
 21
3.05055314E+01
  0
LINE
  8
0
 62
4
 10
-4.24643316E+01
 20
4.54555314E+01
 11
-4.24643316E+01
 21
4.34555314E+01
  0
LINE
  8
0
 62
4
 10
-4.14643316E+01
 20
4.24555314E+01
 11
-3.69643316E+01
 21
4.24555314E+01
  0
LINE
  8
0
 62
4
 10
-3.24643316E+01
 20
5.21555314E+01
 11
-2.74643316E+01
 21
5.21555314E+01
  0
LINE
  8
0
 62
4
 10
-2.74643316E+01
 20
5.26555314E+01
 11
-2.74643316E+01
 21
5.21555314E+01
  0
LINE
  8
0
 62
4
 10
-3.24643316E+01
 20
5.26555314E+01
 11
-3.24643316E+01
 21
5.21555314E+01
  0
LINE
  8
0
 62
4
 10
-4.14643316E+01
 20
4.64555314E+01
 11
-4.14643316E+01
 21
4.24555314E+01
  0
LINE
  8
0
 62
4
 10
-4.24643316E+01
 20
4.54555314E+01
 11
-4.14643316E+01
 21
4.64555314E+01
  0
LINE
  8
0
 62
4
 10
-4.24643316E+01
 20
4.34555314E+01
 11
-4.14643316E+01
 21
4.24555314E+01
  0
LINE
  8
0
 62
4
 10
-2.29643316E+01
 20
4.74555314E+01
 11
-2.29643316E+01
 21
4.46555314E+01
  0
LINE
  8
0
 62
4
 10
-3.69643316E+01
 20
4.74555314E+01
 11
-3.69643316E+01
 21
4.46555314E+01
  0
LINE
  8
0
 62
4
 10
-3.69643316E+01
 20
4.11555314E+01
 11
-3.44643316E+01
 21
4.11555314E+01
  0
LINE
  8
0
 62
4
 10
-2.54643316E+01
 20
4.11555314E+01
 11
-2.29643316E+01
 21
4.11555314E+01
  0
LINE
  8
0
 62
4
 10
-1.44643316E+01
 20
4.57555314E+01
 11
-9.52733249E+00
 21
4.57555314E+01
  0
LINE
  8
0
 62
4
 10
-1.44643316E+01
 20
4.31555314E+01
 11
-1.21273325E+01
 21
4.31555314E+01
  0
LINE
  8
0
 62
4
 10
-1.74643316E+01
 20
4.24555314E+01
 11
-1.44643316E+01
 21
4.31555314E+01
  0
LINE
  8
0
 62
4
 10
-1.74643316E+01
 20
4.64555314E+01
 11
-1.44643316E+01
 21
4.57555314E+01
  0
LINE
  8
0
 62
4
 10
-1.74643316E+01
 20
4.64555314E+01
 11
-1.74643316E+01
 21
4.24555314E+01
  0
LINE
  8
0
 62
4
 10
-1.44643316E+01
 20
4.57555314E+01
 11
-1.44643316E+01
 21
4.31555314E+01
  0
LINE
  8
0
 62
6
 10
-9.52733249E+00
 20
4.57555314E+01
 11
-1.21273325E+01
 21
4.31555314E+01
  0
LINE
  8
0
 62
7
 10
-2.29643316E+01
 20
4.16555314E+01
 11
3.03566843E+00
 21
4.16555314E+01
  0
CIRCLE
  8
0
 62
2
 10
2.40322627E+01
 20
3.61505316E+01
 40
2.50000000E+00
  0
CIRCLE
  8
0
 62
7
 10
2.40356684E+01
 20
3.61555314E+01
 40
2.06700000E+00
  0
LINE
  8
0
 62
4
 10
7.65256684E+01
 20
4.16555314E+01
 11
8.20256684E+01
 21
4.16555314E+01
  0
LINE
  8
0
 62
4
 10
7.65256684E+01
 20
3.06555314E+01
 11
8.20256684E+01
 21
3.06555314E+01
  0
LINE
  8
0
 62
4
 10
8.20256684E+01
 20
3.06555314E+01
 11
8.25256684E+01
 21
3.11555314E+01
  0
LINE
  8
0
 62
7
 10
1.95356684E+01
 20
3.01555314E+01
 11
3.25256684E+01
 21
3.01555314E+01
  0
LINE
  8
0
 62
7
 10
7.65256684E+01
 20
3.06555314E+01
 11
5.15256684E+01
 21
3.06555314E+01
  0
LINE
  8
0
 62
7
 10
3.07956684E+01
 20
3.25455314E+01
 11
2.12656684E+01
 21
3.25455314E+01
  0
LINE
  8
0
 62
7
 10
3.07956684E+01
 20
3.25455314E+01
 11
3.07956684E+01
 21
3.01555314E+01
  0
LINE
  8
0
 62
7
 10
2.12656684E+01
 20
3.25455314E+01
 11
2.12656684E+01
 21
3.01555314E+01
  0
LINE
  8
0
 62
4
 10
8.25256684E+01
 20
4.11555314E+01
 11
8.25256684E+01
 21
3.11555314E+01
  0
LINE
  8
0
 62
4
 10
8.20256684E+01
 20
4.16555314E+01
 11
8.25256684E+01
 21
4.11555314E+01
  0
LINE
  8
0
 62
7
 10
1.95356684E+01
 20
4.21555314E+01
 11
3.25256684E+01
 21
4.21555314E+01
  0
LINE
  8
0
 62
7
 10
3.07956684E+01
 20
3.97555314E+01
 11
2.12656684E+01
 21
3.97555314E+01
  0
LINE
  8
0
 62
7
 10
2.12656684E+01
 20
3.97555314E+01
 11
2.12656684E+01
 21
4.21555314E+01
  0
LINE
  8
0
 62
7
 10
1.95356684E+01
 20
3.01555314E+01
 11
1.95356684E+01
 21
4.21555314E+01
  0
LINE
  8
0
 62
4
 10
7.65256684E+01
 20
3.06555314E+01
 11
7.65256684E+01
 21
4.16555314E+01
  0
LINE
  8
0
 62
7
 10
3.25256684E+01
 20
4.21555314E+01
 11
3.25256684E+01
 21
3.01555314E+01
  0
LINE
  8
0
 62
7
 10
7.65256684E+01
 20
4.16555314E+01
 11
5.40256684E+01
 21
4.16555314E+01
  0
LINE
  8
0
 62
4
 10
8.20256684E+01
 20
3.06555314E+01
 11
8.20256684E+01
 21
4.16555314E+01
  0
LINE
  8
0
  6
CENTER
 62
2
 10
2.40356684E+01
 20
3.32655314E+01
 11
2.40356684E+01
 21
3.95055314E+01
  0
LINE
  8
0
  6
CENTER
 62
2
 10
3.15256684E+01
 20
3.74455314E+01
 11
3.15256684E+01
 21
3.47055314E+01
  0
LINE
  8
0
 62
7
 10
3.07956684E+01
 20
3.97555314E+01
 11
3.07956684E+01
 21
4.21555314E+01
  0
CIRCLE
  8
0
 62
7
 10
3.15326158E+01
 20
3.61472983E+01
 40
5.00000000E-01
  0
ARC
  8
0
 62
7
 10
2.79080349E+01
 20
3.61521825E+01
 40
4.61763474E+00
 50
3.08682203E+02
 51
5.12921882E+01
  0
ARC
  8
0
 62
7
 10
2.41564584E+01
 20
3.61506657E+01
 40
4.62079252E+00
 50
1.28726592E+02
 51
2.31275492E+02
  0
CIRCLE
  8
0
 62
7
 10
-4.89643316E+01
 20
3.61555314E+01
 40
2.06700000E+00
  0
LINE
  8
0
 62
7
 10
-5.95543316E+01
 20
4.01555314E+01
 11
-5.74643316E+01
 21
4.01555314E+01
  0
LINE
  8
0
 62
7
 10
-5.74643316E+01
 20
4.21555314E+01
 11
-5.74643316E+01
 21
3.01555314E+01
  0
ARC
  8
0
 62
7
 10
-4.90899619E+01
 20
3.61555314E+01
 40
4.62782618E+00
 50
3.08733576E+02
 51
5.12664237E+01
  0
CIRCLE
  8
0
 62
2
 10
-4.89677373E+01
 20
3.61505316E+01
 40
2.50000000E+00
  0
LINE
  8
0
 62
7
 10
-4.61943316E+01
 20
3.25455314E+01
 11
-4.61943316E+01
 21
3.01555314E+01
  0
LINE
  8
0
 62
7
 10
-5.57343316E+01
 20
3.25455314E+01
 11
-5.57343316E+01
 21
3.01555314E+01
  0
LINE
  8
0
 62
7
 10
-4.61943316E+01
 20
4.21555314E+01
 11
-4.61943316E+01
 21
3.97655314E+01
  0
LINE
  8
0
 62
7
 10
-5.57343316E+01
 20
4.21555314E+01
 11
-5.57343316E+01
 21
3.97655314E+01
  0
LINE
  8
0
 62
7
 10
-5.57343316E+01
 20
3.25455314E+01
 11
-4.61943316E+01
 21
3.25455314E+01
  0
LINE
  8
0
 62
7
 10
-5.57343316E+01
 20
3.97655314E+01
 11
-4.61943316E+01
 21
3.97655314E+01
  0
LINE
  8
0
  6
CENTER
 62
2
 10
-4.89643316E+01
 20
3.97655314E+01
 11
-4.89643316E+01
 21
3.25455314E+01
  0
LINE
  8
0
 62
7
 10
-4.44643316E+01
 20
4.21555314E+01
 11
-4.44643316E+01
 21
3.01555314E+01
  0
LINE
  8
0
 62
7
 10
-4.44643316E+01
 20
4.16555314E+01
 11
-3.69643316E+01
 21
4.16555314E+01
  0
LINE
  8
0
 62
7
 10
-4.44643316E+01
 20
3.06555314E+01
 11
-3.44643316E+01
 21
3.06555314E+01
  0
LINE
  8
0
 62
7
 10
-5.74643316E+01
 20
4.21555314E+01
 11
-4.44643316E+01
 21
4.21555314E+01
  0
LINE
  8
0
 62
7
 10
-5.74643316E+01
 20
3.01555314E+01
 11
-4.44643316E+01
 21
3.01555314E+01
  0
ARC
  8
0
 62
7
 10
-5.28455127E+01
 20
3.61555314E+01
 40
4.62356726E+00
 50
1.28667732E+02
 51
1.77403063E+02
  0
LINE
  8
0
 62
2
 10
-6.35543316E+01
 20
3.28420314E+01
 11
-6.53408316E+01
 21
3.28420314E+01
  0
LINE
  8
0
 62
2
 10
-6.35543316E+01
 20
3.94790314E+01
 11
-6.53408316E+01
 21
3.94790314E+01
  0
LINE
  8
0
 62
2
 10
-7.76843316E+01
 20
3.45445314E+01
 11
-7.04643316E+01
 21
3.45445314E+01
  0
LINE
  8
0
 62
2
 10
-7.76843316E+01
 20
3.77765314E+01
 11
-7.04643316E+01
 21
3.77765314E+01
  0
LINE
  8
0
 62
2
 10
-8.51488243E+01
 20
3.45445314E+01
 11
-8.08843316E+01
 21
3.45445314E+01
  0
LINE
  8
0
 62
2
 10
-8.51433316E+01
 20
3.77765314E+01
 11
-8.08843316E+01
 21
3.77765314E+01
  0
LINE
  8
0
 62
2
 10
-5.89643316E+01
 20
3.94790314E+01
 11
-5.95543316E+01
 21
3.94790314E+01
  0
LINE
  8
0
 62
2
 10
-5.89643316E+01
 20
3.28420314E+01
 11
-5.95543316E+01
 21
3.28420314E+01
  0
LINE
  8
0
 62
7
 10
-6.54643316E+01
 20
3.93555314E+01
 11
-6.54643316E+01
 21
3.29655314E+01
  0
LINE
  8
0
 62
7
 10
-6.46643316E+01
 20
4.01555314E+01
 11
-6.35543316E+01
 21
4.01555314E+01
  0
LINE
  8
0
 62
7
 10
-6.46643316E+01
 20
3.21655314E+01
 11
-6.35543316E+01
 21
3.21655314E+01
  0
LINE
  8
0
 62
7
 10
-6.46643316E+01
 20
4.01555314E+01
 11
-6.54643316E+01
 21
3.93555314E+01
  0
LINE
  8
0
 62
7
 10
-6.54643316E+01
 20
3.29655314E+01
 11
-6.46643316E+01
 21
3.21655314E+01
  0
LINE
  8
0
 62
7
 10
-6.46643316E+01
 20
4.01555314E+01
 11
-6.46643316E+01
 21
3.21655314E+01
  0
LINE
  8
0
 62
7
 10
-5.89643316E+01
 20
4.01555314E+01
 11
-5.89643316E+01
 21
3.21655314E+01
  0
LINE
  8
0
 62
7
 10
-8.54643316E+01
 20
3.74555314E+01
 11
-8.54643316E+01
 21
3.48555314E+01
  0
LINE
  8
0
 62
7
 10
-7.04643316E+01
 20
3.81555314E+01
 11
-7.04643316E+01
 21
3.41655314E+01
  0
LINE
  8
0
 62
7
 10
-8.47643316E+01
 20
3.81555314E+01
 11
-8.08843316E+01
 21
3.81555314E+01
  0
LINE
  8
0
 62
7
 10
-8.47643316E+01
 20
3.41655314E+01
 11
-8.08843316E+01
 21
3.41655314E+01
  0
LINE
  8
0
 62
7
 10
-8.47643316E+01
 20
3.81555314E+01
 11
-8.54643316E+01
 21
3.74555314E+01
  0
LINE
  8
0
 62
7
 10
-8.54643316E+01
 20
3.48555314E+01
 11
-8.47643316E+01
 21
3.41655314E+01
  0
LINE
  8
0
 62
7
 10
-8.47643316E+01
 20
3.81555314E+01
 11
-8.47643316E+01
 21
3.41655314E+01
  0
LINE
  8
0
 62
4
 10
-8.08843316E+01
 20
3.95555314E+01
 11
-8.08843316E+01
 21
3.27655314E+01
  0
LINE
  8
0
 62
4
 10
-7.76843316E+01
 20
3.95555314E+01
 11
-7.76843316E+01
 21
3.27655314E+01
  0
LINE
  8
0
 62
4
 10
-8.05143316E+01
 20
4.01955314E+01
 11
-7.80543316E+01
 21
4.01955314E+01
  0
LINE
  8
0
 62
4
 10
-8.05143316E+01
 20
3.21255314E+01
 11
-7.80543316E+01
 21
3.21255314E+01
  0
LINE
  8
0
 62
4
 10
-8.05143316E+01
 20
3.81755314E+01
 11
-7.80543316E+01
 21
3.81755314E+01
  0
LINE
  8
0
 62
4
 10
-8.05143316E+01
 20
3.41455314E+01
 11
-7.80543316E+01
 21
3.41455314E+01
  0
LINE
  8
0
 62
7
 10
-7.76843316E+01
 20
3.81555314E+01
 11
-6.54643316E+01
 21
3.81555314E+01
  0
LINE
  8
0
 62
7
 10
-7.76843316E+01
 20
3.41655314E+01
 11
-6.54643316E+01
 21
3.41655314E+01
  0
LINE
  8
0
 62
4
 10
-8.08843316E+01
 20
3.95555314E+01
 11
-8.05143316E+01
 21
4.01955314E+01
  0
LINE
  8
0
 62
4
 10
-7.80543316E+01
 20
4.01955314E+01
 11
-7.76843316E+01
 21
3.95555314E+01
  0
LINE
  8
0
 62
4
 10
-8.08843316E+01
 20
3.27655314E+01
 11
-8.05143316E+01
 21
3.21255314E+01
  0
LINE
  8
0
 62
4
 10
-7.80543316E+01
 20
3.21255314E+01
 11
-7.76843316E+01
 21
3.27655314E+01
  0
LINE
  8
0
 62
4
 10
-6.35543316E+01
 20
4.21555314E+01
 11
-6.35543316E+01
 21
3.01655314E+01
  0
LINE
  8
0
 62
4
 10
-5.95543316E+01
 20
4.21555314E+01
 11
-5.95543316E+01
 21
3.01655314E+01
  0
LINE
  8
0
 62
4
 10
-6.30243316E+01
 20
3.96155314E+01
 11
-6.00943316E+01
 21
3.96155314E+01
  0
LINE
  8
0
 62
4
 10
-6.30243316E+01
 20
3.27055314E+01
 11
-6.00943316E+01
 21
3.27055314E+01
  0
LINE
  8
0
 62
4
 10
-6.30243316E+01
 20
2.92355314E+01
 11
-6.00943316E+01
 21
2.92355314E+01
  0
LINE
  8
0
 62
4
 10
-6.30243316E+01
 20
4.30855314E+01
 11
-6.00943316E+01
 21
4.30855314E+01
  0
LINE
  8
0
 62
4
 10
-6.35543316E+01
 20
4.21555314E+01
 11
-6.30243316E+01
 21
4.30855314E+01
  0
LINE
  8
0
 62
7
 10
-5.95543316E+01
 20
3.21655314E+01
 11
-5.74643316E+01
 21
3.21655314E+01
  0
LINE
  8
0
 62
4
 10
-5.95543316E+01
 20
4.21555314E+01
 11
-6.00943316E+01
 21
4.30855314E+01
  0
LINE
  8
0
 62
4
 10
-6.35543316E+01
 20
3.01655314E+01
 11
-6.30243316E+01
 21
2.92355314E+01
  0
LINE
  8
0
 62
4
 10
-5.95543316E+01
 20
3.01655314E+01
 11
-6.00943316E+01
 21
2.92355314E+01
  0
ARC
  8
0
 62
4
 10
-7.93276526E+01
 20
3.91855314E+01
 40
1.55830260E+00
 50
1.39598403E+02
 51
2.20401597E+02
  0
ARC
  8
0
 62
4
 10
-7.51929723E+01
 20
3.61605314E+01
 40
5.69008693E+00
 50
1.59260195E+02
 51
2.00739805E+02
  0
ARC
  8
0
 62
4
 10
-8.33891546E+01
 20
3.61605314E+01
 40
5.70268020E+00
 50
3.39308098E+02
 51
2.06919019E+01
  0
ARC
  8
0
 62
4
 10
-7.92544743E+01
 20
3.91855314E+01
 40
1.56857978E+00
 50
3.19917156E+02
 51
4.00828446E+01
  0
ARC
  8
0
 62
4
 10
-7.93276526E+01
 20
3.31355314E+01
 40
1.55830260E+00
 50
1.39598403E+02
 51
2.20401597E+02
  0
ARC
  8
0
 62
4
 10
-7.92544743E+01
 20
3.31355314E+01
 40
1.56857978E+00
 50
3.19917156E+02
 51
4.00828446E+01
  0
ARC
  8
0
 62
4
 10
-6.04968308E+01
 20
4.13505314E+01
 40
3.06569493E+00
 50
1.45532394E+02
 51
2.14467606E+02
  0
ARC
  8
0
 62
4
 10
-5.20997106E+01
 20
3.61605314E+01
 40
1.14579391E+01
 50
1.62450019E+02
 51
1.97549981E+02
  0
ARC
  8
0
 62
4
 10
-6.04968308E+01
 20
3.09705314E+01
 40
3.06569493E+00
 50
1.45532394E+02
 51
2.14467606E+02
  0
ARC
  8
0
 62
4
 10
-6.26308131E+01
 20
4.13505314E+01
 40
3.07310324E+00
 50
3.25627155E+02
 51
3.43728456E+01
  0
ARC
  8
0
 62
4
 10
-7.10279180E+01
 20
3.61605314E+01
 40
1.14664876E+01
 50
3.42463527E+02
 51
1.75364728E+01
  0
ARC
  8
0
 62
4
 10
-6.26308131E+01
 20
3.09705314E+01
 40
3.07310324E+00
 50
3.25627155E+02
 51
3.43728456E+01
  0
LINE
  8
0
 62
4
 10
8.53566843E+00
 20
5.36555314E+01
 11
1.15356684E+01
 21
5.36555314E+01
  0
LINE
  8
0
 62
4
 10
4.55256684E+01
 20
5.36555314E+01
 11
4.85256684E+01
 21
5.36555314E+01
  0
LINE
  8
0
 62
4
 10
-3.14643316E+01
 20
5.36555314E+01
 11
-2.84643316E+01
 21
5.36555314E+01
  0
LINE
  8
0
 62
4
 10
-1.15419583E+02
 20
4.34555314E+01
 11
-1.16419583E+02
 21
4.24555314E+01
  0
LINE
  8
0
 62
4
 10
-1.13319583E+02
 20
4.34555314E+01
 11
-1.12319583E+02
 21
4.24555314E+01
  0
LINE
  8
0
 62
4
 10
-1.12319583E+02
 20
4.64555314E+01
 11
-1.13319583E+02
 21
4.54555314E+01
  0
LINE
  8
0
 62
4
 10
-1.16419583E+02
 20
4.64555314E+01
 11
-1.15419583E+02
 21
4.54555314E+01
  0
LINE
  8
0
 62
4
 10
-1.13319583E+02
 20
4.34555314E+01
 11
-1.15419583E+02
 21
4.34555314E+01
  0
LINE
  8
0
 62
4
 10
-1.15419583E+02
 20
4.54555314E+01
 11
-1.15419583E+02
 21
4.34555314E+01
  0
LINE
  8
0
 62
4
 10
-1.13319583E+02
 20
4.54555314E+01
 11
-1.15419583E+02
 21
4.54555314E+01
  0
LINE
  8
0
 62
4
 10
-1.13319583E+02
 20
4.54555314E+01
 11
-1.13319583E+02
 21
4.34555314E+01
  0
LINE
  8
0
 62
4
 10
-1.15458920E+02
 20
4.24555314E+01
 11
-1.16419583E+02
 21
4.24555314E+01
  0
LINE
  8
0
 62
4
 10
-1.12869583E+02
 20
4.84555314E+01
 11
-1.13169583E+02
 21
4.81555314E+01
  0
LINE
  8
0
 62
4
 10
-1.15869583E+02
 20
4.84555314E+01
 11
-1.15569583E+02
 21
4.81555314E+01
  0
LINE
  8
0
 62
4
 10
-1.18719130E+02
 20
4.97894859E+01
 11
-1.19216778E+02
 21
4.98379280E+01
  0
LINE
  8
0
 62
4
 10
-1.19216778E+02
 20
4.98379280E+01
 11
-1.20166256E+02
 21
4.00838987E+01
  0
LINE
  8
0
 62
4
 10
-1.19199583E+02
 20
4.33055314E+01
 11
-1.19348877E+02
 21
4.33200641E+01
  0
LINE
  8
0
 62
4
 10
-1.18719130E+02
 20
4.97894859E+01
 11
-1.19592215E+02
 21
4.08202452E+01
  0
LINE
  8
0
 62
4
 10
-1.19199583E+02
 20
4.33055314E+01
 11
-1.19423790E+02
 21
4.10022409E+01
  0
LINE
  8
0
 62
4
 10
-1.10869583E+02
 20
4.46555314E+01
 11
-1.10033095E+02
 21
4.16485387E+01
  0
LINE
  8
0
 62
4
 10
-1.11019583E+02
 20
4.46555314E+01
 11
-1.10226207E+02
 21
4.17951829E+01
  0
LINE
  8
0
 62
4
 10
-1.17619583E+02
 20
4.81555314E+01
 11
-1.17619583E+02
 21
4.21555314E+01
  0
LINE
  8
0
 62
4
 10
-1.11119583E+02
 20
4.81555314E+01
 11
-1.11119583E+02
 21
4.46555314E+01
  0
LINE
  8
0
 62
4
 10
-1.11119583E+02
 20
4.81555314E+01
 11
-1.17619583E+02
 21
4.81555314E+01
  0
LINE
  8
0
 62
4
 10
-1.12319583E+02
 20
4.24555314E+01
 11
-1.13280246E+02
 21
4.24555314E+01
  0
LINE
  8
0
 62
4
 10
-1.16419583E+02
 20
4.64555314E+01
 11
-1.16419583E+02
 21
4.24555314E+01
  0
LINE
  8
0
 62
4
 10
-1.12319583E+02
 20
4.64555314E+01
 11
-1.16419583E+02
 21
4.64555314E+01
  0
LINE
  8
0
 62
4
 10
-1.13369583E+02
 20
4.67555314E+01
 11
-1.13369583E+02
 21
4.64555314E+01
  0
LINE
  8
0
 62
4
 10
-1.15369583E+02
 20
4.67555314E+01
 11
-1.15369583E+02
 21
4.64555314E+01
  0
LINE
  8
0
 62
4
 10
-1.13369583E+02
 20
4.67555314E+01
 11
-1.15369583E+02
 21
4.67555314E+01
  0
LINE
  8
0
 62
4
 10
-1.11119583E+02
 20
4.74555314E+01
 11
-1.17619583E+02
 21
4.74555314E+01
  0
LINE
  8
0
 62
4
 10
-1.11119583E+02
 20
4.42555314E+01
 11
-1.12319583E+02
 21
4.42555314E+01
  0
LINE
  8
0
 62
4
 10
-1.11119583E+02
 20
4.46555314E+01
 11
-1.12319583E+02
 21
4.46555314E+01
  0
LINE
  8
0
 62
4
 10
-1.11119583E+02
 20
4.42555314E+01
 11
-1.11119583E+02
 21
4.21555314E+01
  0
LINE
  8
0
 62
4
 10
-1.12319583E+02
 20
4.64555314E+01
 11
-1.12319583E+02
 21
4.24555314E+01
  0
LINE
  8
0
 62
4
 10
-1.17869583E+02
 20
4.98555314E+01
 11
-1.17869583E+02
 21
4.39555314E+01
  0
LINE
  8
0
 62
4
 10
-1.10869583E+02
 20
4.98555314E+01
 11
-1.10869583E+02
 21
4.46555314E+01
  0
LINE
  8
0
 62
4
 10
-1.11869583E+02
 20
5.21555314E+01
 11
-1.16869583E+02
 21
5.21555314E+01
  0
LINE
  8
0
 62
4
 10
-1.10869583E+02
 20
5.11555314E+01
 11
-1.17869583E+02
 21
5.11555314E+01
  0
LINE
  8
0
 62
4
 10
-1.12369583E+02
 20
4.96555314E+01
 11
-1.16369583E+02
 21
4.96555314E+01
  0
LINE
  8
0
 62
4
 10
-1.11369583E+02
 20
5.03555314E+01
 11
-1.17369583E+02
 21
5.03555314E+01
  0
LINE
  8
0
 62
4
 10
-1.18669583E+02
 20
5.03555314E+01
 11
-1.18669583E+02
 21
4.39555314E+01
  0
LINE
  8
0
 62
4
 10
-1.10069583E+02
 20
5.03555314E+01
 11
-1.10069583E+02
 21
4.46555314E+01
  0
LINE
  8
0
 62
4
 10
-1.16429583E+02
 20
5.03555314E+01
 11
-1.16369583E+02
 21
4.96555314E+01
  0
LINE
  8
0
 62
4
 10
-1.12309583E+02
 20
5.03555314E+01
 11
-1.12369583E+02
 21
4.96555314E+01
  0
LINE
  8
0
 62
4
 10
-1.10069583E+02
 20
4.46555314E+01
 11
-1.10869583E+02
 21
4.46555314E+01
  0
LINE
  8
0
 62
4
 10
-1.17869583E+02
 20
4.39555314E+01
 11
-1.18669583E+02
 21
4.39555314E+01
  0
LINE
  8
0
 62
4
 10
-1.18669583E+02
 20
4.61555314E+01
 11
-1.19051198E+02
 21
4.63781400E+01
  0
LINE
  8
0
 62
4
 10
-1.20269583E+02
 20
4.94555314E+01
 11
-1.20269583E+02
 21
4.70855314E+01
  0
LINE
  8
0
 62
4
 10
-1.19469583E+02
 20
4.94555314E+01
 11
-1.20269583E+02
 21
4.94555314E+01
  0
LINE
  8
0
 62
4
 10
-1.19469583E+02
 20
4.94555314E+01
 11
-1.19469583E+02
 21
4.75455314E+01
  0
LINE
  8
0
 62
4
 10
-1.18669583E+02
 20
4.70855314E+01
 11
-1.18966293E+02
 21
4.72503703E+01
  0
LINE
  8
0
 62
4
 10
-1.11019583E+02
 20
4.98555314E+01
 11
-1.11019583E+02
 21
4.46555314E+01
  0
LINE
  8
0
 62
4
 10
-1.10869583E+02
 20
4.98555314E+01
 11
-1.11019583E+02
 21
4.98555314E+01
  0
LINE
  8
0
 62
4
 10
-1.19441732E+02
 20
4.75269641E+01
 11
-1.19469583E+02
 21
4.75455314E+01
  0
LINE
  8
0
 62
4
 10
-1.19527475E+02
 20
4.66461253E+01
 11
-1.20269583E+02
 21
4.70855314E+01
  0
LINE
  8
0
 62
4
 10
-1.12869583E+02
 20
5.21555314E+01
 11
-1.12869583E+02
 21
5.11555314E+01
  0
LINE
  8
0
 62
4
 10
-1.15869583E+02
 20
5.21555314E+01
 11
-1.15869583E+02
 21
5.11555314E+01
  0
LINE
  8
0
 62
6
 10
-1.15599583E+02
 20
5.21555314E+01
 11
-1.15599583E+02
 21
5.11555314E+01
  0
LINE
  8
0
 62
6
 10
-1.13139583E+02
 20
5.21555314E+01
 11
-1.13139583E+02
 21
5.11555314E+01
  0
LINE
  8
0
 62
4
 10
-1.16869583E+02
 20
5.26555314E+01
 11
-1.16869583E+02
 21
5.21555314E+01
  0
LINE
  8
0
 62
4
 10
-1.11869583E+02
 20
5.26555314E+01
 11
-1.11869583E+02
 21
5.21555314E+01
  0
LINE
  8
0
 62
4
 10
-1.12869583E+02
 20
5.36555314E+01
 11
-1.15869583E+02
 21
5.36555314E+01
  0
LINE
  8
0
 62
4
 10
-1.12869583E+02
 20
4.96555314E+01
 11
-1.12869583E+02
 21
4.84555314E+01
  0
LINE
  8
0
 62
6
 10
-1.13139583E+02
 20
4.96555314E+01
 11
-1.13139583E+02
 21
4.81855314E+01
  0
LINE
  8
0
 62
6
 10
-1.15599583E+02
 20
4.96555314E+01
 11
-1.15599583E+02
 21
4.81855314E+01
  0
LINE
  8
0
 62
4
 10
-1.15869583E+02
 20
4.96555314E+01
 11
-1.15869583E+02
 21
4.84555314E+01
  0
ARC
  8
0
 62
4
 10
-1.11369743E+02
 20
4.98553713E+01
 40
5.00160181E-01
 50
1.83465799E-02
 51
9.00000002E+01
  0
ARC
  8
0
 62
4
 10
-1.17377208E+02
 20
4.98631566E+01
 40
4.92433852E-01
 50
8.91127567E+01
 51
1.80887243E+02
  0
ARC
  8
0
 62
4
 10
-1.10869721E+02
 20
5.03553931E+01
 40
8.00138358E-01
 50
9.90662024E-03
 51
9.00000002E+01
  0
ARC
  8
0
 62
4
 10
-1.17877208E+02
 20
5.03631566E+01
 40
7.92411497E-01
 50
8.94486475E+01
 51
1.80551352E+02
  0
ARC
  8
0
 62
4
 10
-1.12869713E+02
 20
5.26554019E+01
 40
1.00012957E+00
 50
7.42247612E-03
 51
9.00000002E+01
  0
ARC
  8
0
 62
4
 10
-1.15877210E+02
 20
5.26631582E+01
 40
9.92402587E-01
 50
8.95596718E+01
 51
1.80440329E+02
  0
LINE
  8
0
 62
7
 10
-1.20369583E+02
 20
3.27055314E+01
 11
-1.20369583E+02
 21
3.25555314E+01
  0
LINE
  8
0
 62
4
 10
-1.20369583E+02
 20
3.96155314E+01
 11
-1.20369583E+02
 21
3.27055314E+01
  0
LINE
  8
0
 62
7
 10
-1.08369583E+02
 20
3.27055314E+01
 11
-1.08369583E+02
 21
3.25555314E+01
  0
LINE
  8
0
 62
4
 10
-1.08369583E+02
 20
3.96155314E+01
 11
-1.08369583E+02
 21
3.27055314E+01
  0
CIRCLE
  8
0
 62
2
 10
-1.14369583E+02
 20
3.61555314E+01
 40
1.62100000E+00
  0
LINE
  8
0
  6
CENTER
 62
2
 10
-1.22369583E+02
 20
3.61555314E+01
 11
-1.05796715E+02
 21
3.61555314E+01
  0
LINE
  8
0
  6
CENTER
 62
2
 10
-1.14369583E+02
 20
5.55050383E+01
 11
-1.14369583E+02
 21
2.81655314E+01
  0
LINE
  8
0
 62
4
 10
-1.14369583E+02
 20
4.01955314E+01
 11
-1.17869583E+02
 21
3.81755314E+01
  0
LINE
  8
0
 62
4
 10
-1.17869583E+02
 20
3.81755314E+01
 11
-1.17869583E+02
 21
3.41455314E+01
  0
LINE
  8
0
 62
4
 10
-1.17869583E+02
 20
3.41455314E+01
 11
-1.14369583E+02
 21
3.21255314E+01
  0
LINE
  8
0
 62
4
 10
-1.14369583E+02
 20
3.21255314E+01
 11
-1.10869583E+02
 21
3.41455314E+01
  0
LINE
  8
0
 62
4
 10
-1.10869583E+02
 20
3.41455314E+01
 11
-1.10869583E+02
 21
3.81755314E+01
  0
LINE
  8
0
 62
4
 10
-1.10869583E+02
 20
3.81755314E+01
 11
-1.14369583E+02
 21
4.01955314E+01
  0
LINE
  8
0
 62
4
 10
-1.14369583E+02
 20
4.30855314E+01
 11
-1.20369583E+02
 21
3.96155314E+01
  0
LINE
  8
0
 62
7
 10
-1.08369583E+02
 20
3.97655314E+01
 11
-1.08369583E+02
 21
3.96155314E+01
  0
LINE
  8
0
 62
7
 10
-1.17979583E+02
 20
3.01655314E+01
 11
-1.15979583E+02
 21
3.01655314E+01
  0
LINE
  8
0
 62
7
 10
-1.17979583E+02
 20
4.21555314E+01
 11
-1.15979583E+02
 21
4.21555314E+01
  0
LINE
  8
0
 62
7
 10
-1.20369583E+02
 20
3.97655314E+01
 11
-1.20369583E+02
 21
3.96155314E+01
  0
LINE
  8
0
 62
4
 10
-1.20369583E+02
 20
3.27055314E+01
 11
-1.14369583E+02
 21
2.92355314E+01
  0
LINE
  8
0
 62
4
 10
-1.14369583E+02
 20
2.92355314E+01
 11
-1.08369583E+02
 21
3.27055314E+01
  0
LINE
  8
0
 62
4
 10
-1.08369583E+02
 20
3.96155314E+01
 11
-1.14369583E+02
 21
4.30855314E+01
  0
LINE
  8
0
 62
7
 10
-1.12769583E+02
 20
3.01655314E+01
 11
-1.10769583E+02
 21
3.01655314E+01
  0
LINE
  8
0
 62
7
 10
-1.12769583E+02
 20
4.21555314E+01
 11
-1.10769583E+02
 21
4.21555314E+01
  0
CIRCLE
  8
0
 62
7
 10
-1.14376624E+02
 20
3.61605326E+01
 40
2.00000000E+00
  0
CIRCLE
  8
0
 62
4
 10
-1.14376624E+02
 20
3.61605326E+01
 40
3.50000000E+00
  0
ARC
  8
0
 62
7
 10
-1.14376624E+02
 20
3.61605314E+01
 40
3.99311751E+00
 50
1.51014793E+02
 51
2.08985207E+02
  0
ARC
  8
0
 62
7
 10
-1.14373753E+02
 20
3.61588715E+01
 40
3.99405996E+00
 50
2.10937213E+02
 51
2.68912138E+02
  0
ARC
  8
0
 62
7
 10
-1.14376437E+02
 20
3.61606407E+01
 40
3.99584842E+00
 50
2.71102069E+02
 51
3.29048580E+02
  0
ARC
  8
0
 62
7
 10
-1.14376624E+02
 20
3.61605314E+01
 40
4.00544151E+00
 50
3.31112406E+02
 51
2.88875940E+01
  0
ARC
  8
0
 62
7
 10
-1.14376436E+02
 20
3.61604239E+01
 40
3.99584669E+00
 50
3.09514064E+01
 51
8.88979451E+01
  0
ARC
  8
0
 62
7
 10
-1.14373754E+02
 20
3.61621931E+01
 40
3.99405823E+00
 50
9.10878482E+01
 51
1.49062800E+02
  0
ARC
  8
0
 62
7
 10
-1.14375603E+02
 20
3.61595116E+01
 40
6.99403112E+00
 50
2.11017088E+02
 51
2.38982912E+02
  0
ARC
  8
0
 62
7
 10
-1.14363066E+02
 20
3.61740704E+01
 40
7.00111833E+00
 50
3.00882066E+02
 51
3.28878703E+02
  0
ARC
  8
0
 62
7
 10
-1.14363065E+02
 20
3.61469936E+01
 40
7.00111676E+00
 50
3.11212937E+01
 51
5.91179366E+01
  0
ARC
  8
0
 62
7
 10
-1.14375604E+02
 20
3.61615524E+01
 40
6.99402955E+00
 50
1.21017085E+02
 51
1.48982915E+02
  0
CIRCLE
  8
0
 62
4
 10
-1.14369583E+02
 20
3.61555314E+01
 40
6.00000000E+00
  0
LINE
  8
0
  6
CENTER
 62
2
 10
1.10960417E+02
 20
5.50887762E+01
 11
1.10960417E+02
 21
2.81655314E+01
  0
ARC
  8
0
 62
7
 10
1.10966935E+02
 20
3.61469936E+01
 40
7.00111676E+00
 50
4.38594028E+01
 51
5.91179366E+01
  0
ARC
  8
0
 62
7
 10
1.10954396E+02
 20
3.61615524E+01
 40
6.99402955E+00
 50
1.28236157E+02
 51
1.48982915E+02
  0
LINE
  8
0
 62
7
 10
1.14210417E+02
 20
4.21555314E+01
 11
1.14560417E+02
 21
4.21555314E+01
  0
LINE
  8
0
 62
4
 10
1.09460417E+02
 20
4.84555314E+01
 11
1.09760417E+02
 21
4.81555314E+01
  0
LINE
  8
0
 62
4
 10
1.12460417E+02
 20
4.84555314E+01
 11
1.12160417E+02
 21
4.81555314E+01
  0
LINE
  8
0
 62
4
 10
1.15309964E+02
 20
4.97894859E+01
 11
1.15807612E+02
 21
4.98379280E+01
  0
LINE
  8
0
 62
4
 10
1.15807612E+02
 20
4.98379280E+01
 11
1.16824896E+02
 21
3.93873235E+01
  0
LINE
  8
0
 62
4
 10
1.16327248E+02
 20
3.93388814E+01
 11
1.16824896E+02
 21
3.93873235E+01
  0
LINE
  8
0
 62
4
 10
1.15790417E+02
 20
4.33055314E+01
 11
1.15939711E+02
 21
4.33200641E+01
  0
LINE
  8
0
 62
4
 10
1.15309964E+02
 20
4.97894859E+01
 11
1.16583837E+02
 21
3.67029271E+01
  0
LINE
  8
0
 62
4
 10
1.15790417E+02
 20
4.33055314E+01
 11
1.16434543E+02
 21
3.66883945E+01
  0
LINE
  8
0
 62
4
 10
1.07460417E+02
 20
4.46555314E+01
 11
1.05517107E+02
 21
3.76697568E+01
  0
LINE
  8
0
 62
4
 10
1.07610417E+02
 20
4.46555314E+01
 11
1.05660512E+02
 21
3.76255690E+01
  0
ARC
  8
0
 62
4
 10
1.10960417E+02
 20
3.61555314E+01
 40
5.65000000E+00
 50
1.64454443E+02
 51
5.55977625E+00
  0
ARC
  8
0
 62
4
 10
1.10960417E+02
 20
3.61555314E+01
 40
5.50000000E+00
 50
1.64497551E+02
 51
5.55977625E+00
  0
CIRCLE
  8
0
 62
4
 10
1.10960417E+02
 20
4.44555314E+01
 40
1.30000000E+00
  0
LINE
  8
0
 62
4
 10
1.14210417E+02
 20
4.81555314E+01
 11
1.14210417E+02
 21
4.16555314E+01
  0
LINE
  8
0
 62
4
 10
1.07710417E+02
 20
4.81555314E+01
 11
1.07710417E+02
 21
4.46555314E+01
  0
LINE
  8
0
 62
4
 10
1.08210417E+02
 20
4.11555314E+01
 11
1.08669129E+02
 21
4.11555314E+01
  0
LINE
  8
0
 62
4
 10
1.07710417E+02
 20
4.81555314E+01
 11
1.14210417E+02
 21
4.81555314E+01
  0
LINE
  8
0
 62
4
 10
1.08910417E+02
 20
4.24555314E+01
 11
1.13010417E+02
 21
4.24555314E+01
  0
LINE
  8
0
 62
4
 10
1.13010417E+02
 20
4.64555314E+01
 11
1.13010417E+02
 21
4.24555314E+01
  0
LINE
  8
0
 62
4
 10
1.08910417E+02
 20
4.64555314E+01
 11
1.13010417E+02
 21
4.64555314E+01
  0
LINE
  8
0
 62
4
 10
1.13251705E+02
 20
4.11555314E+01
 11
1.13710417E+02
 21
4.11555314E+01
  0
LINE
  8
0
 62
4
 10
1.09960417E+02
 20
4.67555314E+01
 11
1.09960417E+02
 21
4.64555314E+01
  0
LINE
  8
0
 62
4
 10
1.11960417E+02
 20
4.67555314E+01
 11
1.11960417E+02
 21
4.64555314E+01
  0
LINE
  8
0
 62
4
 10
1.09960417E+02
 20
4.67555314E+01
 11
1.11960417E+02
 21
4.67555314E+01
  0
LINE
  8
0
 62
4
 10
1.09960417E+02
 20
4.21555314E+01
 11
1.11960417E+02
 21
4.21555314E+01
  0
LINE
  8
0
 62
4
 10
1.09960417E+02
 20
4.24555314E+01
 11
1.09960417E+02
 21
4.21555314E+01
  0
LINE
  8
0
 62
4
 10
1.11960417E+02
 20
4.24555314E+01
 11
1.11960417E+02
 21
4.21555314E+01
  0
LINE
  8
0
 62
4
 10
1.13710417E+02
 20
4.11555314E+01
 11
1.14210417E+02
 21
4.16555314E+01
  0
LINE
  8
0
 62
4
 10
1.08210417E+02
 20
4.11555314E+01
 11
1.07710417E+02
 21
4.16555314E+01
  0
LINE
  8
0
 62
4
 10
1.07710417E+02
 20
4.74555314E+01
 11
1.14210417E+02
 21
4.74555314E+01
  0
LINE
  8
0
 62
4
 10
1.07710417E+02
 20
4.42555314E+01
 11
1.08910417E+02
 21
4.42555314E+01
  0
LINE
  8
0
 62
4
 10
1.07710417E+02
 20
4.46555314E+01
 11
1.08910417E+02
 21
4.46555314E+01
  0
LINE
  8
0
 62
4
 10
1.07710417E+02
 20
4.42555314E+01
 11
1.07710417E+02
 21
4.16555314E+01
  0
LINE
  8
0
 62
4
 10
1.08910417E+02
 20
4.64555314E+01
 11
1.08910417E+02
 21
4.24555314E+01
  0
LINE
  8
0
 62
4
 10
1.14460417E+02
 20
4.98555314E+01
 11
1.14460417E+02
 21
4.39555314E+01
  0
LINE
  8
0
 62
4
 10
1.07460417E+02
 20
4.98555314E+01
 11
1.07460417E+02
 21
4.46555314E+01
  0
LINE
  8
0
 62
4
 10
1.08460417E+02
 20
5.21555314E+01
 11
1.13460417E+02
 21
5.21555314E+01
  0
LINE
  8
0
 62
4
 10
1.07460417E+02
 20
5.11555314E+01
 11
1.14460417E+02
 21
5.11555314E+01
  0
LINE
  8
0
 62
4
 10
1.08960417E+02
 20
4.96555314E+01
 11
1.12960417E+02
 21
4.96555314E+01
  0
LINE
  8
0
 62
4
 10
1.07960417E+02
 20
5.03555314E+01
 11
1.13960417E+02
 21
5.03555314E+01
  0
LINE
  8
0
 62
4
 10
1.15260417E+02
 20
5.03555314E+01
 11
1.15260417E+02
 21
4.39555314E+01
  0
LINE
  8
0
 62
4
 10
1.06660417E+02
 20
5.03555314E+01
 11
1.06660417E+02
 21
4.46555314E+01
  0
LINE
  8
0
 62
4
 10
1.13020417E+02
 20
5.03555314E+01
 11
1.12960417E+02
 21
4.96555314E+01
  0
LINE
  8
0
 62
4
 10
1.08900417E+02
 20
5.03555314E+01
 11
1.08960417E+02
 21
4.96555314E+01
  0
LINE
  8
0
 62
4
 10
1.06660417E+02
 20
4.46555314E+01
 11
1.07460417E+02
 21
4.46555314E+01
  0
LINE
  8
0
 62
4
 10
1.14460417E+02
 20
4.39555314E+01
 11
1.15260417E+02
 21
4.39555314E+01
  0
LINE
  8
0
 62
4
 10
1.15260417E+02
 20
4.61555314E+01
 11
1.15642032E+02
 21
4.63781400E+01
  0
LINE
  8
0
 62
4
 10
1.16860417E+02
 20
4.94555314E+01
 11
1.16860417E+02
 21
4.70855314E+01
  0
LINE
  8
0
 62
4
 10
1.16060417E+02
 20
4.94555314E+01
 11
1.16860417E+02
 21
4.94555314E+01
  0
LINE
  8
0
 62
4
 10
1.16060417E+02
 20
4.94555314E+01
 11
1.16060417E+02
 21
4.75455314E+01
  0
LINE
  8
0
 62
4
 10
1.15260417E+02
 20
4.70855314E+01
 11
1.15557127E+02
 21
4.72503703E+01
  0
LINE
  8
0
 62
4
 10
1.07610417E+02
 20
4.98555314E+01
 11
1.07610417E+02
 21
4.46555314E+01
  0
LINE
  8
0
 62
4
 10
1.07460417E+02
 20
4.98555314E+01
 11
1.07610417E+02
 21
4.98555314E+01
  0
LINE
  8
0
 62
4
 10
1.16032566E+02
 20
4.75269641E+01
 11
1.16060417E+02
 21
4.75455314E+01
  0
LINE
  8
0
 62
4
 10
1.16118309E+02
 20
4.66461253E+01
 11
1.16860417E+02
 21
4.70855314E+01
  0
LINE
  8
0
 62
4
 10
1.09460417E+02
 20
5.21555314E+01
 11
1.09460417E+02
 21
5.11555314E+01
  0
LINE
  8
0
 62
4
 10
1.12460417E+02
 20
5.21555314E+01
 11
1.12460417E+02
 21
5.11555314E+01
  0
LINE
  8
0
 62
6
 10
1.12190417E+02
 20
5.21555314E+01
 11
1.12190417E+02
 21
5.11555314E+01
  0
LINE
  8
0
 62
6
 10
1.09730417E+02
 20
5.21555314E+01
 11
1.09730417E+02
 21
5.11555314E+01
  0
LINE
  8
0
 62
4
 10
1.13460417E+02
 20
5.26555314E+01
 11
1.13460417E+02
 21
5.21555314E+01
  0
LINE
  8
0
 62
4
 10
1.08460417E+02
 20
5.26555314E+01
 11
1.08460417E+02
 21
5.21555314E+01
  0
LINE
  8
0
 62
4
 10
1.09460417E+02
 20
5.36555314E+01
 11
1.12460417E+02
 21
5.36555314E+01
  0
LINE
  8
0
 62
4
 10
1.09460417E+02
 20
4.96555314E+01
 11
1.09460417E+02
 21
4.84555314E+01
  0
LINE
  8
0
 62
6
 10
1.09730417E+02
 20
4.96555314E+01
 11
1.09730417E+02
 21
4.81855314E+01
  0
LINE
  8
0
 62
6
 10
1.12190417E+02
 20
4.96555314E+01
 11
1.12190417E+02
 21
4.81855314E+01
  0
LINE
  8
0
 62
4
 10
1.12460417E+02
 20
4.96555314E+01
 11
1.12460417E+02
 21
4.84555314E+01
  0
LINE
  8
0
 62
4
 10
1.09660417E+02
 20
4.31555314E+01
 11
1.12260417E+02
 21
4.31555314E+01
  0
LINE
  8
0
 62
4
 10
1.09660417E+02
 20
4.57555314E+01
 11
1.12260417E+02
 21
4.57555314E+01
  0
LINE
  8
0
 62
4
 10
1.12260417E+02
 20
4.57555314E+01
 11
1.12260417E+02
 21
4.31555314E+01
  0
LINE
  8
0
 62
4
 10
1.09660417E+02
 20
4.57555314E+01
 11
1.09660417E+02
 21
4.31555314E+01
  0
LINE
  8
0
 62
4
 10
1.08910417E+02
 20
4.64555314E+01
 11
1.09660417E+02
 21
4.57555314E+01
  0
LINE
  8
0
 62
4
 10
1.12260417E+02
 20
4.57555314E+01
 11
1.13010417E+02
 21
4.64555314E+01
  0
LINE
  8
0
 62
4
 10
1.09660417E+02
 20
4.31555314E+01
 11
1.08910417E+02
 21
4.24555314E+01
  0
LINE
  8
0
 62
4
 10
1.12260417E+02
 20
4.31555314E+01
 11
1.13010417E+02
 21
4.24555314E+01
  0
ARC
  8
0
 62
4
 10
1.07960577E+02
 20
4.98553713E+01
 40
5.00160181E-01
 50
9.00000002E+01
 51
1.79981654E+02
  0
ARC
  8
0
 62
4
 10
1.13968042E+02
 20
4.98631566E+01
 40
4.92433852E-01
 50
3.59112757E+02
 51
9.08872431E+01
  0
ARC
  8
0
 62
4
 10
1.07460555E+02
 20
5.03553931E+01
 40
8.00138358E-01
 50
9.00000002E+01
 51
1.79990093E+02
  0
ARC
  8
0
 62
4
 10
1.14468042E+02
 20
5.03631566E+01
 40
7.92411497E-01
 50
3.59448647E+02
 51
9.05513523E+01
  0
ARC
  8
0
 62
4
 10
1.09460546E+02
 20
5.26554019E+01
 40
1.00012957E+00
 50
9.00000002E+01
 51
1.79992578E+02
  0
ARC
  8
0
 62
4
 10
1.12468044E+02
 20
5.26631582E+01
 40
9.92402587E-01
 50
3.59559672E+02
 51
9.04403286E+01
  0
CIRCLE
  8
0
 62
4
 10
1.10960417E+02
 20
3.61555314E+01
 40
5.50000000E+00
  0
CIRCLE
  8
0
 62
4
 10
1.10960417E+02
 20
3.61555314E+01
 40
5.00000000E+00
  0
CIRCLE
  8
0
 62
4
 10
1.10960417E+02
 20
3.61555314E+01
 40
2.06700000E+00
  0
CIRCLE
  8
0
 62
6
 10
1.10960417E+02
 20
3.61555314E+01
 40
2.50000000E+00
  0
ARC
  8
0
 62
7
 10
1.10954396E+02
 20
3.61615524E+01
 40
6.99402955E+00
 50
1.21017085E+02
 51
1.26248332E+02
  0
ARC
  8
0
 62
7
 10
1.10966935E+02
 20
3.61469936E+01
 40
7.00111676E+00
 50
3.11212937E+01
 51
3.42028638E+01
  0
ARC
  8
0
 62
7
 10
1.10966934E+02
 20
3.61740704E+01
 40
7.00111833E+00
 50
3.00882066E+02
 51
3.28878703E+02
  0
ARC
  8
0
 62
7
 10
1.10954397E+02
 20
3.61595116E+01
 40
6.99403112E+00
 50
2.11017088E+02
 51
2.38982912E+02
  0
LINE
  8
0
 62
4
 10
1.10960417E+02
 20
2.92355314E+01
 11
1.12568486E+02
 21
3.01655314E+01
  0
LINE
  8
0
 62
4
 10
1.09352348E+02
 20
3.01655314E+01
 11
1.10960417E+02
 21
2.92355314E+01
  0
LINE
  8
0
 62
7
 10
1.07350417E+02
 20
4.21555314E+01
 11
1.07710417E+02
 21
4.21555314E+01
  0
LINE
  8
0
 62
7
 10
1.07350417E+02
 20
3.01655314E+01
 11
1.14560417E+02
 21
3.01655314E+01
  0
LINE
  8
0
  6
CENTER
 62
2
 10
1.02960417E+02
 20
3.61555314E+01
 11
1.18960417E+02
 21
3.61555314E+01
  0
LINE
  8
0
 62
7
 10
1.16960417E+02
 20
3.97655314E+01
 11
1.16960417E+02
 21
3.27055314E+01
  0
LINE
  8
0
 62
7
 10
1.16960417E+02
 20
3.27055314E+01
 11
1.16960417E+02
 21
3.25555314E+01
  0
LINE
  8
0
 62
7
 10
1.04960417E+02
 20
3.97655314E+01
 11
1.04960417E+02
 21
3.27055314E+01
  0
LINE
  8
0
 62
7
 10
1.04960417E+02
 20
3.27055314E+01
 11
1.04960417E+02
 21
3.25555314E+01
  0
ARC
  8
0
 62
7
 10
1.10960417E+02
 20
3.61555314E+01
 40
6.00000000E+00
 50
1.19623240E+02
 51
1.40941087E+02
  0
ARC
  8
0
 62
7
 10
1.10960417E+02
 20
3.61555314E+01
 40
6.00000000E+00
 50
1.44787805E+02
 51
2.52264145E+01
  0
ARC
  8
0
 62
7
 10
1.10960417E+02
 20
3.61555314E+01
 40
6.00000000E+00
 50
2.91162406E+01
 51
6.03767598E+01
  0
LINE
  8
0
  6
CENTER
 62
6
 10
1.00404169E+01
 20
9.28855314E+01
 11
1.00404169E+01
 21
7.81655314E+01
  0
LINE
  8
0
 62
4
 10
5.54041686E+00
 20
7.99355314E+01
 11
5.54041686E+00
 21
9.14500104E+01
  0
LINE
  8
0
 62
4
 10
1.45404169E+01
 20
7.99355314E+01
 11
1.45404169E+01
 21
9.14500104E+01
  0
LINE
  8
0
 62
4
 10
2.55404169E+01
 20
8.68855314E+01
 11
2.55404169E+01
 21
8.42855314E+01
  0
LINE
  8
0
  6
CENTER
 62
6
 10
-4.59365985E+00
 20
8.55855314E+01
 11
3.17119929E+01
 21
8.55855314E+01
  0
LINE
  8
0
 62
4
 10
1.20404169E+01
 20
9.14500104E+01
 11
1.20404169E+01
 21
9.04327264E+01
  0
LINE
  8
0
 62
4
 10
5.54041689E+00
 20
9.04327264E+01
 11
1.45404169E+01
 21
9.04327264E+01
  0
LINE
  8
0
 62
6
 10
3.04774159E+01
 20
8.68855314E+01
 11
2.78774159E+01
 21
8.42855314E+01
  0
LINE
  8
0
 62
4
 10
2.25404169E+01
 20
8.35855314E+01
 11
2.55404169E+01
 21
8.42855314E+01
  0
LINE
  8
0
 62
4
 10
2.55404169E+01
 20
8.42855314E+01
 11
2.78774159E+01
 21
8.42855314E+01
  0
LINE
  8
0
 62
4
 10
2.55404169E+01
 20
8.68855314E+01
 11
3.04774159E+01
 21
8.68855314E+01
  0
LINE
  8
0
 62
4
 10
2.25404169E+01
 20
8.75855314E+01
 11
2.55404169E+01
 21
8.68855314E+01
  0
LINE
  8
0
 62
4
 10
5.54041685E+00
 20
8.98855681E+01
 11
1.45404169E+01
 21
8.98855681E+01
  0
LINE
  8
0
 62
4
 10
5.54041685E+00
 20
8.12855314E+01
 11
1.45404169E+01
 21
8.12855314E+01
  0
LINE
  8
0
 62
4
 10
3.04041686E+00
 20
8.23355314E+01
 11
3.04041686E+00
 21
8.88355314E+01
  0
LINE
  8
0
 62
4
 10
1.11504169E+01
 20
8.44855314E+01
 11
1.11004169E+01
 21
8.45255314E+01
  0
LINE
  8
0
 62
4
 10
8.97785028E+00
 20
8.45229648E+01
 11
1.10978503E+01
 21
8.66429648E+01
  0
LINE
  8
0
 62
4
 10
1.10478503E+01
 20
8.45829648E+01
 11
8.97785028E+00
 21
8.66429648E+01
  0
LINE
  8
0
 62
4
 10
2.25404169E+01
 20
8.75855314E+01
 11
2.25404169E+01
 21
8.35855314E+01
  0
LINE
  8
0
 62
4
 10
-2.45958314E+00
 20
8.65855314E+01
 11
-2.45958314E+00
 21
8.45855314E+01
  0
LINE
  8
0
 62
4
 10
-1.45958314E+00
 20
8.35855314E+01
 11
3.04041686E+00
 21
8.35855314E+01
  0
LINE
  8
0
 62
4
 10
-1.45958314E+00
 20
8.75855314E+01
 11
3.04041686E+00
 21
8.75855314E+01
  0
LINE
  8
0
 62
4
 10
-1.45958314E+00
 20
8.75855314E+01
 11
-1.45958314E+00
 21
8.35855314E+01
  0
LINE
  8
0
 62
4
 10
-2.45958314E+00
 20
8.65855314E+01
 11
-1.45958314E+00
 21
8.75855314E+01
  0
LINE
  8
0
 62
4
 10
-2.45958314E+00
 20
8.45855314E+01
 11
-1.45958314E+00
 21
8.35855314E+01
  0
LINE
  8
0
 62
4
 10
3.04041686E+00
 20
8.23355314E+01
 11
5.54041686E+00
 21
8.23355314E+01
  0
LINE
  8
0
 62
4
 10
3.04041686E+00
 20
8.88355314E+01
 11
5.54041686E+00
 21
8.88355314E+01
  0
LINE
  8
0
 62
4
 10
1.70404169E+01
 20
8.23355314E+01
 11
1.70404169E+01
 21
8.88355314E+01
  0
LINE
  8
0
 62
4
 10
1.45404169E+01
 20
8.88355314E+01
 11
1.70404169E+01
 21
8.88355314E+01
  0
LINE
  8
0
 62
4
 10
1.45404169E+01
 20
8.23355314E+01
 11
1.70404169E+01
 21
8.23355314E+01
  0
LINE
  8
0
 62
4
 10
1.70404169E+01
 20
8.75855314E+01
 11
2.25404169E+01
 21
8.75855314E+01
  0
LINE
  8
0
 62
4
 10
1.70404169E+01
 20
8.35855314E+01
 11
2.25404169E+01
 21
8.35855314E+01
  0
CIRCLE
  8
0
 62
4
 10
1.00395416E+01
 20
8.55830729E+01
 40
2.50000000E+00
  0
LINE
  8
0
 62
4
 10
8.04041685E+00
 20
9.06855314E+01
 11
1.20404169E+01
 21
9.06855314E+01
  0
LINE
  8
0
 62
4
 10
5.54041689E+00
 20
9.14500104E+01
 11
1.45404169E+01
 21
9.14500104E+01
  0
LINE
  8
0
 62
4
 10
8.04041686E+00
 20
9.04327264E+01
 11
8.04041686E+00
 21
9.14500104E+01
  0
LINE
  8
0
 62
4
 10
5.54041686E+00
 20
7.99355314E+01
 11
1.45404169E+01
 21
7.99355314E+01
  0
LINE
  8
0
 62
4
 10
-1.31713100E+02
 20
-4.66604105E+01
 11
-1.20932794E+02
 21
-3.45962070E+01
  0
LINE
  8
0
 62
4
 10
-9.97130997E+01
 20
-4.66604105E+01
 11
-1.10493406E+02
 21
-3.45962070E+01
  0
ARC
  8
0
 62
4
 10
-1.15713100E+02
 20
-3.92604105E+01
 40
7.00000000E+00
 50
4.17832706E+01
 51
1.38216729E+02
  0
LINE
  8
0
 62
4
 10
-1.31713100E+02
 20
-4.66604105E+01
 11
-1.31713100E+02
 21
-4.82604105E+01
  0
LINE
  8
0
 62
4
 10
-9.97130997E+01
 20
-4.66604105E+01
 11
-9.97130997E+01
 21
-4.82604105E+01
  0
LINE
  8
0
 62
4
 10
-1.31713100E+02
 20
-4.66604105E+01
 11
-9.97130997E+01
 21
-4.66604105E+01
  0
LINE
  8
0
 62
4
 10
-1.31713100E+02
 20
-4.82604105E+01
 11
-9.97130997E+01
 21
-4.82604105E+01
  0
LINE
  8
0
  6
CENTER
 62
6
 10
-1.15713100E+02
 20
-3.35106124E+01
 11
-1.15713100E+02
 21
-4.53040944E+01
  0
LINE
  8
0
  6
CENTER
 62
6
 10
-1.26813100E+02
 20
-5.02646116E+01
 11
-1.26813100E+02
 21
-4.47069561E+01
  0
LINE
  8
0
  6
CENTER
 62
6
 10
-1.04613100E+02
 20
-5.02646116E+01
 11
-1.04613100E+02
 21
-4.44083869E+01
  0
LINE
  8
0
  6
CENTER
 62
6
 10
-1.21327044E+02
 20
-3.92604105E+01
 11
-1.10130701E+02
 21
-3.92604105E+01
  0
CIRCLE
  8
0
 62
4
 10
-1.15713100E+02
 20
-3.92604105E+01
 40
4.00000000E+00
  0
LINE
  8
0
  6
CENTER
 62
6
 10
-8.47130997E+01
 20
-4.44083869E+01
 11
-8.47130997E+01
 21
-5.02646116E+01
  0
ARC
  8
0
 62
4
 10
-8.03162719E+01
 20
-4.56472382E+01
 40
2.60317420E+00
 50
2.70069822E+02
 51
3.59930178E+02
  0
LINE
  8
0
 62
4
 10
-8.97130997E+01
 20
-4.66504105E+01
 11
-8.97130997E+01
 21
-4.82504105E+01
  0
LINE
  8
0
 62
4
 10
-8.26130997E+01
 20
-4.66504105E+01
 11
-8.26130997E+01
 21
-4.82504105E+01
  0
LINE
  8
0
 62
4
 10
-8.68130997E+01
 20
-4.66504105E+01
 11
-8.68130997E+01
 21
-4.82504105E+01
  0
LINE
  8
0
 62
4
 10
-7.93130997E+01
 20
-3.22504105E+01
 11
-7.77130997E+01
 21
-3.22504105E+01
  0
LINE
  8
0
 62
4
 10
-7.93130997E+01
 20
-3.22504105E+01
 11
-7.93130997E+01
 21
-4.56504105E+01
  0
ARC
  8
0
 62
4
 10
-8.03162710E+01
 20
-4.56472391E+01
 40
1.00317633E+00
 50
2.70181129E+02
 51
3.59818872E+02
  0
LINE
  8
0
 62
4
 10
-8.97130997E+01
 20
-4.66504105E+01
 11
-8.03130997E+01
 21
-4.66504105E+01
  0
LINE
  8
0
 62
4
 10
-7.77130997E+01
 20
-3.22504105E+01
 11
-7.77130997E+01
 21
-4.56504105E+01
  0
LINE
  8
0
  6
CENTER
 62
6
 10
-8.17391464E+01
 20
-3.92604105E+01
 11
-7.57931796E+01
 21
-3.92604105E+01
  0
LINE
  8
0
 62
4
 10
-8.97130997E+01
 20
-4.82504105E+01
 11
-8.03130997E+01
 21
-4.82504105E+01
  0
ARC
  8
0
 62
4
 10
-1.26820147E+02
 20
-1.62504105E+01
 40
2.10001182E+00
 50
2.70192271E+02
 51
8.98077287E+01
  0
ARC
  8
0
 62
4
 10
-1.04620150E+02
 20
-1.62504105E+01
 40
2.10001183E+00
 50
8.98076456E+01
 51
2.70192355E+02
  0
LINE
  8
0
 62
4
 10
-1.31713100E+02
 20
-1.83504105E+01
 11
-1.31713100E+02
 21
-2.12504105E+01
  0
LINE
  8
0
 62
4
 10
-9.97130997E+01
 20
-1.83504105E+01
 11
-9.97130997E+01
 21
-2.12504105E+01
  0
LINE
  8
0
 62
4
 10
-1.04613100E+02
 20
-1.83504105E+01
 11
-9.97130997E+01
 21
-1.83504105E+01
  0
LINE
  8
0
 62
4
 10
-1.04613100E+02
 20
-1.41504105E+01
 11
-9.97130997E+01
 21
-1.41504105E+01
  0
LINE
  8
0
 62
4
 10
-1.31713100E+02
 20
-1.83504105E+01
 11
-1.26813100E+02
 21
-1.83504105E+01
  0
LINE
  8
0
 62
4
 10
-1.31713100E+02
 20
-1.41504105E+01
 11
-1.26813100E+02
 21
-1.41504105E+01
  0
LINE
  8
0
  6
CENTER
 62
6
 10
-1.29686981E+02
 20
-1.62504105E+01
 11
-1.01920049E+02
 21
-1.62504105E+01
  0
LINE
  8
0
  6
CENTER
 62
6
 10
-1.15713100E+02
 20
-7.86041046E+00
 11
-1.15713100E+02
 21
-2.24904105E+01
  0
LINE
  8
0
 62
4
 10
-1.31713100E+02
 20
-2.12504105E+01
 11
-9.97130997E+01
 21
-2.12504105E+01
  0
LINE
  8
0
 62
4
 10
-1.31713100E+02
 20
-9.25041046E+00
 11
-9.97130997E+01
 21
-9.25041046E+00
  0
LINE
  8
0
 62
4
 10
-9.97130997E+01
 20
-9.25041046E+00
 11
-9.97130997E+01
 21
-1.41504105E+01
  0
LINE
  8
0
 62
4
 10
-1.31713100E+02
 20
-9.25041046E+00
 11
-1.31713100E+02
 21
-1.41504105E+01
  0
LINE
  8
0
 62
4
 10
-1.31713100E+02
 20
-1.08504105E+01
 11
-9.97130997E+01
 21
-1.08504105E+01
  0
LINE
  8
0
  6
CENTER
 62
6
 10
-1.26813100E+02
 20
-1.97171304E+01
 11
-1.26813100E+02
 21
-1.32504105E+01
  0
LINE
  8
0
  6
CENTER
 62
6
 10
-1.04613100E+02
 20
-1.94185612E+01
 11
-1.04613100E+02
 21
-1.31486087E+01
  0
ARC
  8
0
 62
4
 10
-2.68130997E+01
 20
-3.92604105E+01
 40
2.10000000E+00
 50
2.70000000E+02
 51
9.00000002E+01
  0
ARC
  8
0
 62
4
 10
-4.61309966E+00
 20
-3.92604105E+01
 40
2.10000000E+00
 50
9.00000002E+01
 51
2.70000000E+02
  0
LINE
  8
0
 62
4
 10
-3.17130997E+01
 20
-4.13604105E+01
 11
-3.17130997E+01
 21
-4.62604105E+01
  0
LINE
  8
0
 62
4
 10
2.86900337E-01
 20
-4.13604105E+01
 11
2.86900337E-01
 21
-4.62604105E+01
  0
LINE
  8
0
 62
4
 10
-3.17130997E+01
 20
-3.22604105E+01
 11
2.86900337E-01
 21
-3.22604105E+01
  0
LINE
  8
0
 62
4
 10
-3.17130997E+01
 20
-4.62604105E+01
 11
2.86900337E-01
 21
-4.62604105E+01
  0
LINE
  8
0
 62
4
 10
-4.61309966E+00
 20
-3.71604105E+01
 11
2.86900337E-01
 21
-3.71604105E+01
  0
LINE
  8
0
 62
4
 10
-4.61309966E+00
 20
-4.13604105E+01
 11
2.86900337E-01
 21
-4.13604105E+01
  0
LINE
  8
0
 62
4
 10
-3.17130997E+01
 20
-3.71604105E+01
 11
-2.68130997E+01
 21
-3.71604105E+01
  0
LINE
  8
0
 62
4
 10
-3.17130997E+01
 20
-4.13604105E+01
 11
-2.68130997E+01
 21
-4.13604105E+01
  0
LINE
  8
0
  6
CENTER
 62
6
 10
-2.88312594E+01
 20
-3.92604105E+01
 11
-2.21267985E+00
 21
-3.92604105E+01
  0
LINE
  8
0
  6
CENTER
 62
6
 10
-1.57130997E+01
 20
-3.40750877E+01
 11
-1.57130997E+01
 21
-4.49024292E+01
  0
CIRCLE
  8
0
 62
4
 10
-1.57130997E+01
 20
-3.92604105E+01
 40
4.00000000E+00
  0
LINE
  8
0
 62
4
 10
2.86900337E-01
 20
-3.22604105E+01
 11
2.86900337E-01
 21
-3.71604105E+01
  0
LINE
  8
0
 62
4
 10
-3.17130997E+01
 20
-3.22604105E+01
 11
-3.17130997E+01
 21
-3.71604105E+01
  0
LINE
  8
0
  6
CENTER
 62
6
 10
-2.68130997E+01
 20
-3.65172612E+01
 11
-2.68130997E+01
 21
-4.22770959E+01
  0
LINE
  8
0
  6
CENTER
 62
6
 10
-4.61309966E+00
 20
-3.65172612E+01
 11
-4.61309966E+00
 21
-4.22770959E+01
  0
LINE
  8
0
  6
CENTER
 62
6
 10
2.33766398E+01
 20
-3.92604105E+01
 11
2.88538741E+01
 21
-3.92604105E+01
  0
LINE
  8
0
 62
4
 10
2.52869003E+01
 20
-3.22604105E+01
 11
2.68869003E+01
 21
-3.22604105E+01
  0
LINE
  8
0
 62
4
 10
2.68869003E+01
 20
-3.22604105E+01
 11
2.68869003E+01
 21
-4.62604105E+01
  0
LINE
  8
0
 62
4
 10
2.52869003E+01
 20
-3.22604105E+01
 11
2.52869003E+01
 21
-4.62604105E+01
  0
LINE
  8
0
 62
4
 10
2.52869003E+01
 20
-4.13604105E+01
 11
2.68869003E+01
 21
-4.13604105E+01
  0
LINE
  8
0
 62
4
 10
2.52869003E+01
 20
-4.62604105E+01
 11
2.68569003E+01
 21
-4.62604105E+01
  0
LINE
  8
0
 62
4
 10
2.52869003E+01
 20
-3.71604105E+01
 11
2.68869003E+01
 21
-3.71604105E+01
  0
LINE
  8
0
  6
CENTER
 62
6
 10
-1.57130997E+01
 20
-1.89761334E+01
 11
-1.57130997E+01
 21
-1.40209131E+01
  0
LINE
  8
0
  6
CENTER
 62
6
 10
-4.61309966E+00
 20
-1.89761334E+01
 11
-4.61309966E+00
 21
-1.40209131E+01
  0
LINE
  8
0
  6
CENTER
 62
6
 10
-4.61309966E+00
 20
-1.89761334E+01
 11
-4.61309966E+00
 21
-1.40209131E+01
  0
LINE
  8
0
 62
4
 10
-3.17130997E+01
 20
-1.56604105E+01
 11
-3.17130997E+01
 21
-1.72604105E+01
  0
LINE
  8
0
 62
4
 10
-3.17130997E+01
 20
-1.72604105E+01
 11
2.86900337E-01
 21
-1.72604105E+01
  0
LINE
  8
0
 62
4
 10
-3.17130997E+01
 20
-1.56604105E+01
 11
2.86900337E-01
 21
-1.56604105E+01
  0
LINE
  8
0
 62
4
 10
2.86900337E-01
 20
-1.56604105E+01
 11
2.86900337E-01
 21
-1.72604105E+01
  0
LINE
  8
0
  6
CENTER
 62
6
 10
-2.68130997E+01
 20
-1.89761334E+01
 11
-2.68130997E+01
 21
-1.40209131E+01
  0
LINE
  8
0
  6
CENTER
 62
6
 10
-4.61309966E+00
 20
-1.90838555E+01
 11
-4.61309966E+00
 21
-1.41286353E+01
  0
LINE
  8
0
 62
4
 10
8.57354530E+01
 20
-4.04137564E+00
 11
8.57354530E+01
 21
-1.60413756E+01
  0
CIRCLE
  8
0
 62
6
 10
9.02354530E+01
 20
-1.00413756E+01
 40
2.50000000E+00
  0
LINE
  8
0
  6
CENTER
 62
6
 10
9.02354530E+01
 20
-6.43137564E+00
 11
9.02354530E+01
 21
-1.36413756E+01
  0
LINE
  8
0
 62
4
 10
9.47354530E+01
 20
-4.04137564E+00
 11
9.47354530E+01
 21
-1.60413756E+01
  0
LINE
  8
0
  6
CENTER
 62
6
 10
6.87354530E+01
 20
-1.00413756E+01
 11
9.67354530E+01
 21
-1.00413756E+01
  0
CIRCLE
  8
0
 62
4
 10
9.02354530E+01
 20
-1.00413756E+01
 40
2.06700000E+00
  0
LINE
  8
0
 62
4
 10
8.57354530E+01
 20
-4.04137564E+00
 11
9.47354530E+01
 21
-4.04137564E+00
  0
LINE
  8
0
 62
4
 10
8.57354530E+01
 20
-1.60413756E+01
 11
9.47354530E+01
 21
-1.60413756E+01
  0
LINE
  8
0
 62
4
 10
8.74654530E+01
 20
-4.04137564E+00
 11
8.74654530E+01
 21
-6.43582436E+00
  0
LINE
  8
0
 62
4
 10
9.30054530E+01
 20
-4.04137564E+00
 11
9.30054530E+01
 21
-6.43582436E+00
  0
LINE
  8
0
 62
4
 10
9.30054530E+01
 20
-1.36469269E+01
 11
9.30054530E+01
 21
-1.60413756E+01
  0
LINE
  8
0
 62
4
 10
8.74654530E+01
 20
-1.36469269E+01
 11
8.74654530E+01
 21
-1.60413756E+01
  0
LINE
  8
0
 62
4
 10
8.74654530E+01
 20
-6.43582436E+00
 11
9.30054530E+01
 21
-6.43582436E+00
  0
LINE
  8
0
 62
4
 10
8.74654530E+01
 20
-1.36469269E+01
 11
9.30054530E+01
 21
-1.36469269E+01
  0
ARC
  8
0
 62
4
 10
9.03576784E+01
 20
-1.00413756E+01
 40
4.62222543E+00
 50
1.28735157E+02
 51
2.31264843E+02
  0
ARC
  8
0
 62
4
 10
9.01132275E+01
 20
-1.00413756E+01
 40
4.62222543E+00
 50
3.08735157E+02
 51
5.12648431E+01
  0
LINE
  8
0
  6
CENTER
 62
6
 10
1.14385453E+02
 20
-2.04137564E+00
 11
1.14385453E+02
 21
-1.80413756E+01
  0
LINE
  8
0
  6
CENTER
 62
6
 10
1.06385453E+02
 20
-1.00413756E+01
 11
1.22385453E+02
 21
-1.00413756E+01
  0
LINE
  8
0
 62
4
 10
1.08385453E+02
 20
-6.43582436E+00
 11
1.08385453E+02
 21
-1.36469269E+01
  0
LINE
  8
0
 62
4
 10
1.20385453E+02
 20
-6.43582436E+00
 11
1.20385453E+02
 21
-1.36469269E+01
  0
LINE
  8
0
 62
4
 10
1.10779902E+02
 20
-4.04137564E+00
 11
1.17991004E+02
 21
-4.04137564E+00
  0
LINE
  8
0
 62
4
 10
1.10779902E+02
 20
-1.60413756E+01
 11
1.17991004E+02
 21
-1.60413756E+01
  0
CIRCLE
  8
0
 62
4
 10
1.14385453E+02
 20
-1.00413756E+01
 40
6.00000000E+00
  0
ARC
  8
0
 62
4
 10
1.14385453E+02
 20
-1.00413756E+01
 40
7.00000000E+00
 50
2.11002719E+02
 51
2.38997281E+02
  0
ARC
  8
0
 62
4
 10
1.14385453E+02
 20
-1.00413756E+01
 40
7.00000000E+00
 50
3.01002719E+02
 51
3.08088773E+02
  0
ARC
  8
0
 62
4
 10
1.14385453E+02
 20
-1.00413756E+01
 40
7.00000000E+00
 50
3.08088773E+02
 51
3.28997281E+02
  0
ARC
  8
0
 62
4
 10
1.14385453E+02
 20
-1.00413756E+01
 40
7.00000000E+00
 50
3.10027191E+01
 51
5.89972808E+01
  0
ARC
  8
0
 62
4
 10
1.14385453E+02
 20
-1.00413756E+01
 40
7.00000000E+00
 50
1.21002719E+02
 51
1.48997281E+02
  0
LINE
  8
0
 62
4
 10
8.61932019E+01
 20
-5.52604105E+01
 11
9.51932019E+01
 21
-5.52604105E+01
  0
LINE
  8
0
 62
4
 10
8.61932019E+01
 20
-4.32604105E+01
 11
9.51932019E+01
 21
-4.32604105E+01
  0
LINE
  8
0
  6
CENTER
 62
6
 10
6.91932019E+01
 20
-4.92604105E+01
 11
1.04393202E+02
 21
-4.92604105E+01
  0
LINE
  8
0
 62
6
 10
1.01283202E+02
 20
-5.25839105E+01
 11
1.03193202E+02
 21
-5.25839105E+01
  0
LINE
  8
0
 62
6
 10
1.01283202E+02
 20
-4.59369105E+01
 11
1.03193202E+02
 21
-4.59369105E+01
  0
LINE
  8
0
 62
6
 10
9.66932019E+01
 20
-5.25839105E+01
 11
9.72832019E+01
 21
-5.25839105E+01
  0
LINE
  8
0
 62
6
 10
9.66932019E+01
 20
-4.59369105E+01
 11
9.72832019E+01
 21
-4.59369105E+01
  0
CIRCLE
  8
0
 62
4
 10
9.06932019E+01
 20
-4.92604105E+01
 40
2.06700000E+00
  0
LINE
  8
0
 62
4
 10
9.51932019E+01
 20
-4.32604105E+01
 11
9.51932019E+01
 21
-5.52604105E+01
  0
LINE
  8
0
  6
CENTER
 62
6
 10
9.06932019E+01
 20
-4.56504105E+01
 11
9.06932019E+01
 21
-5.28604105E+01
  0
LINE
  8
0
 62
4
 10
9.78832019E+01
 20
-4.23304105E+01
 11
1.00683202E+02
 21
-4.23304105E+01
  0
LINE
  8
0
 62
4
 10
9.78832019E+01
 20
-4.57904105E+01
 11
1.00683202E+02
 21
-4.57904105E+01
  0
LINE
  8
0
 62
4
 10
9.78832019E+01
 20
-5.27204105E+01
 11
1.00683202E+02
 21
-5.27204105E+01
  0
LINE
  8
0
 62
4
 10
9.78832019E+01
 20
-5.61804105E+01
 11
1.00683202E+02
 21
-5.61804105E+01
  0
LINE
  8
0
 62
4
 10
1.03193202E+02
 20
-4.58604105E+01
 11
1.03193202E+02
 21
-5.26604105E+01
  0
LINE
  8
0
 62
4
 10
9.51932019E+01
 20
-5.32604105E+01
 11
9.72832019E+01
 21
-5.32604105E+01
  0
LINE
  8
0
 62
4
 10
9.51932019E+01
 20
-4.52604105E+01
 11
9.72832019E+01
 21
-4.52604105E+01
  0
LINE
  8
0
 62
4
 10
1.02593202E+02
 20
-4.52604105E+01
 11
1.03193202E+02
 21
-4.58604105E+01
  0
LINE
  8
0
 62
4
 10
1.02593202E+02
 20
-5.32604105E+01
 11
1.03193202E+02
 21
-5.26604105E+01
  0
LINE
  8
0
 62
4
 10
9.66932019E+01
 20
-4.52604105E+01
 11
9.66932019E+01
 21
-5.32604105E+01
  0
LINE
  8
0
 62
4
 10
1.02593202E+02
 20
-4.52604105E+01
 11
1.02593202E+02
 21
-5.32604105E+01
  0
LINE
  8
0
 62
4
 10
1.01283202E+02
 20
-4.40604105E+01
 11
1.01283202E+02
 21
-5.44504105E+01
  0
LINE
  8
0
 62
4
 10
9.72832019E+01
 20
-4.40604105E+01
 11
9.72832019E+01
 21
-5.44504105E+01
  0
LINE
  8
0
 62
4
 10
1.01283202E+02
 20
-4.52604105E+01
 11
1.02593202E+02
 21
-4.52604105E+01
  0
LINE
  8
0
 62
4
 10
1.01283202E+02
 20
-5.32604105E+01
 11
1.02593202E+02
 21
-5.32604105E+01
  0
LINE
  8
0
 62
4
 10
8.79232019E+01
 20
-4.32604105E+01
 11
8.79232019E+01
 21
-4.56548592E+01
  0
LINE
  8
0
 62
4
 10
9.34632019E+01
 20
-4.32604105E+01
 11
9.34632019E+01
 21
-4.56548592E+01
  0
LINE
  8
0
 62
4
 10
8.79232019E+01
 20
-5.28659617E+01
 11
8.79232019E+01
 21
-5.52604105E+01
  0
LINE
  8
0
 62
4
 10
9.34632019E+01
 20
-5.28659617E+01
 11
9.34632019E+01
 21
-5.52604105E+01
  0
CIRCLE
  8
0
 62
6
 10
9.06932019E+01
 20
-4.92604105E+01
 40
2.50000000E+00
  0
ARC
  8
0
 62
4
 10
1.00076615E+02
 20
-4.40601779E+01
 40
2.79341289E+00
 50
1.41740010E+02
 51
1.80004770E+02
  0
ARC
  8
0
 62
4
 10
1.07577828E+02
 20
-4.92535878E+01
 40
1.02946281E+01
 50
1.60341925E+02
 51
1.80037972E+02
  0
ARC
  8
0
 62
4
 10
1.00079374E+02
 20
-4.40596860E+01
 40
2.79617214E+00
 50
1.80014844E+02
 51
2.18240376E+02
  0
ARC
  8
0
 62
4
 10
1.07578942E+02
 20
-4.92570451E+01
 40
1.02957407E+01
 50
1.80018728E+02
 51
1.99656974E+02
  0
ARC
  8
0
 62
4
 10
1.00077325E+02
 20
-5.44504244E+01
 40
2.79412364E+00
 50
1.41745067E+02
 51
1.79999713E+02
  0
ARC
  8
0
 62
4
 10
1.00078659E+02
 20
-5.44499341E+01
 40
2.79545698E+00
 50
1.80009764E+02
 51
2.18245456E+02
  0
ARC
  8
0
 62
4
 10
9.84778630E+01
 20
-4.40565068E+01
 40
2.80534161E+00
 50
3.21824508E+02
 51
3.59920273E+02
  0
ARC
  8
0
 62
4
 10
9.84806131E+01
 20
-4.40633603E+01
 40
2.80259031E+00
 50
6.03065249E-02
 51
3.81949138E+01
  0
ARC
  8
0
 62
4
 10
9.09786016E+01
 20
-4.92553125E+01
 40
1.03046015E+01
 50
3.59971654E+02
 51
1.96484484E+01
  0
ARC
  8
0
 62
4
 10
9.09774901E+01
 20
-4.92553159E+01
 40
1.03057130E+01
 50
3.40352622E+02
 51
3.59971677E+02
  0
ARC
  8
0
 62
4
 10
9.84799047E+01
 20
-5.44536060E+01
 40
2.80329901E+00
 50
6.53130559E-02
 51
3.81899073E+01
  0
ARC
  8
0
 62
4
 10
9.84785757E+01
 20
-5.44467540E+01
 40
2.80462852E+00
 50
3.21819478E+02
 51
3.59925302E+02
  0
LINE
  8
0
 62
4
 10
8.61932019E+01
 20
-4.32604105E+01
 11
8.61932019E+01
 21
-5.52604105E+01
  0
LINE
  8
0
 62
4
 10
8.79232019E+01
 20
-4.56548592E+01
 11
9.34632019E+01
 21
-4.56548592E+01
  0
LINE
  8
0
 62
4
 10
8.79232019E+01
 20
-5.28659617E+01
 11
9.34632019E+01
 21
-5.28659617E+01
  0
ARC
  8
0
 62
4
 10
9.08154273E+01
 20
-4.92604105E+01
 40
4.62222543E+00
 50
1.28735157E+02
 51
2.31264843E+02
  0
ARC
  8
0
 62
4
 10
9.05709764E+01
 20
-4.92604105E+01
 40
4.62222543E+00
 50
3.08735157E+02
 51
5.12648431E+01
  0
LINE
  8
0
  6
CENTER
 62
6
 10
1.14823202E+02
 20
-4.18496957E+01
 11
1.14823202E+02
 21
-5.66711252E+01
  0
LINE
  8
0
  6
CENTER
 62
6
 10
1.07412487E+02
 20
-4.92604105E+01
 11
1.22233917E+02
 21
-4.92604105E+01
  0
CIRCLE
  8
0
 62
6
 10
1.14823202E+02
 20
-4.92604105E+01
 40
3.32350000E+00
  0
CIRCLE
  8
0
 62
4
 10
1.14823202E+02
 20
-4.92604105E+01
 40
4.00000000E+00
  0
LINE
  8
0
 62
4
 10
1.20823202E+02
 20
-4.56548592E+01
 11
1.20823202E+02
 21
-5.28659617E+01
  0
LINE
  8
0
 62
4
 10
1.08823202E+02
 20
-4.56548592E+01
 11
1.08823202E+02
 21
-5.28659617E+01
  0
LINE
  8
0
 62
4
 10
1.14823202E+02
 20
-4.23260546E+01
 11
1.15879743E+02
 21
-4.29360489E+01
  0
LINE
  8
0
 62
4
 10
1.08823202E+02
 20
-5.27183594E+01
 11
1.14823202E+02
 21
-5.61824610E+01
  0
LINE
  8
0
 62
4
 10
1.08823202E+02
 20
-4.57878509E+01
 11
1.13687501E+02
 21
-4.29794466E+01
  0
LINE
  8
0
 62
4
 10
1.14823202E+02
 20
-5.61801557E+01
 11
1.20823202E+02
 21
-5.27160541E+01
  0
CIRCLE
  8
0
 62
4
 10
1.14823202E+02
 20
-4.92604105E+01
 40
6.00000000E+00
  0
ARC
  8
0
 62
4
 10
1.14823202E+02
 20
-4.92604105E+01
 40
7.00000000E+00
 50
3.10027191E+01
 51
5.89972808E+01
  0
LINE
  8
0
 62
4
 10
1.11217651E+02
 20
-4.32604105E+01
 11
1.13200857E+02
 21
-4.32604105E+01
  0
LINE
  8
0
 62
4
 10
1.11217651E+02
 20
-5.52604105E+01
 11
1.13226163E+02
 21
-5.52604105E+01
  0
ARC
  8
0
 62
4
 10
1.14823202E+02
 20
-4.92604105E+01
 40
7.00000000E+00
 50
1.21002719E+02
 51
1.48997281E+02
  0
ARC
  8
0
 62
4
 10
1.14823202E+02
 20
-4.92604105E+01
 40
7.00000000E+00
 50
2.11002719E+02
 51
2.38997281E+02
  0
ARC
  8
0
 62
4
 10
1.14823202E+02
 20
-4.92604105E+01
 40
7.00000000E+00
 50
3.01002719E+02
 51
3.28997281E+02
  0
LINE
  8
0
 62
4
 10
1.16441554E+02
 20
-4.32604105E+01
 11
1.18428753E+02
 21
-4.32604105E+01
  0
LINE
  8
0
 62
4
 10
1.15879743E+02
 20
-4.29360489E+01
 11
1.20823202E+02
 21
-4.57901562E+01
  0
LINE
  8
0
 62
4
 10
1.13687501E+02
 20
-4.29794466E+01
 11
1.14823202E+02
 21
-4.23237493E+01
  0
LINE
  8
0
 62
4
 10
1.16416247E+02
 20
-5.52604105E+01
 11
1.18428753E+02
 21
-5.52604105E+01
  0
TEXT
  8
0
 62
7
 10
-1.87107344E+02
 20
1.22850006E+02
 40
4.50000000E+00
  1
NEW PEN CYLINDER
 41
1.08108108E+00
  7
MONOTXT
  0
TEXT
  8
0
 62
7
 10
1.34942863E+02
 20
1.22850006E+02
 40
4.50000000E+00
  1
Ver. 1.1
 41
1.08108085E+00
  7
MONOTXT
  0
LINE
  8
0
 62
7
 10
1.09800003E+02
 20
-1.18500000E+02
 11
1.09800003E+02
 21
-1.33500000E+02
  0
TEXT
  8
0
 62
7
 10
-1.85214688E+02
 20
1.05350006E+02
 40
4.50000000E+00
  1
MODEL:PBDATS10*ST1(20)*ST2(20)-ZC230
 41
1.00000000E+00
  7
MONOTXT
  0
TEXT
  8
0
 62
7
 10
2.55500030E+01
 20
-1.15100000E+02
 40
3.20000005E+00
  1
0
 41
1.00000000E+00
  7
MONOTXT
  0
LINE
  8
0
 62
7
 10
1.04800003E+02
 20
-1.04500000E+02
 11
1.04800003E+02
 21
-1.28500000E+02
  0
LINE
  8
0
 62
7
 10
9.28000031E+01
 20
-1.04500000E+02
 11
9.28000031E+01
 21
-1.28500000E+02
  0
LINE
  8
0
 62
7
 10
8.08000031E+01
 20
-1.04500000E+02
 11
8.08000031E+01
 21
-1.28500000E+02
  0
TEXT
  8
0
 62
7
 10
9.60625279E+01
 20
-1.27100000E+02
 40
3.20000005E+00
  1
10
 41
1.00000000E+00
  7
MONOTXT
  0
TEXT
  8
0
 62
7
 10
9.60625279E+01
 20
-1.15096377E+02
 40
3.20000005E+00
  1
30
 41
1.00000000E+00
  7
MONOTXT
  0
TEXT
  8
0
 62
7
 10
8.56625279E+01
 20
-1.27100000E+02
 40
3.20000005E+00
  1
5
 41
1.00000000E+00
  7
MONOTXT
  0
TEXT
  8
0
 62
7
 10
8.40625279E+01
 20
-1.15096377E+02
 40
3.20000005E+00
  1
25
 41
1.00000000E+00
  7
MONOTXT
  0
TEXT
  8
0
 62
7
 10
7.16252795E+00
 20
-1.27100000E+02
 40
3.20000005E+00
  1
B
 41
1.00000000E+00
  7
MONOTXT
  0
TEXT
  8
0
 62
7
 10
-3.04100308E+00
 20
-1.16676375E+02
 40
3.20000005E+00
  1
STRETCH
 41
1.00000000E+00
  7
MONOTXT
  0
TEXT
  8
0
 62
7
 10
-3.04100308E+00
 20
-1.21476375E+02
 40
3.20000005E+00
  1
  PLACE
 41
1.20689655E+00
  7
MONOTXT
  0
TEXT
  8
0
 62
7
 10
3.44625279E+01
 20
-1.27100000E+02
 40
3.20000005E+00
  1
-15
 41
1.00000000E+00
  7
MONOTXT
  0
TEXT
  8
0
 62
7
 10
4.64625279E+01
 20
-1.27100000E+02
 40
3.20000005E+00
  1
-10
 41
1.00000000E+00
  7
MONOTXT
  0
TEXT
  8
0
 62
7
 10
6.00625279E+01
 20
-1.27100000E+02
 40
3.20000005E+00
  1
-5
 41
1.00000000E+00
  7
MONOTXT
  0
TEXT
  8
0
 62
7
 10
7.36625279E+01
 20
-1.27100000E+02
 40
3.20000005E+00
  1
0
 41
1.00000000E+00
  7
MONOTXT
  0
TEXT
  8
0
 62
7
 10
3.76625279E+01
 20
-1.15096377E+02
 40
3.20000005E+00
  1
5
 41
1.00000000E+00
  7
MONOTXT
  0
TEXT
  8
0
 62
7
 10
4.80625279E+01
 20
-1.15096377E+02
 40
3.20000005E+00
  1
10
 41
1.00000000E+00
  7
MONOTXT
  0
TEXT
  8
0
 62
7
 10
6.00625279E+01
 20
-1.15096377E+02
 40
3.20000005E+00
  1
15
 41
1.00000000E+00
  7
MONOTXT
  0
TEXT
  8
0
 62
7
 10
7.20625279E+01
 20
-1.15096377E+02
 40
3.20000005E+00
  1
20
 41
1.00000000E+00
  7
MONOTXT
  0
TEXT
  8
0
 62
7
 10
1.62527831E-01
 20
-1.09096381E+02
 40
3.20000005E+00
  1
STROKE
 41
1.00000000E+00
  7
MONOTXT
  0
LINE
  8
0
 62
7
 10
-4.19999695E+00
 20
-1.04500000E+02
 11
-4.19999695E+00
 21
-1.28500000E+02
  0
LINE
  8
0
 62
7
 10
-4.19999695E+00
 20
-1.10500000E+02
 11
1.86900031E+01
 21
-1.10500000E+02
  0
LINE
  8
0
 62
7
 10
2.08000031E+01
 20
-1.22500000E+02
 11
1.86900031E+01
 21
-1.10500000E+02
  0
LINE
  8
0
 62
7
 10
-4.19999695E+00
 20
-1.22500000E+02
 11
1.04800003E+02
 21
-1.22500000E+02
  0
LINE
  8
0
 62
7
 10
-4.19999695E+00
 20
-1.04500000E+02
 11
1.04800003E+02
 21
-1.04500000E+02
  0
LINE
  8
0
 62
7
 10
6.88000031E+01
 20
-1.04500000E+02
 11
6.88000031E+01
 21
-1.28500000E+02
  0
LINE
  8
0
 62
7
 10
5.68000031E+01
 20
-1.04500000E+02
 11
5.68000031E+01
 21
-1.28500000E+02
  0
LINE
  8
0
 62
7
 10
4.48000031E+01
 20
-1.04500000E+02
 11
4.48000031E+01
 21
-1.28500000E+02
  0
LINE
  8
0
 62
7
 10
3.28000031E+01
 20
-1.04500000E+02
 11
3.28000031E+01
 21
-1.28500000E+02
  0
LINE
  8
0
 62
7
 10
2.08000031E+01
 20
-1.04500000E+02
 11
2.08000031E+01
 21
-1.28500000E+02
  0
LINE
  8
0
 62
7
 10
-4.19999695E+00
 20
-1.28500000E+02
 11
1.04800003E+02
 21
-1.28500000E+02
  0
TEXT
  8
0
 62
7
 10
9.34538078E+01
 20
-1.02880282E+02
 40
3.20000005E+00
  1
(mm)
 41
1.00000000E+00
  7
MONOTXT
  0
TEXT
  8
0
 62
7
 10
2.35570026E+01
 20
-1.02880282E+02
 40
3.20000005E+00
  1
STRETCH LIST(ST2)
 41
1.03658537E+00
  7
MONOTXT
  0
LINE
  8
0
 62
2
 10
6.68908904E+01
 20
-1.55413756E+01
 11
7.32415570E+01
 21
-4.54137564E+00
  0
LINE
  8
0
 62
7
 10
7.32362237E+01
 20
-4.54137564E+00
 11
8.57362237E+01
 21
-4.54137564E+00
  0
LINE
  8
0
 62
7
 10
6.68862237E+01
 20
-1.55413756E+01
 11
8.57362237E+01
 21
-1.55413756E+01
  0
LINE
  8
0
 62
2
 10
6.73378685E+01
 20
-5.47604105E+01
 11
7.36885352E+01
 21
-4.37604105E+01
  0
LINE
  8
0
 62
7
 10
7.36932019E+01
 20
-4.37604105E+01
 11
8.61932019E+01
 21
-4.37604105E+01
  0
LINE
  8
0
 62
7
 10
6.73432019E+01
 20
-5.47604105E+01
 11
8.61932019E+01
 21
-5.47604105E+01
  0
TEXT
  8
0
 10
-2.90170003E+01
 20
5.84447687E+01
 40
3.20000005E+00
  1
STRETCH LINE B
 41
1.09375000E+00
  7
MONOTXT
  0
TEXT
  8
0
 10
4.59829997E+01
 20
5.84447687E+01
 40
3.20000005E+00
  1
STRETCH LINE A
 41
1.09375000E+00
  7
MONOTXT
  0
LINE
  8
0
 62
7
 10
-4.19999695E+00
 20
-9.45000000E+01
 11
1.64800003E+02
 21
-9.45000000E+01
  0
LINE
  8
0
 62
7
 10
2.08000031E+01
 20
-7.05000000E+01
 11
2.08000031E+01
 21
-9.45000000E+01
  0
LINE
  8
0
 62
7
 10
3.28000031E+01
 20
-7.05000000E+01
 11
3.28000031E+01
 21
-9.45000000E+01
  0
LINE
  8
0
 62
7
 10
4.48000031E+01
 20
-7.05000000E+01
 11
4.48000031E+01
 21
-9.45000000E+01
  0
LINE
  8
0
 62
7
 10
5.68000031E+01
 20
-7.05000000E+01
 11
5.68000031E+01
 21
-9.45000000E+01
  0
LINE
  8
0
 62
7
 10
6.88000031E+01
 20
-7.05000000E+01
 11
6.88000031E+01
 21
-9.45000000E+01
  0
LINE
  8
0
 62
7
 10
-4.19999695E+00
 20
-7.05000000E+01
 11
1.64800003E+02
 21
-7.05000000E+01
  0
LINE
  8
0
 62
7
 10
-4.19999695E+00
 20
-8.85000000E+01
 11
1.64800003E+02
 21
-8.85000000E+01
  0
LINE
  8
0
 62
7
 10
2.08000031E+01
 20
-8.85000000E+01
 11
1.86900031E+01
 21
-7.65000000E+01
  0
LINE
  8
0
 62
7
 10
-4.19999695E+00
 20
-7.65000000E+01
 11
1.86900031E+01
 21
-7.65000000E+01
  0
LINE
  8
0
 62
7
 10
-4.19999695E+00
 20
-7.05000000E+01
 11
-4.19999695E+00
 21
-9.45000000E+01
  0
TEXT
  8
0
 62
7
 10
1.62527831E-01
 20
-7.50963812E+01
 40
3.20000005E+00
  1
STROKE
 41
1.00000000E+00
  7
MONOTXT
  0
TEXT
  8
0
 62
7
 10
6.00625279E+01
 20
-8.10963774E+01
 40
3.20000005E+00
  1
20
 41
1.00000000E+00
  7
MONOTXT
  0
TEXT
  8
0
 62
7
 10
4.80625279E+01
 20
-8.10963774E+01
 40
3.20000005E+00
  1
15
 41
1.00000000E+00
  7
MONOTXT
  0
TEXT
  8
0
 62
7
 10
3.60625279E+01
 20
-8.10963774E+01
 40
3.20000005E+00
  1
10
 41
1.00000000E+00
  7
MONOTXT
  0
TEXT
  8
0
 62
7
 10
2.56625279E+01
 20
-8.10963774E+01
 40
3.20000005E+00
  1
5
 41
1.00000000E+00
  7
MONOTXT
  0
TEXT
  8
0
 62
7
 10
6.16625279E+01
 20
-9.31000000E+01
 40
3.20000005E+00
  1
0
 41
1.00000000E+00
  7
MONOTXT
  0
TEXT
  8
0
 62
7
 10
4.80625279E+01
 20
-9.31000000E+01
 40
3.20000005E+00
  1
-5
 41
1.00000000E+00
  7
MONOTXT
  0
TEXT
  8
0
 62
7
 10
3.44625279E+01
 20
-9.31000000E+01
 40
3.20000005E+00
  1
-10
 41
1.00000000E+00
  7
MONOTXT
  0
TEXT
  8
0
 62
7
 10
2.24625279E+01
 20
-9.31000000E+01
 40
3.20000005E+00
  1
-15
 41
1.00000000E+00
  7
MONOTXT
  0
TEXT
  8
0
 62
7
 10
-3.04100308E+00
 20
-8.26763750E+01
 40
3.20000005E+00
  1
STRETCH
 41
1.00000000E+00
  7
MONOTXT
  0
TEXT
  8
0
 62
7
 10
-3.04100308E+00
 20
-8.74763751E+01
 40
3.20000005E+00
  1
  PLACE
 41
1.20689655E+00
  7
MONOTXT
  0
TEXT
  8
0
 62
7
 10
7.16252795E+00
 20
-9.31000000E+01
 40
3.20000005E+00
  1
A
 41
1.00000000E+00
  7
MONOTXT
  0
TEXT
  8
0
 62
7
 10
1.53453808E+02
 20
-6.88802818E+01
 40
3.20000005E+00
  1
(mm)
 41
1.00000000E+00
  7
MONOTXT
  0
TEXT
  8
0
 62
7
 10
5.35570026E+01
 20
-6.88802818E+01
 40
3.20000005E+00
  1
STRETCH LIST(ST1)
 41
1.03658537E+00
  7
MONOTXT
  0
TEXT
  8
0
 62
7
 10
7.20625279E+01
 20
-8.10963774E+01
 40
3.20000005E+00
  1
25
 41
1.00000000E+00
  7
MONOTXT
  0
TEXT
  8
0
 62
7
 10
7.36625279E+01
 20
-9.31000000E+01
 40
3.20000005E+00
  1
5
 41
1.00000000E+00
  7
MONOTXT
  0
TEXT
  8
0
 62
7
 10
8.40625279E+01
 20
-8.10963774E+01
 40
3.20000005E+00
  1
30
 41
1.00000000E+00
  7
MONOTXT
  0
TEXT
  8
0
 62
7
 10
8.40625279E+01
 20
-9.31000000E+01
 40
3.20000005E+00
  1
10
 41
1.00000000E+00
  7
MONOTXT
  0
TEXT
  8
0
 62
7
 10
9.60625279E+01
 20
-8.10963774E+01
 40
3.20000005E+00
  1
35
 41
1.00000000E+00
  7
MONOTXT
  0
TEXT
  8
0
 62
7
 10
9.60625279E+01
 20
-9.31000000E+01
 40
3.20000005E+00
  1
15
 41
1.00000000E+00
  7
MONOTXT
  0
TEXT
  8
0
 62
7
 10
1.08062528E+02
 20
-8.10963774E+01
 40
3.20000005E+00
  1
40
 41
1.00000000E+00
  7
MONOTXT
  0
TEXT
  8
0
 62
7
 10
1.08062528E+02
 20
-9.31000000E+01
 40
3.20000005E+00
  1
20
 41
1.00000000E+00
  7
MONOTXT
  0
TEXT
  8
0
 62
7
 10
1.20062528E+02
 20
-8.10963774E+01
 40
3.20000005E+00
  1
45
 41
1.00000000E+00
  7
MONOTXT
  0
TEXT
  8
0
 62
7
 10
1.20062528E+02
 20
-9.31000000E+01
 40
3.20000005E+00
  1
25
 41
1.00000000E+00
  7
MONOTXT
  0
TEXT
  8
0
 62
7
 10
1.32062528E+02
 20
-8.10963774E+01
 40
3.20000005E+00
  1
50
 41
1.00000000E+00
  7
MONOTXT
  0
TEXT
  8
0
 62
7
 10
1.32062528E+02
 20
-9.31000000E+01
 40
3.20000005E+00
  1
30
 41
1.00000000E+00
  7
MONOTXT
  0
TEXT
  8
0
 62
7
 10
1.44062528E+02
 20
-8.10963774E+01
 40
3.20000005E+00
  1
55
 41
1.00000000E+00
  7
MONOTXT
  0
TEXT
  8
0
 62
7
 10
1.44062528E+02
 20
-9.31000000E+01
 40
3.20000005E+00
  1
35
 41
1.00000000E+00
  7
MONOTXT
  0
TEXT
  8
0
 62
7
 10
1.56062528E+02
 20
-8.10963774E+01
 40
3.20000005E+00
  1
60
 41
1.00000000E+00
  7
MONOTXT
  0
TEXT
  8
0
 62
7
 10
1.56062528E+02
 20
-9.31000000E+01
 40
3.20000005E+00
  1
40
 41
1.00000000E+00
  7
MONOTXT
  0
LINE
  8
0
 62
7
 10
8.08000031E+01
 20
-7.05000000E+01
 11
8.08000031E+01
 21
-9.45000000E+01
  0
LINE
  8
0
 62
7
 10
9.28000031E+01
 20
-7.05000000E+01
 11
9.28000031E+01
 21
-9.45000000E+01
  0
LINE
  8
0
 62
7
 10
1.04800003E+02
 20
-7.05000000E+01
 11
1.04800003E+02
 21
-9.45000000E+01
  0
LINE
  8
0
 62
7
 10
1.16800003E+02
 20
-7.05000000E+01
 11
1.16800003E+02
 21
-9.45000000E+01
  0
LINE
  8
0
 62
7
 10
1.28800003E+02
 20
-7.05000000E+01
 11
1.28800003E+02
 21
-9.45000000E+01
  0
LINE
  8
0
 62
7
 10
1.40800003E+02
 20
-7.05000000E+01
 11
1.40800003E+02
 21
-9.45000000E+01
  0
LINE
  8
0
 62
7
 10
1.52800003E+02
 20
-7.05000000E+01
 11
1.52800003E+02
 21
-9.45000000E+01
  0
LINE
  8
0
 62
7
 10
1.64800003E+02
 20
-7.05000000E+01
 11
1.64800003E+02
 21
-9.45000000E+01
  0
TEXT
  8
0
 62
7
 10
2.23500030E+01
 20
-1.27100000E+02
 40
3.20000005E+00
  1
-20
 41
1.00000000E+00
  7
MONOTXT
  0
LINE
  8
0
 62
7
 10
1.09800003E+02
 20
-1.18500000E+02
 11
1.94800003E+02
 21
-1.18500000E+02
  0
LINE
  8
0
 62
7
 10
1.09800003E+02
 20
1.32600006E+02
 11
1.09800003E+02
 21
1.17600006E+02
  0
LINE
  8
0
 62
7
 10
1.09800003E+02
 20
1.17600006E+02
 11
1.94800003E+02
 21
1.17600006E+02
  0
LINE
  8
0
 62
7
 10
-1.94250000E+02
 20
1.17600006E+02
 11
-1.09250000E+02
 21
1.17600006E+02
  0
LINE
  8
0
 62
7
 10
-1.09250000E+02
 20
1.32600006E+02
 11
-1.09250000E+02
 21
1.17600006E+02
  0
TEXT
  8
0
 62
7
 10
1.15249721E+02
 20
-1.29150000E+02
 40
6.30000019E+00
  1
KOGANEI CORP.
 41
1.04838710E+00
  7
MONOTXT
  0
LINE
  8
0
 62
7
 10
-1.94250000E+02
 20
1.32600006E+02
 11
1.94800003E+02
 21
1.32600006E+02
  0
LINE
  8
0
 62
7
 10
1.94800003E+02
 20
1.32600006E+02
 11
1.94800003E+02
 21
-1.33500000E+02
  0
LINE
  8
0
 62
7
 10
-1.94250000E+02
 20
1.32600006E+02
 11
-1.94250000E+02
 21
-1.33500000E+02
  0
LINE
  8
0
 62
7
 10
-1.94250000E+02
 20
-1.33500000E+02
 11
1.94800003E+02
 21
-1.33500000E+02
  0
ENDSEC
  0
EOF
