  0
SECTION
  2
HEADER
  9
$ACADVER
  1
AC1003
  9
$EXTMIN
 10
-1.38399994E+02
 20
-9.48000031E+01
  9
$EXTMAX
 10
1.38350006E+02
 20
9.45000000E+01
  9
$LIMMIN
 10
-1.38400994E+02
 20
-9.48010031E+01
  9
$LIMMAX
 10
1.38351006E+02
 20
9.45010000E+01
  9
$SNAPUNIT
 10
1
 20
1
  9
$SNAPBASE
 10
0
 20
0
  9
$GRIDMODE
 70
0
  9
$GRIDUNIT
 10
0
 20
0
  9
$LTSCALE
 40
4.61250000E+00
  9
$TEXTSIZE
 40
3.2
  9
$DIMTAD
 70
0
  9
$LUNITS
 70
2
  9
$LUPREC
 70
4
  9
$FILLETRAD
 40
0
  9
$AUNITS
 70
0
  9
$AUPREC
 70
0
  0
ENDSEC
  0
SECTION
  2
TABLES
  0
TABLE
  2
LTYPE
 70
2
  0
LTYPE
  2
CONTINUOUS
 70
64
  3
Solid-Line
 72
65
 73
0
 40
0
  0
LTYPE
  2
DASHED
 70
64
  3
DASHED
 72
65
 73
2
 40
.75
 49
.5
 49
-.25
  0
LTYPE
  2
HIDDEN
 70
64
  3
HIDDEN
 72
65
 73
2
 40
.375
 49
.25
 49
-.125
  0
LTYPE
  2
CENTER
 70
64
  3
CENTER
 72
65
 73
4
 40
2
 49
1.25
 49
-.25
 49
.25
 49
-.25
  0
LTYPE
  2
PHANTOM
 70
64
  3
PHANTOM
 72
65
 73
6
 40
2.5
 49
1.25
 49
-.25
 49
.25
 49
-.25
 49
.25
 49
-.25
  0
ENDTAB
  0
TABLE
  2
LAYER
 70
1
  0
LAYER
  2
1
 70
0
 62
7
  6
CONTINUOUS
 0
ENDTAB
  0
TABLE
  2
STYLE
 70
2
  0
STYLE
  2
MONOTXT
 70
0
 40
0
 41
1
 50
0
 71
0
 42
.2
  3
monotxt
  0
STYLE
  2
BIGFONT
 70
0
 40
0
 41
1
 50
0
 71
0
 42
.2
  3
txt
  4
bigfont
  0
ENDTAB
  0
ENDSEC
  0
SECTION
  2
ENTITIES
  0
LINE
  8
0
  6
CENTER
 62
6
 10
-3.91251296E+01
 20
5.27579523E+01
 11
-3.91251296E+01
 21
1.97255944E+01
  0
LINE
  8
0
 62
4
 10
-4.16251296E+01
 20
4.97040074E+01
 11
-4.16251296E+01
 21
4.92040074E+01
  0
LINE
  8
0
 62
4
 10
-3.66251296E+01
 20
4.97040074E+01
 11
-3.66251296E+01
 21
4.92040074E+01
  0
LINE
  8
0
  6
CENTER
 62
6
 10
8.74870415E-01
 20
5.24585856E+01
 11
8.74870415E-01
 21
1.97255944E+01
  0
LINE
  8
0
 62
4
 10
-1.62512959E+00
 20
4.97040074E+01
 11
-1.62512959E+00
 21
4.92040074E+01
  0
LINE
  8
0
 62
4
 10
3.37487041E+00
 20
4.97040074E+01
 11
3.37487041E+00
 21
4.92040074E+01
  0
LINE
  8
0
  6
PHANTOM
 10
-1.49836718E+01
 20
1.79011842E+01
 11
-1.49836718E+01
 21
5.09184422E+01
  0
LINE
  8
0
  6
PHANTOM
 10
4.50163282E+01
 20
1.79011842E+01
 11
4.50163282E+01
 21
5.09184422E+01
  0
TEXT
  8
0
 62
7
 10
-3.24610671E+01
 20
2.28040228E+01
 40
1.50000000E+00
  1
PBDAPS16
 41
1.00000000E+00
  7
MONOTXT
  0
ARC
  8
0
 62
7
 10
-6.01131036E+01
 20
3.01990074E+01
 40
6.01538782E+00
 50
1.81915637E+02
 51
2.24885328E+02
  0
LINE
  8
0
 62
7
 10
-3.46251296E+01
 20
2.17040074E+01
 11
-3.62512959E+00
 21
2.17040074E+01
  0
LINE
  8
0
 62
7
 10
5.37487041E+00
 20
2.17040074E+01
 11
2.28648704E+01
 21
2.17040074E+01
  0
LINE
  8
0
 62
7
 10
7.87487041E+00
 20
3.87040074E+01
 11
2.28648704E+01
 21
3.87040074E+01
  0
LINE
  8
0
 62
7
 10
-3.21251296E+01
 20
3.87040074E+01
 11
-6.12512959E+00
 21
3.87040074E+01
  0
LINE
  8
0
 62
4
 10
7.87487041E+00
 20
4.35040074E+01
 11
1.33748704E+01
 21
4.35040074E+01
  0
LINE
  8
0
 62
4
 10
7.87487041E+00
 20
3.95040074E+01
 11
1.33748704E+01
 21
3.95040074E+01
  0
LINE
  8
0
 62
4
 10
-6.12512959E+00
 20
4.13040074E+01
 11
-6.12512959E+00
 21
3.82358896E+01
  0
LINE
  8
0
 62
4
 10
7.87487041E+00
 20
4.13040074E+01
 11
7.87487041E+00
 21
3.82358896E+01
  0
LINE
  8
0
 62
4
 10
-3.62512959E+00
 20
4.17040074E+01
 11
5.37487041E+00
 21
4.17040074E+01
  0
LINE
  8
0
 62
4
 10
-6.12512956E+00
 20
3.82358896E+01
 11
-3.62512956E+00
 21
3.82358896E+01
  0
LINE
  8
0
 62
4
 10
7.87487039E+00
 20
3.82358896E+01
 11
5.37487039E+00
 21
3.82358896E+01
  0
LINE
  8
0
 62
4
 10
5.37487041E+00
 20
4.14040074E+01
 11
5.37487041E+00
 21
4.82040074E+01
  0
LINE
  8
0
 62
4
 10
-3.62512959E+00
 20
4.14040074E+01
 11
-3.62512959E+00
 21
4.82040074E+01
  0
LINE
  8
0
 62
4
 10
5.37487041E+00
 20
4.13040074E+01
 11
7.87487041E+00
 21
4.13040074E+01
  0
LINE
  8
0
 62
4
 10
5.37487041E+00
 20
4.17040074E+01
 11
7.87487041E+00
 21
4.17040074E+01
  0
LINE
  8
0
 62
4
 10
5.37487041E+00
 20
4.45040074E+01
 11
7.87487041E+00
 21
4.45040074E+01
  0
LINE
  8
0
 62
4
 10
-6.12512959E+00
 20
4.13040074E+01
 11
-3.62512959E+00
 21
4.13040074E+01
  0
LINE
  8
0
 62
4
 10
-6.12512959E+00
 20
4.17040074E+01
 11
-3.62512959E+00
 21
4.17040074E+01
  0
LINE
  8
0
 62
4
 10
-6.12512959E+00
 20
4.45040074E+01
 11
-3.62512959E+00
 21
4.45040074E+01
  0
LINE
  8
0
 62
4
 10
-3.62512959E+00
 20
2.15540228E+01
 11
5.37487041E+00
 21
2.15540228E+01
  0
LINE
  8
0
 62
4
 10
7.87487041E+00
 20
4.45040074E+01
 11
7.87487041E+00
 21
4.17040074E+01
  0
LINE
  8
0
 62
4
 10
-6.12512959E+00
 20
4.45040074E+01
 11
-6.12512959E+00
 21
4.17040074E+01
  0
LINE
  8
0
 62
4
 10
-1.16251296E+01
 20
4.25040074E+01
 11
-1.06251296E+01
 21
4.35040074E+01
  0
LINE
  8
0
 62
6
 10
-3.55129585E-01
 20
4.92040074E+01
 11
-3.55129585E-01
 21
4.82040074E+01
  0
LINE
  8
0
 62
6
 10
2.10487041E+00
 20
4.92040074E+01
 11
2.10487041E+00
 21
4.82040074E+01
  0
LINE
  8
0
 62
4
 10
-6.25129585E-01
 20
4.92040074E+01
 11
-6.25129585E-01
 21
4.82040074E+01
  0
LINE
  8
0
 62
4
 10
2.37487041E+00
 20
4.92040074E+01
 11
2.37487041E+00
 21
4.82040074E+01
  0
LINE
  8
0
 62
4
 10
-1.62512959E+00
 20
4.92040074E+01
 11
3.37487041E+00
 21
4.92040074E+01
  0
LINE
  8
0
 62
4
 10
-1.16251296E+01
 20
4.25040074E+01
 11
-1.16251296E+01
 21
4.05040074E+01
  0
LINE
  8
0
 62
4
 10
-3.62512959E+00
 20
4.82040074E+01
 11
5.37487041E+00
 21
4.82040074E+01
  0
LINE
  8
0
 62
4
 10
-1.06251296E+01
 20
3.95040074E+01
 11
-6.12512959E+00
 21
3.95040074E+01
  0
LINE
  8
0
 62
4
 10
-1.06251296E+01
 20
4.35040074E+01
 11
-6.12512959E+00
 21
4.35040074E+01
  0
LINE
  8
0
 62
4
 10
-1.16251296E+01
 20
4.05040074E+01
 11
-1.06251296E+01
 21
3.95040074E+01
  0
LINE
  8
0
 62
4
 10
-1.06251296E+01
 20
4.35040074E+01
 11
-1.06251296E+01
 21
3.95040074E+01
  0
LINE
  8
0
 62
4
 10
5.37487041E+00
 20
4.14040074E+01
 11
5.37487041E+00
 21
2.15540228E+01
  0
LINE
  8
0
 62
4
 10
-3.62512959E+00
 20
4.14040074E+01
 11
-3.62512959E+00
 21
2.15540228E+01
  0
LINE
  8
0
 62
4
 10
1.33748704E+01
 20
4.35040074E+01
 11
1.63748704E+01
 21
4.28040074E+01
  0
LINE
  8
0
 62
4
 10
1.33748704E+01
 20
3.95040074E+01
 11
1.63748704E+01
 21
4.02040074E+01
  0
LINE
  8
0
 62
4
 10
1.33748704E+01
 20
4.35040074E+01
 11
1.33748704E+01
 21
3.95040074E+01
  0
LINE
  8
0
 62
6
 10
2.13118695E+01
 20
4.28040074E+01
 11
1.87118695E+01
 21
4.02040074E+01
  0
LINE
  8
0
 62
4
 10
1.63748704E+01
 20
4.02040074E+01
 11
1.87118695E+01
 21
4.02040074E+01
  0
LINE
  8
0
 62
4
 10
1.63748704E+01
 20
4.28040074E+01
 11
1.63748704E+01
 21
4.02040074E+01
  0
LINE
  8
0
 62
4
 10
1.63748704E+01
 20
4.28040074E+01
 11
2.13118695E+01
 21
4.28040074E+01
  0
LINE
  8
0
 62
4
 10
-3.21251296E+01
 20
4.35040074E+01
 11
-2.66251296E+01
 21
4.35040074E+01
  0
LINE
  8
0
 62
4
 10
-3.21251296E+01
 20
3.95040074E+01
 11
-2.66251296E+01
 21
3.95040074E+01
  0
LINE
  8
0
 62
4
 10
-4.61251296E+01
 20
4.13040074E+01
 11
-4.61251296E+01
 21
3.82358896E+01
  0
LINE
  8
0
 62
4
 10
-3.21251296E+01
 20
4.13040074E+01
 11
-3.21251296E+01
 21
3.82358896E+01
  0
LINE
  8
0
 62
4
 10
-4.36251296E+01
 20
4.17040074E+01
 11
-3.46251296E+01
 21
4.17040074E+01
  0
LINE
  8
0
 62
4
 10
-4.61251296E+01
 20
3.82358896E+01
 11
-4.36251296E+01
 21
3.82358896E+01
  0
LINE
  8
0
 62
4
 10
-3.21251296E+01
 20
3.82358896E+01
 11
-3.46251296E+01
 21
3.82358896E+01
  0
LINE
  8
0
 62
4
 10
-3.46251296E+01
 20
4.14040074E+01
 11
-3.46251296E+01
 21
4.82040074E+01
  0
LINE
  8
0
 62
4
 10
-4.36251296E+01
 20
4.14040074E+01
 11
-4.36251296E+01
 21
4.82040074E+01
  0
LINE
  8
0
 62
4
 10
-3.46251296E+01
 20
4.13040074E+01
 11
-3.21251296E+01
 21
4.13040074E+01
  0
LINE
  8
0
 62
4
 10
-3.46251296E+01
 20
4.17040074E+01
 11
-3.21251296E+01
 21
4.17040074E+01
  0
LINE
  8
0
 62
4
 10
-3.46251296E+01
 20
4.45040074E+01
 11
-3.21251296E+01
 21
4.45040074E+01
  0
LINE
  8
0
 62
4
 10
-4.61251296E+01
 20
4.13040074E+01
 11
-4.36251296E+01
 21
4.13040074E+01
  0
LINE
  8
0
 62
4
 10
-4.61251296E+01
 20
4.17040074E+01
 11
-4.36251296E+01
 21
4.17040074E+01
  0
LINE
  8
0
 62
4
 10
-4.61251296E+01
 20
4.45040074E+01
 11
-4.36251296E+01
 21
4.45040074E+01
  0
LINE
  8
0
 62
4
 10
-4.36251296E+01
 20
2.15540228E+01
 11
-3.46251296E+01
 21
2.15540228E+01
  0
LINE
  8
0
 62
4
 10
-3.21251296E+01
 20
4.45040074E+01
 11
-3.21251296E+01
 21
4.17040074E+01
  0
LINE
  8
0
 62
4
 10
-4.61251296E+01
 20
4.45040074E+01
 11
-4.61251296E+01
 21
4.17040074E+01
  0
LINE
  8
0
 62
4
 10
-5.16251296E+01
 20
4.25040074E+01
 11
-5.06251296E+01
 21
4.35040074E+01
  0
LINE
  8
0
 62
6
 10
-4.03551296E+01
 20
4.92040074E+01
 11
-4.03551296E+01
 21
4.82040074E+01
  0
LINE
  8
0
 62
6
 10
-3.78951296E+01
 20
4.92040074E+01
 11
-3.78951296E+01
 21
4.82040074E+01
  0
LINE
  8
0
 62
4
 10
-4.06251296E+01
 20
4.92040074E+01
 11
-4.06251296E+01
 21
4.82040074E+01
  0
LINE
  8
0
 62
4
 10
-3.76251296E+01
 20
4.92040074E+01
 11
-3.76251296E+01
 21
4.82040074E+01
  0
LINE
  8
0
 62
4
 10
-4.16251296E+01
 20
4.92040074E+01
 11
-3.66251296E+01
 21
4.92040074E+01
  0
LINE
  8
0
 62
4
 10
-5.16251296E+01
 20
4.25040074E+01
 11
-5.16251296E+01
 21
4.05040074E+01
  0
LINE
  8
0
 62
4
 10
-4.36251296E+01
 20
4.82040074E+01
 11
-3.46251296E+01
 21
4.82040074E+01
  0
LINE
  8
0
 62
4
 10
-5.06251296E+01
 20
3.95040074E+01
 11
-4.61251296E+01
 21
3.95040074E+01
  0
LINE
  8
0
 62
4
 10
-5.06251296E+01
 20
4.35040074E+01
 11
-4.61251296E+01
 21
4.35040074E+01
  0
LINE
  8
0
 62
4
 10
-5.16251296E+01
 20
4.05040074E+01
 11
-5.06251296E+01
 21
3.95040074E+01
  0
LINE
  8
0
 62
4
 10
-5.06251296E+01
 20
4.35040074E+01
 11
-5.06251296E+01
 21
3.95040074E+01
  0
LINE
  8
0
 62
4
 10
-3.46251296E+01
 20
4.14040074E+01
 11
-3.46251296E+01
 21
2.15540228E+01
  0
LINE
  8
0
 62
4
 10
-4.36251296E+01
 20
4.14040074E+01
 11
-4.36251296E+01
 21
2.15540228E+01
  0
LINE
  8
0
 62
4
 10
-2.66251296E+01
 20
4.35040074E+01
 11
-2.36251296E+01
 21
4.28040074E+01
  0
LINE
  8
0
 62
4
 10
-2.66251296E+01
 20
3.95040074E+01
 11
-2.36251296E+01
 21
4.02040074E+01
  0
LINE
  8
0
 62
4
 10
-2.66251296E+01
 20
4.35040074E+01
 11
-2.66251296E+01
 21
3.95040074E+01
  0
LINE
  8
0
 62
6
 10
-1.86881305E+01
 20
4.28040074E+01
 11
-2.12881305E+01
 21
4.02040074E+01
  0
LINE
  8
0
 62
4
 10
-2.36251296E+01
 20
4.02040074E+01
 11
-2.12881305E+01
 21
4.02040074E+01
  0
LINE
  8
0
 62
4
 10
-2.36251296E+01
 20
4.28040074E+01
 11
-2.36251296E+01
 21
4.02040074E+01
  0
LINE
  8
0
 62
4
 10
-2.36251296E+01
 20
4.28040074E+01
 11
-1.86881305E+01
 21
4.28040074E+01
  0
LINE
  8
0
 62
2
 10
8.82978704E+01
 20
3.22710074E+01
 11
8.63948704E+01
 21
3.22710074E+01
  0
LINE
  8
0
 62
2
 10
8.82978704E+01
 20
2.81370074E+01
 11
8.63948704E+01
 21
2.81370074E+01
  0
LINE
  8
0
  6
CENTER
 62
2
 10
1.58748704E+01
 20
3.44440074E+01
 11
1.58748704E+01
 21
2.59540074E+01
  0
CIRCLE
  8
0
 62
7
 10
1.58690422E+01
 20
3.02040059E+01
 40
2.06700000E+00
  0
CIRCLE
  8
0
 62
2
 10
1.58748704E+01
 20
3.02040074E+01
 40
2.50000000E+00
  0
ARC
  8
0
 62
4
 10
2.35859196E+01
 20
2.42222511E+01
 40
5.25895115E+00
 50
1.91356878E-02
 51
2.24910723E+01
  0
ARC
  8
0
 62
4
 10
3.01110949E+01
 20
2.42172202E+01
 40
5.26622888E+00
 50
1.79926156E+02
 51
2.02475440E+02
  0
ARC
  8
0
 62
4
 10
2.35869283E+01
 20
2.42155801E+01
 40
5.25794885E+00
 50
3.37506572E+02
 51
9.18322631E-02
  0
ARC
  8
0
 62
4
 10
3.01120990E+01
 20
2.42206037E+01
 40
5.26722966E+00
 50
1.57526817E+02
 51
1.79962975E+02
  0
LINE
  8
0
 62
4
 10
2.84448704E+01
 20
2.22040074E+01
 11
2.52448704E+01
 21
2.22040074E+01
  0
LINE
  8
0
 62
4
 10
2.84448704E+01
 20
2.62340074E+01
 11
2.52448704E+01
 21
2.62340074E+01
  0
LINE
  8
0
 62
7
 10
3.08748704E+01
 20
2.62040074E+01
 11
2.98748704E+01
 21
2.52040074E+01
  0
LINE
  8
0
 62
7
 10
2.98748704E+01
 20
2.52040074E+01
 11
2.88448704E+01
 21
2.52040074E+01
  0
LINE
  8
0
 62
2
 10
3.06868704E+01
 20
2.60160074E+01
 11
2.88448704E+01
 21
2.60160074E+01
  0
LINE
  8
0
 62
2
 10
2.48448704E+01
 20
2.60160074E+01
 11
2.43748704E+01
 21
2.60160074E+01
  0
LINE
  8
0
 62
7
 10
6.03948704E+01
 20
2.77040074E+01
 11
3.08748704E+01
 21
2.77040074E+01
  0
LINE
  8
0
 62
7
 10
2.48448704E+01
 20
2.52040074E+01
 11
2.28748704E+01
 21
2.52040074E+01
  0
ARC
  8
0
 62
4
 10
8.89658804E+00
 20
3.02087588E+01
 40
1.99482829E+01
 50
3.48506731E+02
 51
3.59986353E+02
  0
ARC
  8
0
 62
4
 10
4.48016737E+01
 20
3.02096173E+01
 40
1.99568041E+01
 50
1.80016106E+02
 51
1.91490810E+02
  0
ARC
  8
0
 62
4
 10
3.01101864E+01
 20
3.61970305E+01
 40
5.26531686E+00
 50
1.80032896E+02
 51
2.02477312E+02
  0
ARC
  8
0
 62
4
 10
3.01110960E+01
 20
3.61908033E+01
 40
5.26622655E+00
 50
1.57524652E+02
 51
1.79965140E+02
  0
ARC
  8
0
 62
4
 10
2.35869241E+01
 20
3.61924510E+01
 40
5.25794651E+00
 50
1.69608750E-02
 51
2.24932471E+01
  0
ARC
  8
0
 62
4
 10
2.35878351E+01
 20
3.61953826E+01
 40
5.25703545E+00
 50
3.37504780E+02
 51
3.59985012E+02
  0
LINE
  8
0
 62
4
 10
2.84448704E+01
 20
3.41840074E+01
 11
2.52448704E+01
 21
3.41840074E+01
  0
LINE
  8
0
 62
4
 10
2.84448704E+01
 20
3.82040074E+01
 11
2.52448704E+01
 21
3.82040074E+01
  0
LINE
  8
0
 62
7
 10
3.08748704E+01
 20
3.42040074E+01
 11
2.98748704E+01
 21
3.52040074E+01
  0
LINE
  8
0
 62
7
 10
2.98748704E+01
 20
3.52040074E+01
 11
2.88448704E+01
 21
3.52040074E+01
  0
LINE
  8
0
 62
2
 10
3.06868704E+01
 20
3.43920074E+01
 11
2.88448704E+01
 21
3.43920074E+01
  0
LINE
  8
0
 62
2
 10
2.48448704E+01
 20
3.43920074E+01
 11
2.43748704E+01
 21
3.43920074E+01
  0
LINE
  8
0
 62
7
 10
3.08748704E+01
 20
3.42040074E+01
 11
3.08748704E+01
 21
2.62040074E+01
  0
LINE
  8
0
 62
7
 10
2.43748704E+01
 20
3.52040074E+01
 11
2.43748704E+01
 21
2.52040074E+01
  0
LINE
  8
0
 62
7
 10
2.98748704E+01
 20
3.52040074E+01
 11
2.98748704E+01
 21
2.52040074E+01
  0
LINE
  8
0
 62
7
 10
6.03948704E+01
 20
3.27040074E+01
 11
3.08748704E+01
 21
3.27040074E+01
  0
LINE
  8
0
 62
7
 10
2.48448704E+01
 20
3.52040074E+01
 11
2.28748704E+01
 21
3.52040074E+01
  0
LINE
  8
0
 62
4
 10
2.88448704E+01
 20
3.61940074E+01
 11
2.88448704E+01
 21
2.42240074E+01
  0
LINE
  8
0
 62
4
 10
2.48448704E+01
 20
3.61940074E+01
 11
2.48448704E+01
 21
2.42240074E+01
  0
ARC
  8
0
 62
4
 10
8.89559214E+00
 20
3.02091554E+01
 40
1.99492789E+01
 50
3.59985215E+02
 51
1.14929822E+01
  0
ARC
  8
0
 62
4
 10
4.48026696E+01
 20
3.02082990E+01
 40
1.99577996E+01
 50
1.68509482E+02
 51
1.80012320E+02
  0
LINE
  8
0
 62
7
 10
-6.61251296E+01
 20
3.87040074E+01
 11
-6.61251296E+01
 21
2.17040074E+01
  0
LINE
  8
0
 62
7
 10
-5.46251296E+01
 20
3.87040074E+01
 11
-5.46251296E+01
 21
2.17040074E+01
  0
LINE
  8
0
  6
CENTER
 62
2
 10
-5.91251296E+01
 20
3.44440074E+01
 11
-5.91251296E+01
 21
2.59540074E+01
  0
LINE
  8
0
 62
7
 10
-6.61251296E+01
 20
3.87040074E+01
 11
-4.61251296E+01
 21
3.87040074E+01
  0
LINE
  8
0
 62
7
 10
-6.61251296E+01
 20
2.17040074E+01
 11
-4.36251296E+01
 21
2.17040074E+01
  0
LINE
  8
0
 62
7
 10
-6.43751296E+01
 20
3.44440074E+01
 11
-5.63751296E+01
 21
3.44440074E+01
  0
LINE
  8
0
 62
7
 10
-6.43751296E+01
 20
2.59540074E+01
 11
-5.63751296E+01
 21
2.59540074E+01
  0
LINE
  8
0
 62
7
 10
-6.43751296E+01
 20
3.87040074E+01
 11
-6.43751296E+01
 21
3.44440074E+01
  0
LINE
  8
0
 62
7
 10
-5.63751296E+01
 20
3.87040074E+01
 11
-5.63751296E+01
 21
3.44440074E+01
  0
LINE
  8
0
 62
7
 10
-6.43751296E+01
 20
2.59540074E+01
 11
-6.43751296E+01
 21
2.17040074E+01
  0
LINE
  8
0
 62
7
 10
-5.63751296E+01
 20
2.59540074E+01
 11
-5.63751296E+01
 21
2.17040074E+01
  0
LINE
  8
0
 62
7
 10
2.28648704E+01
 20
3.87040074E+01
 11
2.28648704E+01
 21
2.17040074E+01
  0
LINE
  8
0
 62
7
 10
1.13748704E+01
 20
3.87040074E+01
 11
1.13748704E+01
 21
2.17040074E+01
  0
LINE
  8
0
 62
7
 10
2.11248704E+01
 20
3.44440074E+01
 11
1.31248704E+01
 21
3.44440074E+01
  0
LINE
  8
0
 62
7
 10
2.11248704E+01
 20
2.59540074E+01
 11
1.31248704E+01
 21
2.59540074E+01
  0
LINE
  8
0
 62
7
 10
8.78648704E+01
 20
3.27040074E+01
 11
8.63948704E+01
 21
3.27040074E+01
  0
LINE
  8
0
 62
7
 10
8.78648704E+01
 20
2.77040074E+01
 11
8.63948704E+01
 21
2.77040074E+01
  0
LINE
  8
0
 62
7
 10
8.83648704E+01
 20
3.22040074E+01
 11
8.83648704E+01
 21
2.82040074E+01
  0
LINE
  8
0
 62
7
 10
8.83648704E+01
 20
3.22040074E+01
 11
8.78648704E+01
 21
3.27040074E+01
  0
LINE
  8
0
 62
7
 10
8.83648704E+01
 20
2.82040074E+01
 11
8.78648704E+01
 21
2.77040074E+01
  0
LINE
  8
0
 62
7
 10
8.78648704E+01
 20
3.27040074E+01
 11
8.78648704E+01
 21
2.77040074E+01
  0
LINE
  8
0
 62
7
 10
8.63948704E+01
 20
3.35840074E+01
 11
8.63948704E+01
 21
2.68140074E+01
  0
LINE
  8
0
 62
7
 10
8.23948704E+01
 20
3.49040074E+01
 11
8.23948704E+01
 21
2.55040074E+01
  0
LINE
  8
0
 62
7
 10
8.58948704E+01
 20
2.57040074E+01
 11
8.28948704E+01
 21
2.57040074E+01
  0
LINE
  8
0
 62
7
 10
8.58948704E+01
 20
3.47040074E+01
 11
8.28948704E+01
 21
3.47040074E+01
  0
LINE
  8
0
 62
7
 10
8.58948704E+01
 20
3.24740074E+01
 11
8.28948704E+01
 21
3.24740074E+01
  0
LINE
  8
0
 62
7
 10
8.58948704E+01
 20
2.79240074E+01
 11
8.28948704E+01
 21
2.79240074E+01
  0
LINE
  8
0
 62
7
 10
2.11248704E+01
 20
3.87040074E+01
 11
2.11248704E+01
 21
3.44440074E+01
  0
LINE
  8
0
 62
7
 10
1.31248704E+01
 20
3.87040074E+01
 11
1.31248704E+01
 21
3.44440074E+01
  0
LINE
  8
0
 62
7
 10
2.11248704E+01
 20
2.59540074E+01
 11
2.11248704E+01
 21
2.17040074E+01
  0
LINE
  8
0
 62
7
 10
1.31248704E+01
 20
2.59540074E+01
 11
1.31248704E+01
 21
2.17040074E+01
  0
LINE
  8
0
 62
7
 10
6.23948704E+01
 20
3.52040074E+01
 11
6.23948704E+01
 21
2.52040074E+01
  0
LINE
  8
0
 62
7
 10
6.23948704E+01
 20
3.52040074E+01
 11
8.20948704E+01
 21
3.52040074E+01
  0
LINE
  8
0
 62
7
 10
6.23948704E+01
 20
2.52040074E+01
 11
8.20948704E+01
 21
2.52040074E+01
  0
LINE
  8
0
 62
7
 10
6.03948704E+01
 20
3.52040074E+01
 11
6.03948704E+01
 21
2.52040074E+01
  0
LINE
  8
0
 62
7
 10
6.03948704E+01
 20
3.52040074E+01
 11
6.23948704E+01
 21
3.52040074E+01
  0
LINE
  8
0
 62
7
 10
6.03948704E+01
 20
2.52040074E+01
 11
6.23948704E+01
 21
2.52040074E+01
  0
LINE
  8
0
 62
7
 10
8.20948704E+01
 20
3.52040074E+01
 11
8.23948704E+01
 21
3.49040074E+01
  0
LINE
  8
0
 62
7
 10
8.23948704E+01
 20
2.55040074E+01
 11
8.20948704E+01
 21
2.52040074E+01
  0
LINE
  8
0
 62
7
 10
8.20948704E+01
 20
3.52040074E+01
 11
8.20948704E+01
 21
3.27940074E+01
  0
LINE
  8
0
 62
7
 10
8.20948704E+01
 20
2.77040074E+01
 11
8.20948704E+01
 21
2.52040074E+01
  0
LINE
  8
0
 62
7
 10
7.73948704E+01
 20
3.27040074E+01
 11
7.73948704E+01
 21
2.77040074E+01
  0
LINE
  8
0
 62
7
 10
7.73948704E+01
 20
2.77040074E+01
 11
8.23948704E+01
 21
2.77040074E+01
  0
LINE
  8
0
 62
7
 10
7.73948704E+01
 20
3.27040074E+01
 11
8.23948704E+01
 21
3.27040074E+01
  0
LINE
  8
0
 62
7
 10
7.73948704E+01
 20
3.27040074E+01
 11
8.23948704E+01
 21
2.77040074E+01
  0
LINE
  8
0
 62
7
 10
7.73948704E+01
 20
2.77040074E+01
 11
8.23948704E+01
 21
3.27040074E+01
  0
ARC
  8
0
 62
7
 10
-6.01131036E+01
 20
3.01990074E+01
 40
6.01538782E+00
 50
1.35114672E+02
 51
1.78084363E+02
  0
ARC
  8
0
 62
7
 10
-6.06488121E+01
 20
3.01990074E+01
 40
6.02365231E+00
 50
3.15192915E+02
 51
4.48070852E+01
  0
ARC
  8
0
 62
7
 10
1.68511803E+01
 20
3.01990074E+01
 40
6.02365772E+00
 50
3.15192966E+02
 51
4.48070340E+01
  0
ARC
  8
0
 62
7
 10
1.73868888E+01
 20
3.01990074E+01
 40
6.01538242E+00
 50
1.35114621E+02
 51
2.24885379E+02
  0
ARC
  8
0
 62
7
 10
8.09920823E+01
 20
3.02040321E+01
 40
5.40278814E+00
 50
3.35059380E+02
 51
2.48439870E+01
  0
ARC
  8
0
 62
7
 10
8.49125280E+01
 20
2.68138983E+01
 40
1.48234237E+00
 50
4.21984120E-03
 51
4.84941890E+01
  0
ARC
  8
0
 62
7
 10
8.49093819E+01
 20
2.68155338E+01
 40
1.48548928E+00
 50
3.11560463E+02
 51
3.59941128E+02
  0
ARC
  8
0
 62
7
 10
8.49087888E+01
 20
3.35858009E+01
 40
1.48608265E+00
 50
3.11570740E+02
 51
3.59930852E+02
  0
ARC
  8
0
 62
7
 10
8.49093979E+01
 20
3.35924572E+01
 40
1.48549650E+00
 50
3.59674089E+02
 51
4.84406100E+01
  0
ARC
  8
0
 62
7
 10
8.78114210E+01
 20
3.02010007E+01
 40
5.41655146E+00
 50
1.55188080E+02
 51
2.04850185E+02
  0
ARC
  8
0
 62
7
 10
8.38929300E+01
 20
3.35911964E+01
 40
1.49807683E+00
 50
1.80274953E+02
 51
2.28223456E+02
  0
ARC
  8
0
 62
7
 10
8.38892208E+01
 20
2.68084892E+01
 40
1.49436059E+00
 50
1.31713167E+02
 51
1.79788424E+02
  0
ARC
  8
0
 62
7
 10
8.38923417E+01
 20
2.68209314E+01
 40
1.49748726E+00
 50
1.80264922E+02
 51
2.28233487E+02
  0
ARC
  8
0
 62
7
 10
8.38923617E+01
 20
3.35870917E+01
 40
1.49749443E+00
 50
1.31767294E+02
 51
1.80118007E+02
  0
CIRCLE
  8
0
 62
7
 10
-5.91193013E+01
 20
3.02040059E+01
 40
2.06700000E+00
  0
LINE
  8
0
 62
2
 10
-6.80951296E+01
 20
2.60160074E+01
 11
-6.76251296E+01
 21
2.60160074E+01
  0
LINE
  8
0
 62
2
 10
-6.80951296E+01
 20
3.43920074E+01
 11
-6.76251296E+01
 21
3.43920074E+01
  0
LINE
  8
0
 62
2
 10
-7.39371296E+01
 20
2.60160074E+01
 11
-7.20951296E+01
 21
2.60160074E+01
  0
LINE
  8
0
 62
2
 10
-7.39371296E+01
 20
3.43920074E+01
 11
-7.20951296E+01
 21
3.43920074E+01
  0
LINE
  8
0
 62
2
 10
-8.61551296E+01
 20
2.81370074E+01
 11
-7.91251296E+01
 21
2.81370074E+01
  0
LINE
  8
0
 62
2
 10
-8.61551296E+01
 20
3.22710074E+01
 11
-7.91251296E+01
 21
3.22710074E+01
  0
LINE
  8
0
 62
2
 10
-9.40581296E+01
 20
3.22710074E+01
 11
-9.01551296E+01
 21
3.22710074E+01
  0
LINE
  8
0
 62
2
 10
-9.40581296E+01
 20
2.81370074E+01
 11
-9.01551296E+01
 21
2.81370074E+01
  0
LINE
  8
0
 62
7
 10
-7.41251296E+01
 20
3.42040074E+01
 11
-7.41251296E+01
 21
2.62040074E+01
  0
LINE
  8
0
 62
7
 10
-7.31251296E+01
 20
2.52040074E+01
 11
-7.20951296E+01
 21
2.52040074E+01
  0
LINE
  8
0
 62
7
 10
-7.31251296E+01
 20
3.52040074E+01
 11
-7.20951296E+01
 21
3.52040074E+01
  0
LINE
  8
0
 62
7
 10
-7.41251296E+01
 20
3.42040074E+01
 11
-7.31251296E+01
 21
3.52040074E+01
  0
LINE
  8
0
 62
7
 10
-7.41251296E+01
 20
2.62040074E+01
 11
-7.31251296E+01
 21
2.52040074E+01
  0
LINE
  8
0
  6
CENTER
 62
2
 10
-9.75351296E+01
 20
3.02040074E+01
 11
9.02545974E+01
 21
3.02040074E+01
  0
LINE
  8
0
 62
7
 10
-6.76251296E+01
 20
3.52040074E+01
 11
-6.76251296E+01
 21
2.52040074E+01
  0
LINE
  8
0
 62
7
 10
-7.31251296E+01
 20
3.52040074E+01
 11
-7.31251296E+01
 21
2.52040074E+01
  0
LINE
  8
0
 62
7
 10
-9.36251296E+01
 20
3.27040074E+01
 11
-9.01551296E+01
 21
3.27040074E+01
  0
LINE
  8
0
 62
7
 10
-9.36251296E+01
 20
2.77040074E+01
 11
-9.01551296E+01
 21
2.77040074E+01
  0
LINE
  8
0
 62
7
 10
-9.41251296E+01
 20
3.22040074E+01
 11
-9.41251296E+01
 21
2.82040074E+01
  0
LINE
  8
0
 62
7
 10
-7.91251296E+01
 20
3.27040074E+01
 11
-7.91251296E+01
 21
2.77040074E+01
  0
LINE
  8
0
 62
7
 10
-9.41251296E+01
 20
3.22040074E+01
 11
-9.36251296E+01
 21
3.27040074E+01
  0
LINE
  8
0
 62
7
 10
-9.41251296E+01
 20
2.82040074E+01
 11
-9.36251296E+01
 21
2.77040074E+01
  0
LINE
  8
0
 62
7
 10
-9.36251296E+01
 20
3.27040074E+01
 11
-9.36251296E+01
 21
2.77040074E+01
  0
LINE
  8
0
 62
4
 10
-9.01551296E+01
 20
3.35940074E+01
 11
-9.01551296E+01
 21
2.68240074E+01
  0
LINE
  8
0
 62
4
 10
-8.61551296E+01
 20
3.35940074E+01
 11
-8.61551296E+01
 21
2.68240074E+01
  0
LINE
  8
0
 62
4
 10
-8.96551296E+01
 20
2.57040074E+01
 11
-8.66551296E+01
 21
2.57040074E+01
  0
LINE
  8
0
 62
4
 10
-8.96551296E+01
 20
3.47040074E+01
 11
-8.66551296E+01
 21
3.47040074E+01
  0
LINE
  8
0
 62
7
 10
-8.61551296E+01
 20
2.77040074E+01
 11
-7.41251296E+01
 21
2.77040074E+01
  0
LINE
  8
0
 62
7
 10
-8.61551296E+01
 20
3.27040074E+01
 11
-7.41251296E+01
 21
3.27040074E+01
  0
LINE
  8
0
 62
7
 10
-6.80951296E+01
 20
3.52040074E+01
 11
-6.61251296E+01
 21
3.52040074E+01
  0
LINE
  8
0
 62
7
 10
-6.80951296E+01
 20
2.52040074E+01
 11
-6.61251296E+01
 21
2.52040074E+01
  0
LINE
  8
0
 62
4
 10
-8.96551296E+01
 20
3.24840074E+01
 11
-8.66551296E+01
 21
3.24840074E+01
  0
LINE
  8
0
 62
4
 10
-8.96551296E+01
 20
2.79340074E+01
 11
-8.66551296E+01
 21
2.79340074E+01
  0
LINE
  8
0
 62
4
 10
-7.16951296E+01
 20
3.82040074E+01
 11
-6.84951296E+01
 21
3.82040074E+01
  0
LINE
  8
0
 62
4
 10
-7.16951296E+01
 20
3.41840074E+01
 11
-6.84951296E+01
 21
3.41840074E+01
  0
LINE
  8
0
 62
4
 10
-7.20951296E+01
 20
3.61940074E+01
 11
-7.20951296E+01
 21
2.42240074E+01
  0
LINE
  8
0
 62
4
 10
-7.16951296E+01
 20
2.62340074E+01
 11
-6.84951296E+01
 21
2.62340074E+01
  0
LINE
  8
0
 62
4
 10
-7.16951296E+01
 20
2.22040074E+01
 11
-6.84951296E+01
 21
2.22040074E+01
  0
LINE
  8
0
 62
4
 10
-6.80951296E+01
 20
3.61940074E+01
 11
-6.80951296E+01
 21
2.42240074E+01
  0
CIRCLE
  8
0
 62
2
 10
-5.91251296E+01
 20
3.02040074E+01
 40
2.50000000E+00
  0
ARC
  8
0
 62
4
 10
-8.47518413E+01
 20
3.02139004E+01
 40
5.40329733E+00
 50
1.55156974E+02
 51
1.80104903E+02
  0
ARC
  8
0
 62
4
 10
-8.47539368E+01
 20
3.02036314E+01
 40
5.40119281E+00
 50
1.79996011E+02
 51
2.04847715E+02
  0
ARC
  8
0
 62
4
 10
-8.86704357E+01
 20
2.68228390E+01
 40
1.48469438E+00
 50
1.31546682E+02
 51
1.79954909E+02
  0
ARC
  8
0
 62
4
 10
-8.86710501E+01
 20
2.68149358E+01
 40
1.48410722E+00
 50
1.79649775E+02
 51
2.28464923E+02
  0
ARC
  8
0
 62
4
 10
-8.86741832E+01
 20
3.35934878E+01
 40
1.48094647E+00
 50
1.79979895E+02
 51
2.28518513E+02
  0
ARC
  8
0
 62
4
 10
-8.86710250E+01
 20
3.35931045E+01
 40
1.48410487E+00
 50
1.31536451E+02
 51
1.79965140E+02
  0
ARC
  8
0
 62
4
 10
-9.15753696E+01
 20
3.02101829E+01
 40
5.42024357E+00
 50
3.59934721E+02
 51
2.48034017E+01
  0
ARC
  8
0
 62
4
 10
-8.76508694E+01
 20
3.36001515E+01
 40
1.49575246E+00
 50
3.11736944E+02
 51
3.59764647E+02
  0
ARC
  8
0
 62
4
 10
-9.15732739E+01
 20
3.02073652E+01
 40
5.41814532E+00
 50
3.35191782E+02
 51
3.59964492E+02
  0
ARC
  8
0
 62
4
 10
-8.76545799E+01
 20
2.68161920E+01
 40
1.49947071E+00
 50
2.98635695E-01
 51
4.81997731E+01
  0
ARC
  8
0
 62
4
 10
-8.76540157E+01
 20
2.68215459E+01
 40
1.49888818E+00
 50
3.11791208E+02
 51
9.40935745E-02
  0
ARC
  8
0
 62
4
 10
-8.76539964E+01
 20
3.35864548E+01
 40
1.49888586E+00
 50
2.88704672E-01
 51
4.82097042E+01
  0
ARC
  8
0
 62
4
 10
-7.33623581E+01
 20
2.42206037E+01
 40
5.26722966E+00
 50
3.70246508E-02
 51
2.24731834E+01
  0
ARC
  8
0
 62
4
 10
-5.21458513E+01
 20
3.02091554E+01
 40
1.99492789E+01
 50
1.68507018E+02
 51
1.80014785E+02
  0
ARC
  8
0
 62
4
 10
-6.68380943E+01
 20
3.61953826E+01
 40
5.25703545E+00
 50
1.80014988E+02
 51
2.02495220E+02
  0
ARC
  8
0
 62
4
 10
-6.68371833E+01
 20
3.61924510E+01
 40
5.25794651E+00
 50
1.57506753E+02
 51
1.79983039E+02
  0
ARC
  8
0
 62
4
 10
-7.33613552E+01
 20
3.61908033E+01
 40
5.26622655E+00
 50
3.48600779E-02
 51
2.24753479E+01
  0
ARC
  8
0
 62
4
 10
-7.33604456E+01
 20
3.61970305E+01
 40
5.26531686E+00
 50
3.37522688E+02
 51
3.59967104E+02
  0
ARC
  8
0
 62
4
 10
-6.68371875E+01
 20
2.42155801E+01
 40
5.25794885E+00
 50
1.79908168E+02
 51
2.02493428E+02
  0
ARC
  8
0
 62
4
 10
-7.33613541E+01
 20
2.42172202E+01
 40
5.26622888E+00
 50
3.37524561E+02
 51
7.38440165E-02
  0
ARC
  8
0
 62
4
 10
-6.68361787E+01
 20
2.42222511E+01
 40
5.25895115E+00
 50
1.57508928E+02
 51
1.79980864E+02
  0
ARC
  8
0
 62
4
 10
-5.21468472E+01
 20
3.02087588E+01
 40
1.99482829E+01
 50
1.80013647E+02
 51
1.91493268E+02
  0
ARC
  8
0
 62
4
 10
-8.80519329E+01
 20
3.02096173E+01
 40
1.99568041E+01
 50
3.48509191E+02
 51
3.59983894E+02
  0
ARC
  8
0
 62
4
 10
-8.80529288E+01
 20
3.02082990E+01
 40
1.99577996E+01
 50
3.59987680E+02
 51
1.14905173E+01
  0
ARC
  8
0
 62
4
 10
2.37320476E+00
 20
4.97023418E+01
 40
1.00166704E+00
 50
9.52762946E-02
 51
8.99047236E+01
  0
ARC
  8
0
 62
4
 10
-6.24338098E-01
 20
4.97032160E+01
 40
1.00079180E+00
 50
9.00000002E+01
 51
1.79954687E+02
  0
LINE
  8
0
 62
4
 10
-6.25129585E-01
 20
5.07040074E+01
 11
2.37487041E+00
 21
5.07040074E+01
  0
ARC
  8
0
 62
4
 10
-3.76267952E+01
 20
4.97023418E+01
 40
1.00166704E+00
 50
9.52762946E-02
 51
8.99047236E+01
  0
ARC
  8
0
 62
4
 10
-4.06243381E+01
 20
4.97032160E+01
 40
1.00079180E+00
 50
9.00000002E+01
 51
1.79954687E+02
  0
LINE
  8
0
 62
4
 10
-4.06251296E+01
 20
5.07040074E+01
 11
-3.76251296E+01
 21
5.07040074E+01
  0
LINE
  8
0
  6
CENTER
 62
6
 10
-1.18126312E+02
 20
4.35975649E+01
 11
-1.18126312E+02
 21
5.08170789E+01
  0
ARC
  8
0
 62
4
 10
-1.18985130E+02
 20
3.02040074E+01
 40
8.65000000E+00
 50
1.69314255E+02
 51
1.90685745E+02
  0
ARC
  8
0
 62
4
 10
-1.18985130E+02
 20
3.02040074E+01
 40
8.65000000E+00
 50
2.59314255E+02
 51
2.80685745E+02
  0
LINE
  8
0
 62
4
 10
-1.17485130E+02
 20
4.55040074E+01
 11
-1.17785130E+02
 21
4.52040074E+01
  0
LINE
  8
0
 62
4
 10
-1.20485130E+02
 20
4.55040074E+01
 11
-1.20185130E+02
 21
4.52040074E+01
  0
LINE
  8
0
 62
4
 10
-1.17485130E+02
 20
4.55040074E+01
 11
-1.17785130E+02
 21
4.52040074E+01
  0
LINE
  8
0
 62
4
 10
-1.20485130E+02
 20
4.55040074E+01
 11
-1.20185130E+02
 21
4.52040074E+01
  0
LINE
  8
0
 62
4
 10
-1.17985130E+02
 20
3.92040074E+01
 11
-1.19985130E+02
 21
3.92040074E+01
  0
LINE
  8
0
 62
4
 10
-1.17685130E+02
 20
4.02040074E+01
 11
-1.20285130E+02
 21
4.02040074E+01
  0
LINE
  8
0
 62
4
 10
-1.17685130E+02
 20
4.02040074E+01
 11
-1.16935130E+02
 21
3.95040074E+01
  0
LINE
  8
0
 62
4
 10
-1.25891521E+02
 20
3.69235689E+01
 11
-1.26366861E+02
 21
3.70786558E+01
  0
LINE
  8
0
 62
4
 10
-1.24650825E+02
 20
4.07262882E+01
 11
-1.24508223E+02
 21
4.06797621E+01
  0
LINE
  8
0
 62
4
 10
-1.23910130E+02
 20
4.46085115E+01
 11
-1.26366861E+02
 21
3.70786558E+01
  0
LINE
  8
0
 62
4
 10
-1.24508238E+02
 20
4.06797172E+01
 11
-1.25749183E+02
 21
3.68762336E+01
  0
LINE
  8
0
 62
4
 10
-1.23410130E+02
 20
4.45290074E+01
 11
-1.25989190E+02
 21
3.66242155E+01
  0
LINE
  8
0
 62
4
 10
-1.15485130E+02
 20
4.17040074E+01
 11
-1.13340116E+02
 21
3.78490268E+01
  0
LINE
  8
0
 62
4
 10
-1.15635130E+02
 20
4.17040074E+01
 11
-1.13606393E+02
 21
3.80386541E+01
  0
ARC
  8
0
 62
4
 10
-1.18985130E+02
 20
3.02040074E+01
 40
8.65000000E+00
 50
3.49314255E+02
 51
1.06857449E+01
  0
ARC
  8
0
 62
4
 10
-1.18985130E+02
 20
3.02040074E+01
 40
8.50000000E+00
 50
1.61930287E+02
 51
2.89640969E+01
  0
CIRCLE
  8
0
 62
4
 10
-1.18985130E+02
 20
4.15040074E+01
 40
1.30000000E+00
  0
LINE
  8
0
 62
4
 10
-1.15485130E+02
 20
4.82040074E+01
 11
-1.22485130E+02
 21
4.82040074E+01
  0
LINE
  8
0
 62
4
 10
-1.22485130E+02
 20
4.69040074E+01
 11
-1.22485130E+02
 21
4.10040074E+01
  0
LINE
  8
0
 62
4
 10
-1.15485130E+02
 20
4.69040074E+01
 11
-1.15485130E+02
 21
4.17040074E+01
  0
LINE
  8
0
 62
4
 10
-1.23285130E+02
 20
4.32017852E+01
 11
-1.23754648E+02
 21
4.34730625E+01
  0
LINE
  8
0
 62
4
 10
-1.23985130E+02
 20
4.65040074E+01
 11
-1.23985130E+02
 21
4.48190074E+01
  0
LINE
  8
0
 62
4
 10
-1.23985130E+02
 20
4.65040074E+01
 11
-1.24785130E+02
 21
4.65040074E+01
  0
LINE
  8
0
 62
4
 10
-1.21270130E+02
 20
4.74040074E+01
 11
-1.21130130E+02
 21
4.66040074E+01
  0
LINE
  8
0
 62
4
 10
-1.16700130E+02
 20
4.74040074E+01
 11
-1.16840130E+02
 21
4.66040074E+01
  0
LINE
  8
0
 62
4
 10
-1.16840130E+02
 20
4.66040074E+01
 11
-1.21130130E+02
 21
4.66040074E+01
  0
LINE
  8
0
 62
6
 10
-1.20215130E+02
 20
4.87040074E+01
 11
-1.20215130E+02
 21
4.82040074E+01
  0
LINE
  8
0
 62
6
 10
-1.17755130E+02
 20
4.87040074E+01
 11
-1.17755130E+02
 21
4.82040074E+01
  0
LINE
  8
0
 62
4
 10
-1.14685130E+02
 20
4.74040074E+01
 11
-1.14685130E+02
 21
4.17040074E+01
  0
LINE
  8
0
 62
4
 10
-1.23285130E+02
 20
4.10040074E+01
 11
-1.23285130E+02
 21
4.74040074E+01
  0
LINE
  8
0
 62
4
 10
-1.15985130E+02
 20
4.74040074E+01
 11
-1.21985130E+02
 21
4.74040074E+01
  0
LINE
  8
0
 62
4
 10
-1.24785130E+02
 20
4.65040074E+01
 11
-1.24785130E+02
 21
4.43590074E+01
  0
LINE
  8
0
 62
4
 10
-1.23285130E+02
 20
4.41280074E+01
 11
-1.23499234E+02
 21
4.42521882E+01
  0
LINE
  8
0
 62
4
 10
-1.15635130E+02
 20
4.69040074E+01
 11
-1.15635130E+02
 21
4.17040074E+01
  0
LINE
  8
0
 62
4
 10
-1.15485130E+02
 20
4.69040074E+01
 11
-1.15635130E+02
 21
4.69040074E+01
  0
LINE
  8
0
 62
4
 10
-1.15735130E+02
 20
4.52040074E+01
 11
-1.22235130E+02
 21
4.52040074E+01
  0
LINE
  8
0
 62
4
 10
-1.15735130E+02
 20
4.45040074E+01
 11
-1.22235130E+02
 21
4.45040074E+01
  0
LINE
  8
0
 62
4
 10
-1.23410130E+02
 20
4.70290074E+01
 11
-1.23410130E+02
 21
4.45290074E+01
  0
LINE
  8
0
 62
4
 10
-1.23910130E+02
 20
4.70290074E+01
 11
-1.23910130E+02
 21
4.46085115E+01
  0
LINE
  8
0
 62
4
 10
-1.23410130E+02
 20
4.70290074E+01
 11
-1.23910130E+02
 21
4.70290074E+01
  0
LINE
  8
0
 62
4
 10
-1.20485130E+02
 20
4.92040074E+01
 11
-1.20485130E+02
 21
4.82040074E+01
  0
LINE
  8
0
 62
4
 10
-1.17485130E+02
 20
4.92040074E+01
 11
-1.17485130E+02
 21
4.82040074E+01
  0
LINE
  8
0
 62
4
 10
-1.14685130E+02
 20
4.17040074E+01
 11
-1.15485130E+02
 21
4.17040074E+01
  0
LINE
  8
0
 62
4
 10
-1.22485130E+02
 20
4.10040074E+01
 11
-1.23285130E+02
 21
4.10040074E+01
  0
LINE
  8
0
 62
4
 10
-1.16485130E+02
 20
4.92040074E+01
 11
-1.21485130E+02
 21
4.92040074E+01
  0
LINE
  8
0
 62
4
 10
-1.17485130E+02
 20
5.07040074E+01
 11
-1.20485130E+02
 21
5.07040074E+01
  0
LINE
  8
0
 62
4
 10
-1.16485130E+02
 20
4.97040074E+01
 11
-1.16485130E+02
 21
4.92040074E+01
  0
LINE
  8
0
 62
4
 10
-1.21485130E+02
 20
4.97040074E+01
 11
-1.21485130E+02
 21
4.92040074E+01
  0
LINE
  8
0
 62
4
 10
-1.17485130E+02
 20
4.87040074E+01
 11
-1.20485130E+02
 21
4.87040074E+01
  0
ARC
  8
0
 62
4
 10
-1.15485133E+02
 20
4.74040042E+01
 40
8.00003254E-01
 50
2.33015759E-04
 51
9.00000002E+01
  0
ARC
  8
0
 62
4
 10
-1.22486792E+02
 20
4.74056700E+01
 40
7.98339134E-01
 50
8.98806771E+01
 51
1.80119323E+02
  0
ARC
  8
0
 62
4
 10
-1.15985134E+02
 20
4.69040032E+01
 40
5.00004290E-01
 50
4.91607912E-04
 51
9.00000002E+01
  0
ARC
  8
0
 62
4
 10
-1.21986792E+02
 20
4.69056700E+01
 40
4.98340176E-01
 50
8.98088454E+01
 51
1.80191155E+02
  0
ARC
  8
0
 62
4
 10
-1.24284926E+02
 20
4.43571417E+01
 40
5.00207143E-01
 50
1.79786293E+02
 51
2.39986760E+02
  0
ARC
  8
0
 62
4
 10
-1.23486278E+02
 20
4.48213631E+01
 40
4.98857363E-01
 50
1.80270562E+02
 51
2.09445368E+02
  0
ARC
  8
0
 62
4
 10
-1.20486542E+02
 20
4.97054198E+01
 40
9.98588677E-01
 50
8.99189656E+01
 51
1.80081034E+02
  0
ARC
  8
0
 62
4
 10
-1.17485382E+02
 20
4.97037547E+01
 40
1.00025280E+00
 50
1.44788446E-02
 51
9.00000002E+01
  0
LINE
  8
0
 62
4
 10
-1.22235130E+02
 20
4.52040074E+01
 11
-1.22235130E+02
 21
3.87040074E+01
  0
LINE
  8
0
 62
4
 10
-1.15735130E+02
 20
4.13040074E+01
 11
-1.15735130E+02
 21
3.87040074E+01
  0
LINE
  8
0
 62
4
 10
-1.15735130E+02
 20
4.13040074E+01
 11
-1.16935130E+02
 21
4.13040074E+01
  0
LINE
  8
0
 62
4
 10
-1.15735130E+02
 20
4.17040074E+01
 11
-1.16935130E+02
 21
4.17040074E+01
  0
LINE
  8
0
 62
4
 10
-1.15735130E+02
 20
4.52040074E+01
 11
-1.15735130E+02
 21
4.17040074E+01
  0
LINE
  8
0
 62
4
 10
-1.16935130E+02
 20
3.95040074E+01
 11
-1.21035130E+02
 21
3.95040074E+01
  0
LINE
  8
0
 62
4
 10
-1.16935130E+02
 20
4.35040074E+01
 11
-1.21035130E+02
 21
4.35040074E+01
  0
LINE
  8
0
 62
4
 10
-1.17985130E+02
 20
4.38040074E+01
 11
-1.19985130E+02
 21
4.38040074E+01
  0
LINE
  8
0
 62
4
 10
-1.17685130E+02
 20
4.28040074E+01
 11
-1.20285130E+02
 21
4.28040074E+01
  0
LINE
  8
0
 62
4
 10
-1.17985130E+02
 20
4.38040074E+01
 11
-1.17985130E+02
 21
4.35040074E+01
  0
LINE
  8
0
 62
4
 10
-1.17985130E+02
 20
3.95040074E+01
 11
-1.17985130E+02
 21
3.92040074E+01
  0
LINE
  8
0
 62
4
 10
-1.16935130E+02
 20
4.35040074E+01
 11
-1.16935130E+02
 21
3.95040074E+01
  0
LINE
  8
0
 62
4
 10
-1.17685130E+02
 20
4.28040074E+01
 11
-1.17685130E+02
 21
4.02040074E+01
  0
LINE
  8
0
 62
4
 10
-1.16935130E+02
 20
4.35040074E+01
 11
-1.17685130E+02
 21
4.28040074E+01
  0
LINE
  8
0
 62
4
 10
-1.21035130E+02
 20
4.35040074E+01
 11
-1.21035130E+02
 21
3.95040074E+01
  0
LINE
  8
0
 62
4
 10
-1.19985130E+02
 20
4.38040074E+01
 11
-1.19985130E+02
 21
4.35040074E+01
  0
LINE
  8
0
 62
4
 10
-1.19985130E+02
 20
3.95040074E+01
 11
-1.19985130E+02
 21
3.92040074E+01
  0
LINE
  8
0
 62
4
 10
-1.20285130E+02
 20
4.28040074E+01
 11
-1.20285130E+02
 21
4.02040074E+01
  0
LINE
  8
0
 62
4
 10
-1.20285130E+02
 20
4.28040074E+01
 11
-1.21035130E+02
 21
4.35040074E+01
  0
LINE
  8
0
 62
4
 10
-1.20285130E+02
 20
4.02040074E+01
 11
-1.21035130E+02
 21
3.95040074E+01
  0
LINE
  8
0
 62
4
 10
-1.17485130E+02
 20
4.66040074E+01
 11
-1.17485130E+02
 21
4.55040074E+01
  0
LINE
  8
0
 62
4
 10
-1.20485130E+02
 20
4.66040074E+01
 11
-1.20485130E+02
 21
4.55040074E+01
  0
LINE
  8
0
 62
6
 10
-1.17755130E+02
 20
4.66040074E+01
 11
-1.17755130E+02
 21
4.52340074E+01
  0
LINE
  8
0
 62
6
 10
-1.20215130E+02
 20
4.66040074E+01
 11
-1.20215130E+02
 21
4.52340074E+01
  0
LINE
  8
0
 62
4
 10
-1.24197168E+02
 20
4.37287409E+01
 11
-1.24535130E+02
 21
4.39240074E+01
  0
ARC
  8
0
 62
2
 10
-1.18985130E+02
 20
3.02040074E+01
 40
4.18800000E+00
 50
4.27674369E+01
 51
7.72325633E+01
  0
ARC
  8
0
 62
2
 10
-1.18985130E+02
 20
3.02040074E+01
 40
4.18800000E+00
 50
3.42767437E+02
 51
1.72325634E+01
  0
ARC
  8
0
 62
2
 10
-1.18985130E+02
 20
3.02040074E+01
 40
4.18800000E+00
 50
2.82767437E+02
 51
3.17232564E+02
  0
ARC
  8
0
 62
2
 10
-1.18985130E+02
 20
3.02040074E+01
 40
4.18800000E+00
 50
2.22767437E+02
 51
2.57232563E+02
  0
ARC
  8
0
 62
2
 10
-1.18985130E+02
 20
3.02040074E+01
 40
4.18800000E+00
 50
1.62767437E+02
 51
1.97232563E+02
  0
ARC
  8
0
 62
2
 10
-1.18985130E+02
 20
3.02040074E+01
 40
4.18800000E+00
 50
1.02767437E+02
 51
1.37232563E+02
  0
CIRCLE
  8
0
 62
7
 10
-1.18985130E+02
 20
3.02040074E+01
 40
5.00000000E+00
  0
LINE
  8
0
 62
4
 10
-1.18985130E+02
 20
3.82869127E+01
 11
-1.11985128E+02
 21
3.42454601E+01
  0
LINE
  8
0
 62
4
 10
-1.11985128E+02
 20
3.42454601E+01
 11
-1.11985128E+02
 21
2.61625548E+01
  0
LINE
  8
0
 62
4
 10
-1.11985128E+02
 20
2.61625548E+01
 11
-1.18985130E+02
 21
2.21211022E+01
  0
LINE
  8
0
 62
4
 10
-1.18985130E+02
 20
2.21211022E+01
 11
-1.25985131E+02
 21
2.61625548E+01
  0
LINE
  8
0
 62
4
 10
-1.25985131E+02
 20
2.61625548E+01
 11
-1.25985131E+02
 21
3.42454601E+01
  0
LINE
  8
0
 62
4
 10
-1.25985131E+02
 20
3.42454601E+01
 11
-1.18985130E+02
 21
3.82869127E+01
  0
LINE
  8
0
 62
4
 10
-1.22985131E+02
 20
2.78946056E+01
 11
-1.22985131E+02
 21
3.25134092E+01
  0
LINE
  8
0
 62
4
 10
-1.18985130E+02
 20
2.55852038E+01
 11
-1.22985131E+02
 21
2.78946056E+01
  0
LINE
  8
0
 62
4
 10
-1.14985128E+02
 20
2.78946056E+01
 11
-1.18985130E+02
 21
2.55852038E+01
  0
LINE
  8
0
 62
4
 10
-1.14985128E+02
 20
3.25134093E+01
 11
-1.14985128E+02
 21
2.78946056E+01
  0
LINE
  8
0
 62
4
 10
-1.18985130E+02
 20
3.48228111E+01
 11
-1.14985128E+02
 21
3.25134093E+01
  0
LINE
  8
0
 62
4
 10
-1.22985131E+02
 20
3.25134092E+01
 11
-1.18985130E+02
 21
3.48228111E+01
  0
CIRCLE
  8
0
 62
2
 10
-1.18985130E+02
 20
3.02040074E+01
 40
2.06700000E+00
  0
LINE
  8
0
 62
7
 10
-1.10485130E+02
 20
3.44540074E+01
 11
-1.10485130E+02
 21
2.59640074E+01
  0
LINE
  8
0
 62
7
 10
-1.27485130E+02
 20
3.44540074E+01
 11
-1.27485130E+02
 21
2.59640074E+01
  0
LINE
  8
0
 62
7
 10
-1.23225130E+02
 20
2.17040074E+01
 11
-1.14735130E+02
 21
2.17040074E+01
  0
LINE
  8
0
 62
7
 10
-1.23225130E+02
 20
3.87040074E+01
 11
-1.14735130E+02
 21
3.87040074E+01
  0
LINE
  8
0
  6
CENTER
 62
2
 10
-1.18985130E+02
 20
5.17561078E+01
 11
-1.18985130E+02
 21
1.97036477E+01
  0
LINE
  8
0
  6
CENTER
 62
2
 10
-1.29455472E+02
 20
3.02040074E+01
 11
-1.08293365E+02
 21
3.02040074E+01
  0
CIRCLE
  8
0
 62
7
 10
-1.18985130E+02
 20
3.02040090E+01
 40
2.50000000E+00
  0
CIRCLE
  8
0
 62
7
 10
-1.18985130E+02
 20
3.02040090E+01
 40
8.50000000E+00
  0
ARC
  8
0
 62
7
 10
-1.18985129E+02
 20
3.02040082E+01
 40
9.50328788E+00
 50
2.65650491E+01
 51
6.34349507E+01
  0
ARC
  8
0
 62
7
 10
-1.18990123E+02
 20
3.01990241E+01
 40
9.50105392E+00
 50
1.16470741E+02
 51
1.53394604E+02
  0
ARC
  8
0
 62
7
 10
-1.18985129E+02
 20
3.02040082E+01
 40
9.49882200E+00
 50
2.06511102E+02
 51
2.43488897E+02
  0
ARC
  8
0
 62
7
 10
-1.18990114E+02
 20
3.01990159E+01
 40
9.50105596E+00
 50
2.96605401E+02
 51
3.33529254E+02
  0
CIRCLE
  8
0
 62
4
 10
-1.18985130E+02
 20
3.02040090E+01
 40
7.00000000E+00
  0
CIRCLE
  8
0
 62
4
 10
-1.18985130E+02
 20
3.02040090E+01
 40
4.00000000E+00
  0
ARC
  8
0
 62
4
 10
1.06514870E+02
 20
3.02040074E+01
 40
8.65000000E+00
 50
2.59314255E+02
 51
2.80685745E+02
  0
ARC
  8
0
 62
4
 10
1.06514870E+02
 20
3.02040074E+01
 40
8.65000000E+00
 50
3.49314255E+02
 51
1.06857449E+01
  0
LINE
  8
0
 62
4
 10
1.05014870E+02
 20
4.55040074E+01
 11
1.05314870E+02
 21
4.52040074E+01
  0
LINE
  8
0
 62
4
 10
1.08014870E+02
 20
4.55040074E+01
 11
1.07714870E+02
 21
4.52040074E+01
  0
LINE
  8
0
 62
4
 10
1.05014870E+02
 20
4.55040074E+01
 11
1.05314870E+02
 21
4.52040074E+01
  0
LINE
  8
0
 62
4
 10
1.08014870E+02
 20
4.55040074E+01
 11
1.07714870E+02
 21
4.52040074E+01
  0
LINE
  8
0
 62
4
 10
1.05514870E+02
 20
3.92040074E+01
 11
1.07514870E+02
 21
3.92040074E+01
  0
LINE
  8
0
 62
4
 10
1.05214870E+02
 20
4.02040074E+01
 11
1.07814870E+02
 21
4.02040074E+01
  0
LINE
  8
0
 62
4
 10
1.05214870E+02
 20
4.02040074E+01
 11
1.04464870E+02
 21
3.95040074E+01
  0
LINE
  8
0
 62
4
 10
1.13421262E+02
 20
3.69235689E+01
 11
1.13896602E+02
 21
3.70786558E+01
  0
LINE
  8
0
 62
4
 10
1.12180566E+02
 20
4.07262882E+01
 11
1.12037964E+02
 21
4.06797621E+01
  0
LINE
  8
0
 62
4
 10
1.11439870E+02
 20
4.46085115E+01
 11
1.13896602E+02
 21
3.70786558E+01
  0
LINE
  8
0
 62
4
 10
1.12037979E+02
 20
4.06797172E+01
 11
1.13277410E+02
 21
3.68808753E+01
  0
LINE
  8
0
 62
4
 10
1.10939870E+02
 20
4.45290074E+01
 11
1.13517489E+02
 21
3.66286348E+01
  0
LINE
  8
0
 62
4
 10
1.03014870E+02
 20
4.17040074E+01
 11
1.00866008E+02
 21
3.78421103E+01
  0
LINE
  8
0
 62
4
 10
1.03164870E+02
 20
4.17040074E+01
 11
1.01132325E+02
 21
3.80317728E+01
  0
ARC
  8
0
 62
4
 10
1.06514870E+02
 20
3.02040074E+01
 40
8.65000000E+00
 50
1.69314255E+02
 51
1.90685745E+02
  0
ARC
  8
0
 62
4
 10
1.06514870E+02
 20
3.02040074E+01
 40
8.50000000E+00
 50
1.51035903E+02
 51
1.80697136E+01
  0
CIRCLE
  8
0
 62
4
 10
1.06514870E+02
 20
4.15040074E+01
 40
1.30000000E+00
  0
LINE
  8
0
 62
4
 10
1.03014870E+02
 20
4.82040074E+01
 11
1.10014870E+02
 21
4.82040074E+01
  0
LINE
  8
0
 62
4
 10
1.10014870E+02
 20
4.69040074E+01
 11
1.10014870E+02
 21
4.10040074E+01
  0
LINE
  8
0
 62
4
 10
1.03014870E+02
 20
4.69040074E+01
 11
1.03014870E+02
 21
4.17040074E+01
  0
LINE
  8
0
 62
4
 10
1.10814870E+02
 20
4.32017852E+01
 11
1.11284389E+02
 21
4.34730625E+01
  0
LINE
  8
0
 62
4
 10
1.11514870E+02
 20
4.65040074E+01
 11
1.11514870E+02
 21
4.48190074E+01
  0
LINE
  8
0
 62
4
 10
1.11514870E+02
 20
4.65040074E+01
 11
1.12314870E+02
 21
4.65040074E+01
  0
LINE
  8
0
 62
4
 10
1.08799870E+02
 20
4.74040074E+01
 11
1.08659870E+02
 21
4.66040074E+01
  0
LINE
  8
0
 62
4
 10
1.04229870E+02
 20
4.74040074E+01
 11
1.04369870E+02
 21
4.66040074E+01
  0
LINE
  8
0
 62
4
 10
1.04369870E+02
 20
4.66040074E+01
 11
1.08659870E+02
 21
4.66040074E+01
  0
LINE
  8
0
 62
6
 10
1.07744870E+02
 20
4.87040074E+01
 11
1.07744870E+02
 21
4.82040074E+01
  0
LINE
  8
0
 62
6
 10
1.05284870E+02
 20
4.87040074E+01
 11
1.05284870E+02
 21
4.82040074E+01
  0
LINE
  8
0
 62
4
 10
1.02214870E+02
 20
4.74040074E+01
 11
1.02214870E+02
 21
4.17040074E+01
  0
LINE
  8
0
 62
4
 10
1.10814870E+02
 20
4.10040074E+01
 11
1.10814870E+02
 21
4.74040074E+01
  0
LINE
  8
0
 62
4
 10
1.03514870E+02
 20
4.74040074E+01
 11
1.09514870E+02
 21
4.74040074E+01
  0
LINE
  8
0
 62
4
 10
1.12314870E+02
 20
4.65040074E+01
 11
1.12314870E+02
 21
4.43590074E+01
  0
LINE
  8
0
 62
4
 10
1.10814870E+02
 20
4.41280074E+01
 11
1.11028975E+02
 21
4.42521882E+01
  0
LINE
  8
0
 62
4
 10
1.03164870E+02
 20
4.69040074E+01
 11
1.03164870E+02
 21
4.17040074E+01
  0
LINE
  8
0
 62
4
 10
1.03014870E+02
 20
4.69040074E+01
 11
1.03164870E+02
 21
4.69040074E+01
  0
LINE
  8
0
 62
4
 10
1.03264870E+02
 20
4.52040074E+01
 11
1.09764870E+02
 21
4.52040074E+01
  0
LINE
  8
0
 62
4
 10
1.03264870E+02
 20
4.45040074E+01
 11
1.09764870E+02
 21
4.45040074E+01
  0
LINE
  8
0
 62
4
 10
1.10939870E+02
 20
4.70290074E+01
 11
1.10939870E+02
 21
4.45290074E+01
  0
LINE
  8
0
 62
4
 10
1.11439870E+02
 20
4.70290074E+01
 11
1.11439870E+02
 21
4.46085115E+01
  0
LINE
  8
0
 62
4
 10
1.10939870E+02
 20
4.70290074E+01
 11
1.11439870E+02
 21
4.70290074E+01
  0
LINE
  8
0
 62
4
 10
1.08014870E+02
 20
4.92040074E+01
 11
1.08014870E+02
 21
4.82040074E+01
  0
LINE
  8
0
 62
4
 10
1.05014870E+02
 20
4.92040074E+01
 11
1.05014870E+02
 21
4.82040074E+01
  0
LINE
  8
0
 62
4
 10
1.02214870E+02
 20
4.17040074E+01
 11
1.03014870E+02
 21
4.17040074E+01
  0
LINE
  8
0
 62
4
 10
1.10014870E+02
 20
4.10040074E+01
 11
1.10814870E+02
 21
4.10040074E+01
  0
LINE
  8
0
 62
4
 10
1.04014870E+02
 20
4.92040074E+01
 11
1.09014870E+02
 21
4.92040074E+01
  0
LINE
  8
0
 62
4
 10
1.05014870E+02
 20
5.07040074E+01
 11
1.08014870E+02
 21
5.07040074E+01
  0
LINE
  8
0
 62
4
 10
1.04014870E+02
 20
4.97040074E+01
 11
1.04014870E+02
 21
4.92040074E+01
  0
LINE
  8
0
 62
4
 10
1.09014870E+02
 20
4.97040074E+01
 11
1.09014870E+02
 21
4.92040074E+01
  0
LINE
  8
0
 62
4
 10
1.05014870E+02
 20
4.87040074E+01
 11
1.08014870E+02
 21
4.87040074E+01
  0
ARC
  8
0
 62
4
 10
1.03014874E+02
 20
4.74040042E+01
 40
8.00003254E-01
 50
9.00000002E+01
 51
1.79999767E+02
  0
ARC
  8
0
 62
4
 10
1.10016533E+02
 20
4.74056700E+01
 40
7.98339134E-01
 50
3.59880678E+02
 51
9.01193227E+01
  0
ARC
  8
0
 62
4
 10
1.03514875E+02
 20
4.69040032E+01
 40
5.00004290E-01
 50
9.00000002E+01
 51
1.79999508E+02
  0
ARC
  8
0
 62
4
 10
1.09516533E+02
 20
4.69056700E+01
 40
4.98340176E-01
 50
3.59808845E+02
 51
9.01911544E+01
  0
ARC
  8
0
 62
4
 10
1.11814667E+02
 20
4.43571417E+01
 40
5.00207143E-01
 50
3.00013240E+02
 51
2.13706628E-01
  0
ARC
  8
0
 62
4
 10
1.11016019E+02
 20
4.48213631E+01
 40
4.98857363E-01
 50
3.30554632E+02
 51
3.59729437E+02
  0
ARC
  8
0
 62
4
 10
1.08016283E+02
 20
4.97054198E+01
 40
9.98588677E-01
 50
3.59918966E+02
 51
9.00810348E+01
  0
ARC
  8
0
 62
4
 10
1.05015123E+02
 20
4.97037547E+01
 40
1.00025280E+00
 50
9.00000002E+01
 51
1.79985521E+02
  0
LINE
  8
0
 62
4
 10
1.09764870E+02
 20
4.52040074E+01
 11
1.09764870E+02
 21
3.87040074E+01
  0
LINE
  8
0
 62
4
 10
1.03264870E+02
 20
4.13040074E+01
 11
1.03264870E+02
 21
3.87040074E+01
  0
LINE
  8
0
 62
4
 10
1.03264870E+02
 20
4.13040074E+01
 11
1.04464870E+02
 21
4.13040074E+01
  0
LINE
  8
0
 62
4
 10
1.03264870E+02
 20
4.17040074E+01
 11
1.04464870E+02
 21
4.17040074E+01
  0
LINE
  8
0
 62
4
 10
1.03264870E+02
 20
4.52040074E+01
 11
1.03264870E+02
 21
4.17040074E+01
  0
LINE
  8
0
 62
4
 10
1.04464870E+02
 20
3.95040074E+01
 11
1.08564870E+02
 21
3.95040074E+01
  0
LINE
  8
0
 62
4
 10
1.04464870E+02
 20
4.35040074E+01
 11
1.08564870E+02
 21
4.35040074E+01
  0
LINE
  8
0
 62
4
 10
1.05514870E+02
 20
4.38040074E+01
 11
1.07514870E+02
 21
4.38040074E+01
  0
LINE
  8
0
 62
4
 10
1.05214870E+02
 20
4.28040074E+01
 11
1.07814870E+02
 21
4.28040074E+01
  0
LINE
  8
0
 62
4
 10
1.05514870E+02
 20
4.38040074E+01
 11
1.05514870E+02
 21
4.35040074E+01
  0
LINE
  8
0
 62
4
 10
1.05514870E+02
 20
3.95040074E+01
 11
1.05514870E+02
 21
3.92040074E+01
  0
LINE
  8
0
 62
4
 10
1.04464870E+02
 20
4.35040074E+01
 11
1.04464870E+02
 21
3.95040074E+01
  0
LINE
  8
0
 62
4
 10
1.05214870E+02
 20
4.28040074E+01
 11
1.05214870E+02
 21
4.02040074E+01
  0
LINE
  8
0
 62
4
 10
1.04464870E+02
 20
4.35040074E+01
 11
1.05214870E+02
 21
4.28040074E+01
  0
LINE
  8
0
 62
4
 10
1.08564870E+02
 20
4.35040074E+01
 11
1.08564870E+02
 21
3.95040074E+01
  0
LINE
  8
0
 62
4
 10
1.07514870E+02
 20
4.38040074E+01
 11
1.07514870E+02
 21
4.35040074E+01
  0
LINE
  8
0
 62
4
 10
1.07514870E+02
 20
3.95040074E+01
 11
1.07514870E+02
 21
3.92040074E+01
  0
LINE
  8
0
 62
4
 10
1.07814870E+02
 20
4.28040074E+01
 11
1.07814870E+02
 21
4.02040074E+01
  0
LINE
  8
0
 62
4
 10
1.07814870E+02
 20
4.28040074E+01
 11
1.08564870E+02
 21
4.35040074E+01
  0
LINE
  8
0
 62
4
 10
1.07814870E+02
 20
4.02040074E+01
 11
1.08564870E+02
 21
3.95040074E+01
  0
LINE
  8
0
 62
4
 10
1.05014870E+02
 20
4.66040074E+01
 11
1.05014870E+02
 21
4.55040074E+01
  0
LINE
  8
0
 62
4
 10
1.08014870E+02
 20
4.66040074E+01
 11
1.08014870E+02
 21
4.55040074E+01
  0
LINE
  8
0
 62
6
 10
1.05284870E+02
 20
4.66040074E+01
 11
1.05284870E+02
 21
4.52340074E+01
  0
LINE
  8
0
 62
6
 10
1.07744870E+02
 20
4.66040074E+01
 11
1.07744870E+02
 21
4.52340074E+01
  0
LINE
  8
0
 62
4
 10
1.11726909E+02
 20
4.37287409E+01
 11
1.12064870E+02
 21
4.39240074E+01
  0
CIRCLE
  8
0
 62
7
 10
1.06514870E+02
 20
3.02040090E+01
 40
4.00000000E+00
  0
CIRCLE
  8
0
 62
4
 10
1.06514870E+02
 20
3.02040090E+01
 40
7.00000000E+00
  0
ARC
  8
0
 62
7
 10
1.06509886E+02
 20
3.01990159E+01
 40
9.50105596E+00
 50
2.96605401E+02
 51
3.33529254E+02
  0
ARC
  8
0
 62
7
 10
1.06514871E+02
 20
3.02040082E+01
 40
9.49882200E+00
 50
2.06511102E+02
 51
2.43488897E+02
  0
ARC
  8
0
 62
7
 10
1.06509877E+02
 20
3.01990241E+01
 40
9.50105392E+00
 50
1.16470741E+02
 51
1.53394604E+02
  0
ARC
  8
0
 62
7
 10
1.06514871E+02
 20
3.02040082E+01
 40
9.50328788E+00
 50
2.65650491E+01
 51
6.34349507E+01
  0
CIRCLE
  8
0
 62
7
 10
1.06514870E+02
 20
3.02040090E+01
 40
8.50000000E+00
  0
CIRCLE
  8
0
 62
7
 10
1.06514870E+02
 20
3.02040090E+01
 40
2.50000000E+00
  0
LINE
  8
0
  6
CENTER
 62
2
 10
9.60857219E+01
 20
3.02040074E+01
 11
1.17083229E+02
 21
3.02040074E+01
  0
LINE
  8
0
 62
7
 10
1.02274870E+02
 20
3.87040074E+01
 11
1.10764870E+02
 21
3.87040074E+01
  0
LINE
  8
0
 62
7
 10
1.02274870E+02
 20
2.17040074E+01
 11
1.10764870E+02
 21
2.17040074E+01
  0
LINE
  8
0
 62
7
 10
9.80148704E+01
 20
3.44540074E+01
 11
9.80148704E+01
 21
2.59640074E+01
  0
LINE
  8
0
 62
7
 10
1.15014870E+02
 20
3.44540074E+01
 11
1.15014870E+02
 21
2.59640074E+01
  0
CIRCLE
  8
0
 62
2
 10
1.06514870E+02
 20
3.02040074E+01
 40
2.06700000E+00
  0
LINE
  8
0
 62
7
 10
1.02514869E+02
 20
3.25134092E+01
 11
1.06514870E+02
 21
3.48228111E+01
  0
LINE
  8
0
 62
7
 10
1.06514870E+02
 20
3.48228111E+01
 11
1.10514872E+02
 21
3.25134093E+01
  0
LINE
  8
0
 62
7
 10
1.10514872E+02
 20
3.25134093E+01
 11
1.10514872E+02
 21
2.78946056E+01
  0
LINE
  8
0
 62
7
 10
1.10514872E+02
 20
2.78946056E+01
 11
1.06514870E+02
 21
2.55852038E+01
  0
LINE
  8
0
 62
7
 10
1.06514870E+02
 20
2.55852038E+01
 11
1.02514869E+02
 21
2.78946056E+01
  0
LINE
  8
0
 62
7
 10
1.02514869E+02
 20
2.78946056E+01
 11
1.02514869E+02
 21
3.25134092E+01
  0
LINE
  8
0
 62
4
 10
9.95148691E+01
 20
3.42454601E+01
 11
1.06514870E+02
 21
3.82869127E+01
  0
LINE
  8
0
 62
4
 10
9.95148691E+01
 20
2.61625548E+01
 11
9.95148691E+01
 21
3.42454601E+01
  0
LINE
  8
0
 62
4
 10
1.06514870E+02
 20
2.21211022E+01
 11
9.95148691E+01
 21
2.61625548E+01
  0
LINE
  8
0
 62
4
 10
1.13514872E+02
 20
2.61625548E+01
 11
1.06514870E+02
 21
2.21211022E+01
  0
LINE
  8
0
 62
4
 10
1.13514872E+02
 20
3.42454601E+01
 11
1.13514872E+02
 21
2.61625548E+01
  0
LINE
  8
0
 62
4
 10
1.06514870E+02
 20
3.82869127E+01
 11
1.13514872E+02
 21
3.42454601E+01
  0
CIRCLE
  8
0
 62
7
 10
1.06514870E+02
 20
3.02040074E+01
 40
5.00000000E+00
  0
LINE
  8
0
  6
CENTER
 62
2
 10
1.06514870E+02
 20
5.18975388E+01
 11
1.06514870E+02
 21
1.96155180E+01
  0
LINE
  8
0
  6
CENTER
 62
6
 10
8.74870415E-01
 20
8.54585843E+01
 11
8.74870415E-01
 21
6.54585856E+01
  0
LINE
  8
0
  6
CENTER
 62
6
 10
-1.33513343E+01
 20
7.54585856E+01
 11
2.31179208E+01
 21
7.54585856E+01
  0
LINE
  8
0
 62
4
 10
5.37487041E+00
 20
6.68085856E+01
 11
5.37487041E+00
 21
8.41085856E+01
  0
LINE
  8
0
 62
4
 10
-3.62512956E+00
 20
7.97585856E+01
 11
5.37487044E+00
 21
7.97585856E+01
  0
LINE
  8
0
 62
4
 10
-3.62512956E+00
 20
8.03835856E+01
 11
5.37487044E+00
 21
8.03835856E+01
  0
LINE
  8
0
 62
4
 10
-3.62512956E+00
 20
7.98835856E+01
 11
5.37487044E+00
 21
7.98835856E+01
  0
LINE
  8
0
 62
4
 10
-3.62512956E+00
 20
8.28335856E+01
 11
5.37487041E+00
 21
8.28335856E+01
  0
LINE
  8
0
 62
4
 10
-1.12512956E+00
 20
8.12585856E+01
 11
2.87487044E+00
 21
8.12585856E+01
  0
LINE
  8
0
 62
4
 10
-1.12512956E+00
 20
8.04585856E+01
 11
2.87487041E+00
 21
8.04585856E+01
  0
LINE
  8
0
 62
4
 10
-3.62512959E+00
 20
8.41085856E+01
 11
5.37487041E+00
 21
8.41085856E+01
  0
LINE
  8
0
 62
4
 10
2.87487041E+00
 20
8.12585856E+01
 11
2.87487041E+00
 21
8.03835856E+01
  0
LINE
  8
0
 62
4
 10
-3.62512956E+00
 20
7.11585856E+01
 11
5.37487041E+00
 21
7.11585856E+01
  0
LINE
  8
0
 62
4
 10
-3.62512959E+00
 20
6.68085856E+01
 11
5.37487041E+00
 21
6.68085856E+01
  0
LINE
  8
0
 62
6
 10
2.13118695E+01
 20
7.67585856E+01
 11
1.87118695E+01
 21
7.41585856E+01
  0
LINE
  8
0
 62
4
 10
1.63748704E+01
 20
7.41585856E+01
 11
1.87118695E+01
 21
7.41585856E+01
  0
LINE
  8
0
 62
4
 10
1.33748704E+01
 20
7.34585856E+01
 11
1.63748704E+01
 21
7.41585856E+01
  0
LINE
  8
0
 62
4
 10
1.63748704E+01
 20
7.67585856E+01
 11
1.63748704E+01
 21
7.41585856E+01
  0
LINE
  8
0
 62
4
 10
1.63748704E+01
 20
7.67585856E+01
 11
2.13118695E+01
 21
7.67585856E+01
  0
LINE
  8
0
 62
4
 10
1.33748704E+01
 20
7.74585856E+01
 11
1.63748704E+01
 21
7.67585856E+01
  0
LINE
  8
0
 62
4
 10
1.33748704E+01
 20
7.74585856E+01
 11
1.33748704E+01
 21
7.34585856E+01
  0
LINE
  8
0
 62
4
 10
5.37487041E+00
 20
7.87085856E+01
 11
7.87487041E+00
 21
7.87085856E+01
  0
LINE
  8
0
 62
4
 10
7.87487041E+00
 20
7.22085856E+01
 11
7.87487041E+00
 21
7.87085856E+01
  0
LINE
  8
0
 62
4
 10
7.87487041E+00
 20
7.74585856E+01
 11
1.33748704E+01
 21
7.74585856E+01
  0
LINE
  8
0
 62
4
 10
7.87487041E+00
 20
7.34585856E+01
 11
1.33748704E+01
 21
7.34585856E+01
  0
LINE
  8
0
 62
4
 10
5.37487041E+00
 20
7.22085856E+01
 11
7.87487041E+00
 21
7.22085856E+01
  0
LINE
  8
0
 62
4
 10
-3.62512959E+00
 20
6.68085856E+01
 11
-3.62512959E+00
 21
8.41085856E+01
  0
LINE
  8
0
 62
4
 10
-1.12512959E+00
 20
8.03835856E+01
 11
-1.12512959E+00
 21
8.12585856E+01
  0
LINE
  8
0
 62
4
 10
1.88230383E+00
 20
7.44560190E+01
 11
-1.87696171E-01
 21
7.65160190E+01
  0
LINE
  8
0
 62
4
 10
-1.87696171E-01
 20
7.43960190E+01
 11
1.93230383E+00
 21
7.65160190E+01
  0
CIRCLE
  8
0
 62
4
 10
8.73995171E-01
 20
7.54561271E+01
 40
2.50000000E+00
  0
LINE
  8
0
 62
4
 10
-6.12512959E+00
 20
7.22085856E+01
 11
-3.62512959E+00
 21
7.22085856E+01
  0
LINE
  8
0
 62
4
 10
-1.06251296E+01
 20
7.34585856E+01
 11
-6.12512959E+00
 21
7.34585856E+01
  0
LINE
  8
0
 62
4
 10
-1.16251296E+01
 20
7.44585856E+01
 11
-1.06251296E+01
 21
7.34585856E+01
  0
LINE
  8
0
 62
4
 10
-1.16251296E+01
 20
7.64585856E+01
 11
-1.16251296E+01
 21
7.44585856E+01
  0
LINE
  8
0
 62
4
 10
-6.12512959E+00
 20
7.87085856E+01
 11
-3.62512959E+00
 21
7.87085856E+01
  0
LINE
  8
0
 62
4
 10
-1.06251296E+01
 20
7.74585856E+01
 11
-6.12512959E+00
 21
7.74585856E+01
  0
LINE
  8
0
 62
4
 10
-1.06251296E+01
 20
7.74585856E+01
 11
-1.06251296E+01
 21
7.34585856E+01
  0
LINE
  8
0
 62
4
 10
-6.12512959E+00
 20
7.22085856E+01
 11
-6.12512959E+00
 21
7.87085856E+01
  0
LINE
  8
0
 62
4
 10
-1.16251296E+01
 20
7.64585856E+01
 11
-1.06251296E+01
 21
7.74585856E+01
  0
LINE
  8
0
  6
CENTER
 62
6
 10
-1.15326312E+02
 20
-4.20748853E+01
 11
-1.15326312E+02
 21
-4.83890238E+01
  0
LINE
  8
0
  6
CENTER
 62
6
 10
-8.61263117E+01
 20
-4.20748853E+01
 11
-8.61263117E+01
 21
-4.83890238E+01
  0
CIRCLE
  8
0
 62
4
 10
-1.00726312E+02
 20
-3.26294654E+01
 40
5.00000000E+00
  0
LINE
  8
0
  6
CENTER
 62
6
 10
-1.08226312E+02
 20
-3.26294654E+01
 11
-9.32263117E+01
 21
-3.26294654E+01
  0
LINE
  8
0
  6
CENTER
 62
6
 10
-1.00726312E+02
 20
-2.42307565E+01
 11
-1.00726312E+02
 21
-4.09052023E+01
  0
LINE
  8
0
 62
4
 10
-1.21726312E+02
 20
-4.66294654E+01
 11
-7.97263117E+01
 21
-4.66294654E+01
  0
LINE
  8
0
 62
4
 10
-1.21726312E+02
 20
-4.43294654E+01
 11
-7.97263117E+01
 21
-4.43294654E+01
  0
LINE
  8
0
 62
4
 10
-7.97263117E+01
 20
-4.43294654E+01
 11
-7.97263117E+01
 21
-4.66294654E+01
  0
LINE
  8
0
 62
4
 10
-1.21726312E+02
 20
-4.43294654E+01
 11
-1.21726312E+02
 21
-4.66294654E+01
  0
ARC
  8
0
 62
4
 10
-1.00726312E+02
 20
-3.26294654E+01
 40
1.00000000E+01
 50
3.62946002E+01
 51
1.43705400E+02
  0
LINE
  8
0
 62
4
 10
-7.97263117E+01
 20
-4.43294654E+01
 11
-9.26664710E+01
 21
-2.67100932E+01
  0
LINE
  8
0
 62
4
 10
-1.21726312E+02
 20
-4.43294654E+01
 11
-1.08786152E+02
 21
-2.67100932E+01
  0
LINE
  8
0
 62
4
 10
-7.04263117E+01
 20
-4.43294654E+01
 11
-7.04263117E+01
 21
-4.66294654E+01
  0
LINE
  8
0
 62
4
 10
-6.52263117E+01
 20
-4.43294654E+01
 11
-6.52263117E+01
 21
-4.66294654E+01
  0
LINE
  8
0
  6
CENTER
 62
6
 10
-6.36744785E+01
 20
-3.26294654E+01
 11
-5.63263117E+01
 21
-3.26294654E+01
  0
LINE
  8
0
  6
CENTER
 62
6
 10
-6.78263117E+01
 20
-4.20748853E+01
 11
-6.78263117E+01
 21
-4.83890238E+01
  0
LINE
  8
0
 62
4
 10
-7.38263117E+01
 20
-4.43294654E+01
 11
-7.38263117E+01
 21
-4.66294654E+01
  0
LINE
  8
0
 62
4
 10
-7.38263117E+01
 20
-4.66294654E+01
 11
-6.23308576E+01
 21
-4.66294654E+01
  0
LINE
  8
0
 62
4
 10
-6.11263117E+01
 20
-2.26294654E+01
 11
-5.88263117E+01
 21
-2.26294654E+01
  0
LINE
  8
0
 62
4
 10
-5.88263117E+01
 20
-2.26294654E+01
 11
-5.88263117E+01
 21
-4.31249195E+01
  0
LINE
  8
0
 62
4
 10
-6.11263117E+01
 20
-2.26294654E+01
 11
-6.11263117E+01
 21
-4.31291018E+01
  0
LINE
  8
0
 62
4
 10
-7.38263117E+01
 20
-4.43294654E+01
 11
-6.23266753E+01
 21
-4.43294654E+01
  0
ARC
  8
0
 62
4
 10
-6.23244966E+01
 20
-4.31312805E+01
 40
1.19818493E+00
 50
2.69895815E+02
 51
1.04185117E-01
  0
ARC
  8
0
 62
4
 10
-6.23244966E+01
 20
-4.31312805E+01
 40
3.49818493E+00
 50
2.69895815E+02
 51
1.04185117E-01
  0
LINE
  8
0
 62
4
 10
-1.21726312E+02
 20
2.70534561E-01
 11
-1.21726312E+02
 21
-6.12946544E+00
  0
LINE
  8
0
 62
4
 10
-1.21726312E+02
 20
-1.13294654E+01
 11
-1.21726312E+02
 21
-1.47294654E+01
  0
LINE
  8
0
 62
4
 10
-1.15326312E+02
 20
-6.12946544E+00
 11
-1.21726312E+02
 21
-6.12946544E+00
  0
LINE
  8
0
 62
4
 10
-1.15326312E+02
 20
-1.13294654E+01
 11
-1.21726312E+02
 21
-1.13294654E+01
  0
LINE
  8
0
  6
CENTER
 62
6
 10
-1.15326312E+02
 20
-1.25628688E+01
 11
-1.15326312E+02
 21
-5.07596529E+00
  0
ARC
  8
0
 62
4
 10
-1.15326312E+02
 20
-8.72946544E+00
 40
2.60000000E+00
 50
2.70000000E+02
 51
9.00000002E+01
  0
LINE
  8
0
 62
4
 10
-8.61263117E+01
 20
-6.12946544E+00
 11
-7.97263117E+01
 21
-6.12946544E+00
  0
LINE
  8
0
 62
4
 10
-8.61263117E+01
 20
-1.13294654E+01
 11
-7.97263117E+01
 21
-1.13294654E+01
  0
LINE
  8
0
  6
CENTER
 62
6
 10
-8.61263117E+01
 20
-1.24024351E+01
 11
-8.61263117E+01
 21
-5.18292106E+00
  0
ARC
  8
0
 62
4
 10
-8.61263117E+01
 20
-8.72946544E+00
 40
2.60000000E+00
 50
9.00000002E+01
 51
2.70000000E+02
  0
LINE
  8
0
 62
4
 10
-7.97263117E+01
 20
-1.13294654E+01
 11
-7.97263117E+01
 21
-1.47294654E+01
  0
LINE
  8
0
  6
CENTER
 62
6
 10
-1.18629276E+02
 20
-8.72946544E+00
 11
-8.32916887E+01
 21
-8.72946544E+00
  0
LINE
  8
0
 62
4
 10
-1.21726312E+02
 20
-1.47294654E+01
 11
-7.97263117E+01
 21
-1.47294654E+01
  0
LINE
  8
0
 62
4
 10
-1.21726312E+02
 20
2.70534561E-01
 11
-7.97263117E+01
 21
2.70534561E-01
  0
LINE
  8
0
 62
4
 10
-7.97263117E+01
 20
2.70534561E-01
 11
-7.97263117E+01
 21
-6.12946544E+00
  0
LINE
  8
0
 62
4
 10
-1.21726312E+02
 20
-2.02946544E+00
 11
-7.97263117E+01
 21
-2.02946544E+00
  0
LINE
  8
0
  6
CENTER
 62
6
 10
-1.00726312E+02
 20
1.66053456E+00
 11
-1.00726312E+02
 21
-1.59694654E+01
  0
LINE
  8
0
 62
4
 10
-2.67263117E+01
 20
-2.21294654E+01
 11
1.52736883E+01
 21
-2.21294654E+01
  0
LINE
  8
0
 62
4
 10
8.87368830E+00
 20
-2.95294654E+01
 11
1.52736883E+01
 21
-2.95294654E+01
  0
LINE
  8
0
 62
4
 10
-2.67263117E+01
 20
-2.95294654E+01
 11
-2.03263117E+01
 21
-2.95294654E+01
  0
LINE
  8
0
 62
4
 10
-2.67263117E+01
 20
-2.36294654E+01
 11
-2.67263117E+01
 21
-2.59294654E+01
  0
LINE
  8
0
 62
4
 10
-2.67263117E+01
 20
-2.21294654E+01
 11
-2.67263117E+01
 21
-2.95294654E+01
  0
LINE
  8
0
 62
4
 10
1.52736883E+01
 20
-2.21294654E+01
 11
1.52736883E+01
 21
-2.95294654E+01
  0
LINE
  8
0
 62
4
 10
-2.67263117E+01
 20
-3.47294654E+01
 11
-2.67263117E+01
 21
-4.21294654E+01
  0
LINE
  8
0
 62
4
 10
1.52736883E+01
 20
-3.47294654E+01
 11
1.52736883E+01
 21
-4.21294654E+01
  0
LINE
  8
0
 62
4
 10
-2.67263117E+01
 20
-4.21294654E+01
 11
1.52736883E+01
 21
-4.21294654E+01
  0
LINE
  8
0
 62
4
 10
8.87368830E+00
 20
-3.47294654E+01
 11
1.52736883E+01
 21
-3.47294654E+01
  0
LINE
  8
0
 62
4
 10
-2.67263117E+01
 20
-3.47294654E+01
 11
-2.03263117E+01
 21
-3.47294654E+01
  0
LINE
  8
0
  6
CENTER
 62
6
 10
-2.33663117E+01
 20
-3.21294654E+01
 11
1.15437850E+01
 21
-3.21294654E+01
  0
LINE
  8
0
  6
CENTER
 62
6
 10
8.87368830E+00
 20
-2.83694202E+01
 11
8.87368830E+00
 21
-3.60723884E+01
  0
LINE
  8
0
  6
CENTER
 62
6
 10
-2.03263117E+01
 20
-2.83694202E+01
 11
-2.03263117E+01
 21
-3.60723884E+01
  0
CIRCLE
  8
0
 62
4
 10
-5.72631170E+00
 20
-3.21294654E+01
 40
5.00000000E+00
  0
ARC
  8
0
 62
4
 10
-2.03263117E+01
 20
-3.21294654E+01
 40
2.60000000E+00
 50
2.70000000E+02
 51
9.00000002E+01
  0
ARC
  8
0
 62
4
 10
8.87368830E+00
 20
-3.21294654E+01
 40
2.60000000E+00
 50
9.00000002E+01
 51
2.70000000E+02
  0
LINE
  8
0
  6
CENTER
 62
6
 10
-5.72631170E+00
 20
-2.49294654E+01
 11
-5.72631170E+00
 21
-3.94394654E+01
  0
LINE
  8
0
  6
CENTER
 62
6
 10
2.28709590E+01
 20
-3.21294654E+01
 11
2.98100080E+01
 21
-3.21294654E+01
  0
LINE
  8
0
 62
4
 10
2.52736883E+01
 20
-2.21294654E+01
 11
2.75736883E+01
 21
-2.21294654E+01
  0
LINE
  8
0
 62
4
 10
2.52736883E+01
 20
-2.95294654E+01
 11
2.75736883E+01
 21
-2.95294654E+01
  0
LINE
  8
0
 62
4
 10
2.52736883E+01
 20
-4.21294654E+01
 11
2.75736883E+01
 21
-4.21294654E+01
  0
LINE
  8
0
 62
4
 10
2.52736883E+01
 20
-3.47294654E+01
 11
2.75736883E+01
 21
-3.47294654E+01
  0
LINE
  8
0
 62
4
 10
2.75736883E+01
 20
-2.21294654E+01
 11
2.75736883E+01
 21
-4.21294654E+01
  0
LINE
  8
0
 62
4
 10
2.52736883E+01
 20
-2.21294654E+01
 11
2.52736883E+01
 21
-4.21294654E+01
  0
LINE
  8
0
  6
CENTER
 62
6
 10
-5.72631167E+00
 20
3.06948722E-01
 11
-5.72631167E+00
 21
-5.89452885E+00
  0
LINE
  8
0
  6
CENTER
 62
6
 10
-2.03263117E+01
 20
3.06948722E-01
 11
-2.03263117E+01
 21
-5.89452885E+00
  0
LINE
  8
0
  6
CENTER
 62
6
 10
8.87368833E+00
 20
3.06948722E-01
 11
8.87368833E+00
 21
-5.89452885E+00
  0
LINE
  8
0
 62
4
 10
1.52736883E+01
 20
-1.62946544E+00
 11
1.52736883E+01
 21
-3.92946544E+00
  0
LINE
  8
0
 62
4
 10
-2.67263117E+01
 20
-1.62946544E+00
 11
1.52736883E+01
 21
-1.62946544E+00
  0
LINE
  8
0
 62
4
 10
-2.67263117E+01
 20
-3.92946544E+00
 11
1.52736883E+01
 21
-3.92946544E+00
  0
LINE
  8
0
 62
4
 10
-2.67263117E+01
 20
-3.92946544E+00
 11
-2.67263117E+01
 21
-1.62946544E+00
  0
TEXT
  8
0
 62
7
 10
2.36160459E+01
 20
-5.80976406E+01
 40
3.20000005E+00
  1
(mm)
 41
1.00000000E+00
  7
MONOTXT
  0
TEXT
  8
0
 62
7
 10
-6.76429942E+01
 20
-5.80976406E+01
 40
3.20000005E+00
  1
STRETCH LIST
 41
1.05263158E+00
  7
MONOTXT
  0
LINE
  8
0
 62
7
 10
2.36000061E+01
 20
-5.98000031E+01
 11
2.36000061E+01
 21
-8.98000031E+01
  0
LINE
  8
0
 62
7
 10
1.16000061E+01
 20
-5.98000031E+01
 11
1.16000061E+01
 21
-8.98000031E+01
  0
LINE
  8
0
 62
7
 10
-3.99993896E-01
 20
-5.98000031E+01
 11
-3.99993896E-01
 21
-8.98000031E+01
  0
LINE
  8
0
 62
7
 10
-1.23999939E+01
 20
-5.98000031E+01
 11
-1.23999939E+01
 21
-8.98000031E+01
  0
LINE
  8
0
 62
7
 10
-2.43999939E+01
 20
-5.98000031E+01
 11
-2.43999939E+01
 21
-8.98000031E+01
  0
LINE
  8
0
 62
7
 10
-3.63999939E+01
 20
-5.98000031E+01
 11
-3.63999939E+01
 21
-8.98000031E+01
  0
LINE
  8
0
 62
7
 10
-4.83999939E+01
 20
-5.98000031E+01
 11
-4.83999939E+01
 21
-8.98000031E+01
  0
LINE
  8
0
 62
7
 10
-6.03999939E+01
 20
-5.98000031E+01
 11
-6.03999939E+01
 21
-8.98000031E+01
  0
LINE
  8
0
 62
7
 10
-7.23999939E+01
 20
-5.98000031E+01
 11
-7.23999939E+01
 21
-8.98000031E+01
  0
TEXT
  8
0
 62
7
 10
2.68625310E+01
 20
-8.84000011E+01
 40
3.20000005E+00
  1
70
 41
1.00000000E+00
  7
MONOTXT
  0
TEXT
  8
0
 62
7
 10
2.68625310E+01
 20
-8.24000031E+01
 40
3.20000005E+00
  1
70
 41
1.00000000E+00
  7
MONOTXT
  0
TEXT
  8
0
 62
7
 10
2.52625309E+01
 20
-7.03963805E+01
 40
3.20000005E+00
  1
100
 41
1.00000000E+00
  7
MONOTXT
  0
TEXT
  8
0
 62
7
 10
1.48625310E+01
 20
-8.84000011E+01
 40
3.20000005E+00
  1
45
 41
1.00000000E+00
  7
MONOTXT
  0
TEXT
  8
0
 62
7
 10
1.48625310E+01
 20
-8.24000031E+01
 40
3.20000005E+00
  1
45
 41
1.00000000E+00
  7
MONOTXT
  0
TEXT
  8
0
 62
7
 10
1.48625310E+01
 20
-7.03963805E+01
 40
3.20000005E+00
  1
75
 41
1.00000000E+00
  7
MONOTXT
  0
TEXT
  8
0
 62
7
 10
2.86253098E+00
 20
-8.84000011E+01
 40
3.20000005E+00
  1
30
 41
1.00000000E+00
  7
MONOTXT
  0
TEXT
  8
0
 62
7
 10
2.86253098E+00
 20
-8.24000031E+01
 40
3.20000005E+00
  1
30
 41
1.00000000E+00
  7
MONOTXT
  0
TEXT
  8
0
 62
7
 10
2.86253098E+00
 20
-7.03963805E+01
 40
3.20000005E+00
  1
60
 41
1.00000000E+00
  7
MONOTXT
  0
TEXT
  8
0
 62
7
 10
-9.13746902E+00
 20
-8.84000011E+01
 40
3.20000005E+00
  1
25
 41
1.00000000E+00
  7
MONOTXT
  0
TEXT
  8
0
 62
7
 10
-9.13746902E+00
 20
-8.24000031E+01
 40
3.20000005E+00
  1
25
 41
1.00000000E+00
  7
MONOTXT
  0
TEXT
  8
0
 62
7
 10
-9.13746902E+00
 20
-7.03963805E+01
 40
3.20000005E+00
  1
55
 41
1.00000000E+00
  7
MONOTXT
  0
TEXT
  8
0
 62
7
 10
-2.11374690E+01
 20
-8.84000011E+01
 40
3.20000005E+00
  1
20
 41
1.00000000E+00
  7
MONOTXT
  0
TEXT
  8
0
 62
7
 10
-2.11374690E+01
 20
-8.24000031E+01
 40
3.20000005E+00
  1
20
 41
1.00000000E+00
  7
MONOTXT
  0
TEXT
  8
0
 62
7
 10
-2.11374690E+01
 20
-7.03963805E+01
 40
3.20000005E+00
  1
50
 41
1.00000000E+00
  7
MONOTXT
  0
TEXT
  8
0
 62
7
 10
-3.31374690E+01
 20
-8.84000011E+01
 40
3.20000005E+00
  1
15
 41
1.00000000E+00
  7
MONOTXT
  0
TEXT
  8
0
 62
7
 10
-3.31374690E+01
 20
-8.24000031E+01
 40
3.20000005E+00
  1
15
 41
1.00000000E+00
  7
MONOTXT
  0
TEXT
  8
0
 62
7
 10
-3.31374690E+01
 20
-7.03963805E+01
 40
3.20000005E+00
  1
45
 41
1.00000000E+00
  7
MONOTXT
  0
TEXT
  8
0
 62
7
 10
-4.51374690E+01
 20
-8.84000011E+01
 40
3.20000005E+00
  1
10
 41
1.00000000E+00
  7
MONOTXT
  0
TEXT
  8
0
 62
7
 10
-4.51374690E+01
 20
-8.24000031E+01
 40
3.20000005E+00
  1
10
 41
1.00000000E+00
  7
MONOTXT
  0
TEXT
  8
0
 62
7
 10
-4.51374690E+01
 20
-7.03963805E+01
 40
3.20000005E+00
  1
40
 41
1.00000000E+00
  7
MONOTXT
  0
TEXT
  8
0
 62
7
 10
-5.55374690E+01
 20
-8.84000011E+01
 40
3.20000005E+00
  1
5
 41
1.00000000E+00
  7
MONOTXT
  0
TEXT
  8
0
 62
7
 10
-5.55374690E+01
 20
-8.24000031E+01
 40
3.20000005E+00
  1
5
 41
1.00000000E+00
  7
MONOTXT
  0
TEXT
  8
0
 62
7
 10
-5.71374690E+01
 20
-7.03963805E+01
 40
3.20000005E+00
  1
35
 41
1.00000000E+00
  7
MONOTXT
  0
TEXT
  8
0
 62
7
 10
-6.75374690E+01
 20
-8.84000011E+01
 40
3.20000005E+00
  1
0
 41
1.00000000E+00
  7
MONOTXT
  0
TEXT
  8
0
 62
7
 10
-6.75374690E+01
 20
-8.24000031E+01
 40
3.20000005E+00
  1
0
 41
1.00000000E+00
  7
MONOTXT
  0
TEXT
  8
0
 62
7
 10
-6.91374690E+01
 20
-7.03963805E+01
 40
3.20000005E+00
  1
30
 41
1.00000000E+00
  7
MONOTXT
  0
TEXT
  8
0
 62
7
 10
-8.11374690E+01
 20
-8.84000011E+01
 40
3.20000005E+00
  1
-5
 41
1.00000000E+00
  7
MONOTXT
  0
TEXT
  8
0
 62
7
 10
-8.11374690E+01
 20
-8.24000031E+01
 40
3.20000005E+00
  1
-5
 41
1.00000000E+00
  7
MONOTXT
  0
TEXT
  8
0
 62
7
 10
-8.11374690E+01
 20
-7.03963805E+01
 40
3.20000005E+00
  1
25
 41
1.00000000E+00
  7
MONOTXT
  0
TEXT
  8
0
 62
7
 10
-1.06737469E+02
 20
-8.84000011E+01
 40
3.20000005E+00
  1
-15
 41
1.00000000E+00
  7
MONOTXT
  0
TEXT
  8
0
 62
7
 10
-9.47374691E+01
 20
-8.84000011E+01
 40
3.20000005E+00
  1
-10
 41
1.00000000E+00
  7
MONOTXT
  0
TEXT
  8
0
 62
7
 10
-1.22037469E+02
 20
-8.84000031E+01
 40
3.20000005E+00
  1
B
 41
1.00000000E+00
  7
MONOTXT
  0
TEXT
  8
0
 62
7
 10
-1.22037469E+02
 20
-8.24000031E+01
 40
3.20000005E+00
  1
A
 41
1.00000000E+00
  7
MONOTXT
  0
TEXT
  8
0
 62
7
 10
-1.32241000E+02
 20
-7.19763780E+01
 40
3.20000005E+00
  1
STRETCH
 41
1.00000000E+00
  7
MONOTXT
  0
TEXT
  8
0
 62
7
 10
-1.32241000E+02
 20
-7.67763782E+01
 40
3.20000005E+00
  1
  PLACE
 41
1.20689655E+00
  7
MONOTXT
  0
TEXT
  8
0
 62
7
 10
-1.06737469E+02
 20
-8.24000031E+01
 40
3.20000005E+00
  1
-15
 41
1.00000000E+00
  7
MONOTXT
  0
TEXT
  8
0
 62
7
 10
-9.47374691E+01
 20
-8.24000031E+01
 40
3.20000005E+00
  1
-10
 41
1.00000000E+00
  7
MONOTXT
  0
TEXT
  8
0
 62
7
 10
-1.05137469E+02
 20
-7.03963805E+01
 40
3.20000005E+00
  1
15
 41
1.00000000E+00
  7
MONOTXT
  0
TEXT
  8
0
 62
7
 10
-9.31374690E+01
 20
-7.03963805E+01
 40
3.20000005E+00
  1
20
 41
1.00000000E+00
  7
MONOTXT
  0
TEXT
  8
0
 62
7
 10
-1.29037469E+02
 20
-6.43963843E+01
 40
3.20000005E+00
  1
STROKE
 41
1.00000000E+00
  7
MONOTXT
  0
LINE
  8
0
 62
7
 10
-1.33399994E+02
 20
-5.98000031E+01
 11
-1.33399994E+02
 21
-8.98000031E+01
  0
LINE
  8
0
 62
7
 10
-1.33399994E+02
 20
-6.58000031E+01
 11
-1.10509994E+02
 21
-6.58000031E+01
  0
LINE
  8
0
 62
7
 10
-1.08399994E+02
 20
-7.78000031E+01
 11
-1.10509994E+02
 21
-6.58000031E+01
  0
LINE
  8
0
 62
7
 10
-1.33399994E+02
 20
-7.78000031E+01
 11
3.56000061E+01
 21
-7.78000031E+01
  0
LINE
  8
0
 62
7
 10
-1.33399994E+02
 20
-5.98000031E+01
 11
3.56000061E+01
 21
-5.98000031E+01
  0
LINE
  8
0
 62
7
 10
-8.43999939E+01
 20
-5.98000031E+01
 11
-8.43999939E+01
 21
-8.98000031E+01
  0
LINE
  8
0
 62
7
 10
-9.63999939E+01
 20
-5.98000031E+01
 11
-9.63999939E+01
 21
-8.98000031E+01
  0
LINE
  8
0
 62
7
 10
-1.08399994E+02
 20
-5.98000031E+01
 11
-1.08399994E+02
 21
-8.98000031E+01
  0
LINE
  8
0
 62
7
 10
-1.08399994E+02
 20
-5.98000031E+01
 11
-1.08399994E+02
 21
-8.98000031E+01
  0
LINE
  8
0
 62
7
 10
-1.33399994E+02
 20
-8.38000031E+01
 11
3.56000061E+01
 21
-8.38000031E+01
  0
LINE
  8
0
 62
7
 10
-1.33399994E+02
 20
-8.98000031E+01
 11
3.56000061E+01
 21
-8.98000031E+01
  0
LINE
  8
0
 62
7
 10
3.56000061E+01
 20
-5.98000031E+01
 11
3.56000061E+01
 21
-8.98000031E+01
  0
TEXT
  8
0
 10
2.38014574E+01
 20
5.59961982E+01
 40
3.20000005E+00
  1
STRETCH LINE B
 41
1.09375000E+00
  7
MONOTXT
  0
TEXT
  8
0
 10
-3.61985426E+01
 20
5.59961982E+01
 40
3.20000005E+00
  1
STRETCH LINE A
 41
1.09375000E+00
  7
MONOTXT
  0
LINE
  8
0
 62
7
 10
-1.38399994E+02
 20
9.45000000E+01
 11
1.38350006E+02
 21
9.45000000E+01
  0
LINE
  8
0
 62
7
 10
1.38350006E+02
 20
9.45000000E+01
 11
1.38350006E+02
 21
-9.48000031E+01
  0
LINE
  8
0
 62
7
 10
-1.38399994E+02
 20
-9.48000031E+01
 11
1.38350006E+02
 21
-9.48000031E+01
  0
LINE
  8
0
 62
7
 10
-1.38399994E+02
 20
9.45000000E+01
 11
-1.38399994E+02
 21
-9.48000031E+01
  0
LINE
  8
0
 62
7
 10
7.33500061E+01
 20
-8.48000031E+01
 11
1.38350006E+02
 21
-8.48000031E+01
  0
LINE
  8
0
 62
7
 10
-1.38399994E+02
 20
8.45000000E+01
 11
-7.33999939E+01
 21
8.45000000E+01
  0
LINE
  8
0
 62
7
 10
7.33500061E+01
 20
8.45000000E+01
 11
1.38350006E+02
 21
8.45000000E+01
  0
LINE
  8
0
 62
7
 10
7.33500061E+01
 20
-8.48000031E+01
 11
7.33500061E+01
 21
-9.48000031E+01
  0
LINE
  8
0
 62
7
 10
7.33500061E+01
 20
9.45000000E+01
 11
7.33500061E+01
 21
8.45000000E+01
  0
LINE
  8
0
 62
7
 10
-7.33999939E+01
 20
9.45000000E+01
 11
-7.33999939E+01
 21
8.45000000E+01
  0
TEXT
  8
0
 62
7
 10
7.72426624E+01
 20
-9.20500031E+01
 40
4.50000000E+00
  1
KOGANEI CORP.
 41
1.04838710E+00
  7
MONOTXT
  0
TEXT
  8
0
 62
7
 10
9.35071483E+01
 20
8.79000000E+01
 40
3.20000005E+00
  1
Ver. 1.1
 41
1.08108108E+00
  7
MONOTXT
  0
TEXT
  8
0
 62
7
 10
-1.31042852E+02
 20
8.79000000E+01
 40
3.20000005E+00
  1
NEW PEN CYLINDER
 41
1.08108108E+00
  7
MONOTXT
  0
TEXT
  8
0
 62
7
 10
-1.29085994E+02
 20
7.29000000E+01
 40
3.20000005E+00
  1
MODEL:PBDAPS16*ST(30)-M-ZC230
 41
1.00000000E+00
  7
MONOTXT
  0
ENDSEC
  0
EOF
