  0
SECTION
  2
HEADER
  9
$ACADVER
  1
AC1003
  9
$EXTMIN
 10
-1.38399994E+02
 20
-9.48000031E+01
  9
$EXTMAX
 10
1.49377563E+02
 20
9.45000000E+01
  9
$LIMMIN
 10
-1.38400994E+02
 20
-9.48010031E+01
  9
$LIMMAX
 10
1.49378563E+02
 20
9.45010000E+01
  9
$SNAPUNIT
 10
1
 20
1
  9
$SNAPBASE
 10
0
 20
0
  9
$GRIDMODE
 70
0
  9
$GRIDUNIT
 10
0
 20
0
  9
$LTSCALE
 40
4.79629262E+00
  9
$TEXTSIZE
 40
3.2
  9
$DIMTAD
 70
0
  9
$LUNITS
 70
2
  9
$LUPREC
 70
4
  9
$FILLETRAD
 40
0
  9
$AUNITS
 70
0
  9
$AUPREC
 70
0
  0
ENDSEC
  0
SECTION
  2
TABLES
  0
TABLE
  2
LTYPE
 70
2
  0
LTYPE
  2
CONTINUOUS
 70
64
  3
Solid-Line
 72
65
 73
0
 40
0
  0
LTYPE
  2
DASHED
 70
64
  3
DASHED
 72
65
 73
2
 40
.75
 49
.5
 49
-.25
  0
LTYPE
  2
HIDDEN
 70
64
  3
HIDDEN
 72
65
 73
2
 40
.375
 49
.25
 49
-.125
  0
LTYPE
  2
CENTER
 70
64
  3
CENTER
 72
65
 73
4
 40
2
 49
1.25
 49
-.25
 49
.25
 49
-.25
  0
LTYPE
  2
PHANTOM
 70
64
  3
PHANTOM
 72
65
 73
6
 40
2.5
 49
1.25
 49
-.25
 49
.25
 49
-.25
 49
.25
 49
-.25
  0
ENDTAB
  0
TABLE
  2
LAYER
 70
1
  0
LAYER
  2
0
 70
0
 62
3
  6
CONTINUOUS
 0
ENDTAB
  0
TABLE
  2
STYLE
 70
2
  0
STYLE
  2
MONOTXT
 70
0
 40
0
 41
1
 50
0
 71
0
 42
.2
  3
monotxt
  0
STYLE
  2
BIGFONT
 70
0
 40
0
 41
1
 50
0
 71
0
 42
.2
  3
txt
  4
bigfont
  0
ENDTAB
  0
ENDSEC
  0
SECTION
  2
ENTITIES
  0
ARC
  8
0
 62
4
 10
-3.60591771E+01
 20
3.68238110E+01
 40
7.98523370E+00
 50
3.42104343E+02
 51
1.78956628E+01
  0
LINE
  8
0
 62
4
 10
-2.80739434E+01
 20
3.68238114E+01
 11
-2.80739442E+01
 21
5.15462439E+01
  0
ARC
  8
0
 62
4
 10
-5.94353594E+01
 20
4.41850260E+01
 40
3.13614156E+01
 50
3.50997282E+02
 51
9.00272409E+00
  0
ARC
  8
0
 62
4
 10
-3.60589419E+01
 20
5.15462435E+01
 40
7.98500918E+00
 50
3.42103822E+02
 51
1.78961840E+01
  0
ARC
  8
0
 62
4
 10
-2.40886982E+01
 20
3.68238116E+01
 40
7.98523370E+00
 50
1.62104343E+02
 51
1.97895663E+02
  0
ARC
  8
0
 62
4
 10
-2.40886981E+01
 20
5.15462441E+01
 40
7.98523458E+00
 50
1.62104344E+02
 51
1.97895662E+02
  0
ARC
  8
0
 62
4
 10
-7.12516727E-01
 20
4.41850290E+01
 40
3.13614156E+01
 50
1.70997282E+02
 51
1.89002724E+02
  0
LINE
  8
0
 62
4
 10
-3.16875885E+01
 20
4.90925048E+01
 11
-2.84602881E+01
 21
4.90925049E+01
  0
LINE
  8
0
 62
4
 10
-3.16875880E+01
 20
3.92775500E+01
 11
-2.84602876E+01
 21
3.92775502E+01
  0
LINE
  8
0
 62
4
 10
-3.16875877E+01
 20
3.43700724E+01
 11
-2.84602874E+01
 21
3.43700726E+01
  0
LINE
  8
0
 62
4
 10
-3.16875887E+01
 20
5.39999827E+01
 11
-2.84602884E+01
 21
5.39999828E+01
  0
LINE
  8
0
 62
2
 10
-2.80739320E+01
 20
3.86850276E+01
 11
-2.76054643E+01
 21
3.86850276E+01
  0
LINE
  8
0
 62
2
 10
-3.36054488E+01
 20
3.86850273E+01
 11
-3.20739320E+01
 21
3.86850274E+01
  0
TEXT
  8
0
 62
7
 10
-1.37742145E+01
 20
3.70850269E+01
 40
1.20000005E+00
  1
PBDALS16
 50
3.59999997E+02
 41
1.00000000E+00
  7
MONOTXT
  0
LINE
  8
0
 62
4
 10
2.33945358E+01
 20
3.55350302E+01
 11
3.23996815E+01
 21
3.55350460E+01
  0
LINE
  8
0
 62
4
 10
4.68945353E+01
 20
4.54850314E+01
 11
4.68945350E+01
 21
5.26850333E+01
  0
LINE
  8
0
  6
CENTER
 62
6
 10
2.78996805E+01
 20
5.45694737E+01
 11
2.78996815E+01
 21
3.44503714E+01
  0
LINE
  8
0
  6
PHANTOM
 10
1.21698766E+01
 20
5.02061955E+01
 11
1.21698776E+01
 21
3.19049390E+01
  0
LINE
  8
0
  6
PHANTOM
 10
2.19689049E+01
 20
5.02061960E+01
 11
2.19689040E+01
 21
6.73313146E+01
  0
LINE
  8
0
 62
4
 10
4.13945353E+01
 20
4.59516978E+01
 11
4.13945350E+01
 21
5.26850331E+01
  0
LINE
  8
0
  6
PHANTOM
 10
2.19689049E+01
 20
5.02061960E+01
 11
1.21698766E+01
 21
5.02061955E+01
  0
LINE
  8
0
 62
7
 10
5.39453583E+00
 20
3.56850274E+01
 11
2.33945358E+01
 21
3.56850283E+01
  0
LINE
  8
0
 62
7
 10
7.89453496E+00
 20
5.26850313E+01
 11
2.33945350E+01
 21
5.26850321E+01
  0
LINE
  8
0
 62
7
 10
3.23945358E+01
 20
3.56850288E+01
 11
4.13945358E+01
 21
3.56850292E+01
  0
LINE
  8
0
 62
7
 10
3.23945350E+01
 20
5.26850326E+01
 11
4.13945350E+01
 21
5.26850331E+01
  0
LINE
  8
0
 62
4
 10
2.33945349E+01
 20
5.28350302E+01
 11
3.23945349E+01
 21
5.28350307E+01
  0
LINE
  8
0
 62
4
 10
2.33945350E+01
 20
5.15600302E+01
 11
3.23945350E+01
 21
5.15600307E+01
  0
LINE
  8
0
 62
4
 10
1.63945355E+01
 20
4.21850299E+01
 11
2.08945355E+01
 21
4.21850301E+01
  0
LINE
  8
0
 62
4
 10
1.53945354E+01
 20
4.31850298E+01
 11
1.63945355E+01
 21
4.21850299E+01
  0
LINE
  8
0
 62
4
 10
1.53945353E+01
 20
4.51850298E+01
 11
1.53945354E+01
 21
4.31850298E+01
  0
LINE
  8
0
 62
4
 10
1.63945353E+01
 20
4.61850299E+01
 11
2.08945353E+01
 21
4.61850301E+01
  0
LINE
  8
0
 62
4
 10
1.63945353E+01
 20
4.61850299E+01
 11
1.63945355E+01
 21
4.21850299E+01
  0
LINE
  8
0
 62
4
 10
1.53945353E+01
 20
4.51850298E+01
 11
1.63945353E+01
 21
4.61850299E+01
  0
LINE
  8
0
 62
4
 10
2.08945356E+01
 20
4.09350301E+01
 11
2.08945352E+01
 21
4.74350301E+01
  0
LINE
  8
0
 62
4
 10
4.33945355E+01
 20
4.28850313E+01
 11
4.57315345E+01
 21
4.28850314E+01
  0
LINE
  8
0
 62
4
 10
4.03945355E+01
 20
4.21850311E+01
 11
4.33945355E+01
 21
4.28850313E+01
  0
LINE
  8
0
 62
4
 10
4.33945353E+01
 20
4.54850313E+01
 11
4.33945355E+01
 21
4.28850313E+01
  0
LINE
  8
0
 62
4
 10
4.03945353E+01
 20
4.61850311E+01
 11
4.33945353E+01
 21
4.54850313E+01
  0
LINE
  8
0
 62
4
 10
4.03945353E+01
 20
4.61850311E+01
 11
4.03945355E+01
 21
4.21850311E+01
  0
LINE
  8
0
 62
4
 10
4.33945353E+01
 20
4.54850313E+01
 11
4.83315344E+01
 21
4.54850315E+01
  0
LINE
  8
0
 62
6
 10
4.83315344E+01
 20
4.54850315E+01
 11
4.57315345E+01
 21
4.28850314E+01
  0
LINE
  8
0
 62
4
 10
2.33945352E+01
 20
4.84850302E+01
 11
3.23945352E+01
 21
4.84850307E+01
  0
LINE
  8
0
 62
4
 10
2.33945352E+01
 20
4.91100302E+01
 11
3.23945352E+01
 21
4.91100307E+01
  0
LINE
  8
0
 62
4
 10
2.33945352E+01
 20
4.86100302E+01
 11
3.23945352E+01
 21
4.86100307E+01
  0
LINE
  8
0
 62
4
 10
2.58945351E+01
 20
4.99850304E+01
 11
2.98945351E+01
 21
4.99850306E+01
  0
LINE
  8
0
 62
4
 10
2.58945352E+01
 20
4.91850304E+01
 11
2.98945351E+01
 21
4.91850306E+01
  0
LINE
  8
0
 62
4
 10
2.98945351E+01
 20
4.99850306E+01
 11
2.98945351E+01
 21
4.91100306E+01
  0
LINE
  8
0
 62
4
 10
2.33945356E+01
 20
3.98850302E+01
 11
3.23945356E+01
 21
3.98850307E+01
  0
LINE
  8
0
 62
4
 10
3.23945352E+01
 20
4.74350307E+01
 11
3.48945352E+01
 21
4.74350308E+01
  0
LINE
  8
0
 62
4
 10
3.48945356E+01
 20
4.09350308E+01
 11
3.48945352E+01
 21
4.74350308E+01
  0
LINE
  8
0
 62
4
 10
3.23945356E+01
 20
4.09350307E+01
 11
3.48945356E+01
 21
4.09350308E+01
  0
LINE
  8
0
 62
4
 10
2.58945351E+01
 20
4.91100304E+01
 11
2.58945351E+01
 21
4.99850304E+01
  0
LINE
  8
0
 62
4
 10
2.89045354E+01
 20
4.31850305E+01
 11
2.68345353E+01
 21
4.52450304E+01
  0
LINE
  8
0
 62
4
 10
2.68345354E+01
 20
4.31250304E+01
 11
2.89545353E+01
 21
4.52450305E+01
  0
CIRCLE
  8
0
 62
4
 10
2.78936601E+01
 20
4.41825720E+01
 40
2.50000000E+00
  0
LINE
  8
0
 62
4
 10
2.08945352E+01
 20
4.74350301E+01
 11
2.33945352E+01
 21
4.74350302E+01
  0
LINE
  8
0
 62
4
 10
2.08945356E+01
 20
4.09350301E+01
 11
2.33945356E+01
 21
4.09350302E+01
  0
LINE
  8
0
 62
4
 10
2.33945358E+01
 20
3.55350302E+01
 11
2.33945349E+01
 21
5.28350302E+01
  0
LINE
  8
0
 62
4
 10
3.48945355E+01
 20
4.21850308E+01
 11
4.03945355E+01
 21
4.21850311E+01
  0
LINE
  8
0
 62
4
 10
3.48945353E+01
 20
4.61850308E+01
 11
4.03945353E+01
 21
4.61850311E+01
  0
LINE
  8
0
 62
4
 10
3.23945358E+01
 20
3.55350307E+01
 11
3.23945349E+01
 21
5.28350307E+01
  0
LINE
  8
0
 62
4
 10
-3.60546417E+00
 20
3.55350442E+01
 11
5.39453584E+00
 21
3.55350447E+01
  0
LINE
  8
0
 62
4
 10
7.89453496E+00
 20
5.22169116E+01
 11
5.39453496E+00
 21
5.22169115E+01
  0
LINE
  8
0
 62
4
 10
-6.10546500E+00
 20
5.22169109E+01
 11
-3.60546500E+00
 21
5.22169110E+01
  0
LINE
  8
0
 62
4
 10
-6.10546534E+00
 20
5.84850287E+01
 11
-6.10546520E+00
 21
5.56850287E+01
  0
LINE
  8
0
 62
4
 10
7.89453466E+00
 20
5.84850294E+01
 11
7.89453480E+00
 21
5.56850294E+01
  0
LINE
  8
0
 62
4
 10
-3.60546518E+00
 20
5.53850288E+01
 11
-3.60546553E+00
 21
6.21850288E+01
  0
LINE
  8
0
 62
4
 10
5.39453482E+00
 20
5.53850293E+01
 11
5.39453447E+00
 21
6.21850293E+01
  0
LINE
  8
0
 62
4
 10
7.89453471E+00
 20
5.74850294E+01
 11
1.33945347E+01
 21
5.74850297E+01
  0
LINE
  8
0
 62
4
 10
7.89453492E+00
 20
5.34850294E+01
 11
1.33945349E+01
 21
5.34850297E+01
  0
LINE
  8
0
 62
4
 10
-3.60546520E+00
 20
5.56850288E+01
 11
5.39453480E+00
 21
5.56850293E+01
  0
LINE
  8
0
 62
4
 10
5.39453482E+00
 20
5.52850293E+01
 11
7.89453482E+00
 21
5.52850294E+01
  0
LINE
  8
0
 62
4
 10
5.39453480E+00
 20
5.56850293E+01
 11
7.89453480E+00
 21
5.56850294E+01
  0
LINE
  8
0
 62
4
 10
-6.10546519E+00
 20
5.52850287E+01
 11
-3.60546518E+00
 21
5.52850288E+01
  0
LINE
  8
0
 62
4
 10
-6.10546521E+00
 20
5.56850287E+01
 11
-3.60546520E+00
 21
5.56850288E+01
  0
LINE
  8
0
 62
4
 10
-1.16054652E+01
 20
5.64850284E+01
 11
-1.06054653E+01
 21
5.74850285E+01
  0
LINE
  8
0
 62
4
 10
-1.16054652E+01
 20
5.64850284E+01
 11
-1.16054651E+01
 21
5.44850284E+01
  0
LINE
  8
0
 62
4
 10
-1.06054651E+01
 20
5.34850285E+01
 11
-6.10546508E+00
 21
5.34850287E+01
  0
LINE
  8
0
 62
4
 10
-1.06054653E+01
 20
5.74850285E+01
 11
-6.10546529E+00
 21
5.74850287E+01
  0
LINE
  8
0
 62
4
 10
-1.16054651E+01
 20
5.44850284E+01
 11
-1.06054651E+01
 21
5.34850285E+01
  0
LINE
  8
0
 62
4
 10
-1.06054653E+01
 20
5.74850285E+01
 11
-1.06054651E+01
 21
5.34850285E+01
  0
LINE
  8
0
 62
4
 10
1.33945347E+01
 20
5.74850297E+01
 11
1.63945347E+01
 21
5.67850299E+01
  0
LINE
  8
0
 62
4
 10
1.33945349E+01
 20
5.34850297E+01
 11
1.63945349E+01
 21
5.41850299E+01
  0
LINE
  8
0
 62
4
 10
1.33945347E+01
 20
5.74850297E+01
 11
1.33945349E+01
 21
5.34850297E+01
  0
LINE
  8
0
 62
4
 10
1.63945349E+01
 20
5.41850299E+01
 11
1.87315340E+01
 21
5.41850300E+01
  0
LINE
  8
0
 62
4
 10
1.63945347E+01
 20
5.67850299E+01
 11
1.63945349E+01
 21
5.41850299E+01
  0
LINE
  8
0
 62
4
 10
5.39453466E+00
 20
5.84850293E+01
 11
7.89453466E+00
 21
5.84850294E+01
  0
LINE
  8
0
 62
4
 10
-6.10546535E+00
 20
5.84850287E+01
 11
-3.60546534E+00
 21
5.84850288E+01
  0
ARC
  8
0
 62
4
 10
2.39286874E+00
 20
6.36833635E+01
 40
1.00166704E+00
 50
9.52792396E-02
 51
8.99047265E+01
  0
ARC
  8
0
 62
4
 10
-6.04674122E-01
 20
6.36842375E+01
 40
1.00079180E+00
 50
9.00000002E+01
 51
1.79954690E+02
  0
LINE
  8
0
 62
4
 10
-3.35465583E-01
 20
6.31850290E+01
 11
-3.35465531E-01
 21
6.21850290E+01
  0
LINE
  8
0
 62
4
 10
2.12453442E+00
 20
6.31850291E+01
 11
2.12453447E+00
 21
6.21850291E+01
  0
LINE
  8
0
 62
4
 10
-6.05465583E-01
 20
6.31850290E+01
 11
-6.05465531E-01
 21
6.21850290E+01
  0
LINE
  8
0
 62
4
 10
2.39453442E+00
 20
6.31850291E+01
 11
2.39453447E+00
 21
6.21850291E+01
  0
LINE
  8
0
 62
4
 10
-6.05465660E-01
 20
6.46850290E+01
 11
2.39453434E+00
 21
6.46850291E+01
  0
LINE
  8
0
 62
4
 10
-1.60546558E+00
 20
6.31850289E+01
 11
3.39453442E+00
 21
6.31850292E+01
  0
LINE
  8
0
 62
4
 10
-3.60546553E+00
 20
6.21850288E+01
 11
5.39453447E+00
 21
6.21850293E+01
  0
LINE
  8
0
 62
4
 10
3.39453439E+00
 20
6.36850292E+01
 11
3.39453442E+00
 21
6.31850292E+01
  0
LINE
  8
0
 62
4
 10
-1.60546561E+00
 20
6.36850289E+01
 11
-1.60546558E+00
 21
6.31850289E+01
  0
LINE
  8
0
 62
4
 10
1.63945347E+01
 20
5.67850299E+01
 11
2.13315338E+01
 21
5.67850301E+01
  0
LINE
  8
0
 62
6
 10
2.13315338E+01
 20
5.67850301E+01
 11
1.87315340E+01
 21
5.41850300E+01
  0
LINE
  8
0
 62
4
 10
-3.60546518E+00
 20
5.53850288E+01
 11
-3.60546416E+00
 21
3.55350442E+01
  0
LINE
  8
0
 62
4
 10
5.39453482E+00
 20
5.53850293E+01
 11
5.39453584E+00
 21
3.55350447E+01
  0
LINE
  8
0
 62
4
 10
7.89453482E+00
 20
5.52850294E+01
 11
7.89453498E+00
 21
5.22169116E+01
  0
LINE
  8
0
 62
4
 10
-6.10546518E+00
 20
5.52850287E+01
 11
-6.10546502E+00
 21
5.22169109E+01
  0
LINE
  8
0
  6
CENTER
 62
6
 10
8.94534261E-01
 20
6.62182830E+01
 11
8.94535894E-01
 21
3.44503700E+01
  0
LINE
  8
0
 62
2
 10
-5.40054660E+01
 20
4.20850240E+01
 11
-5.01385150E+01
 21
4.20850242E+01
  0
LINE
  8
0
 62
4
 10
-4.96385153E+01
 20
4.64565871E+01
 11
-4.66385153E+01
 21
4.64565873E+01
  0
LINE
  8
0
 62
7
 10
-1.63554644E+01
 20
3.99423867E+01
 11
-1.63554642E+01
 21
3.56850263E+01
  0
LINE
  8
0
 62
7
 10
-2.76054646E+01
 20
4.41850276E+01
 11
-2.76054649E+01
 21
5.01850295E+01
  0
LINE
  8
0
 62
7
 10
-5.36054647E+01
 20
4.66850225E+01
 11
-5.36054645E+01
 21
4.16850225E+01
  0
LINE
  8
0
 62
4
 10
-4.96385154E+01
 20
4.86850284E+01
 11
-4.66385230E+01
 21
4.86850285E+01
  0
LINE
  8
0
 62
7
 10
-1.46054642E+01
 20
3.56850264E+01
 11
-3.60546417E+00
 21
3.56850269E+01
  0
LINE
  8
0
 62
7
 10
-5.36054645E+01
 20
4.16850244E+01
 11
-5.01385150E+01
 21
4.16850245E+01
  0
LINE
  8
0
 62
7
 10
-5.36054647E+01
 20
4.66850263E+01
 11
-5.01385153E+01
 21
4.66850264E+01
  0
LINE
  8
0
 62
7
 10
-3.41054500E+01
 20
3.91850371E+01
 11
-3.31054489E+01
 21
3.81850361E+01
  0
LINE
  8
0
 62
4
 10
-4.61385153E+01
 20
4.75708070E+01
 11
-4.61385150E+01
 21
4.07992425E+01
  0
LINE
  8
0
 62
7
 10
-2.61054642E+01
 20
3.56850258E+01
 11
-1.46054642E+01
 21
3.56850264E+01
  0
LINE
  8
0
 62
7
 10
-2.43554644E+01
 20
3.99423863E+01
 11
-1.63554644E+01
 21
3.99423867E+01
  0
LINE
  8
0
 62
7
 10
-3.31054417E+01
 20
4.41850273E+01
 11
-3.31054420E+01
 21
5.01850273E+01
  0
LINE
  8
0
 62
2
 10
-5.40054662E+01
 20
4.62850285E+01
 11
-5.01385153E+01
 21
4.62850287E+01
  0
LINE
  8
0
 62
7
 10
-3.72355917E+01
 20
4.71872485E+01
 11
-3.41054648E+01
 21
4.71872486E+01
  0
LINE
  8
0
 62
2
 10
-3.36054494E+01
 20
4.96850273E+01
 11
-3.20739326E+01
 21
4.96850274E+01
  0
LINE
  8
0
 62
4
 10
-4.96385149E+01
 20
3.96850265E+01
 11
-4.66385149E+01
 21
3.96850266E+01
  0
LINE
  8
0
 62
4
 10
-3.20739319E+01
 20
3.68238112E+01
 11
-3.20739327E+01
 21
5.15462437E+01
  0
LINE
  8
0
 62
7
 10
-3.31054643E+01
 20
3.81850254E+01
 11
-3.20739320E+01
 21
3.81850255E+01
  0
LINE
  8
0
 62
7
 10
-3.72355935E+01
 20
4.11828053E+01
 11
-3.81054644E+01
 21
4.16850254E+01
  0
LINE
  8
0
 62
7
 10
-2.80739320E+01
 20
3.81850257E+01
 11
-2.61054643E+01
 21
3.81850258E+01
  0
LINE
  8
0
 62
7
 10
-2.80739326E+01
 20
5.01850295E+01
 11
-2.61054649E+01
 21
5.01850296E+01
  0
LINE
  8
0
 62
7
 10
-3.91054647E+01
 20
4.66850270E+01
 11
-3.91054645E+01
 21
4.16850251E+01
  0
LINE
  8
0
 62
7
 10
-3.31054649E+01
 20
5.01850292E+01
 11
-3.20739326E+01
 21
5.01850293E+01
  0
LINE
  8
0
 62
7
 10
-3.31054417E+01
 20
4.41850273E+01
 11
-3.31054414E+01
 21
3.81850273E+01
  0
LINE
  8
0
 62
7
 10
-4.61385150E+01
 20
4.16850247E+01
 11
-3.81054645E+01
 21
4.16850252E+01
  0
LINE
  8
0
 62
7
 10
-3.41054643E+01
 20
3.91850506E+01
 11
-3.41054649E+01
 21
4.91850206E+01
  0
LINE
  8
0
 62
4
 10
-5.01385153E+01
 20
4.75708068E+01
 11
-5.01385150E+01
 21
4.07992423E+01
  0
LINE
  8
0
 62
7
 10
-5.41054500E+01
 20
4.61850057E+01
 11
-5.36054549E+01
 21
4.66850009E+01
  0
LINE
  8
0
 62
4
 10
4.13945350E+01
 20
5.26850331E+01
 11
4.68945350E+01
 21
5.26850333E+01
  0
LINE
  8
0
 62
2
 10
-2.80739326E+01
 20
4.96850276E+01
 11
-2.76054649E+01
 21
4.96850276E+01
  0
LINE
  8
0
 62
4
 10
4.68945358E+01
 20
3.56850295E+01
 11
4.68945354E+01
 21
4.40480324E+01
  0
LINE
  8
0
 62
7
 10
-3.41054586E+01
 20
4.91850180E+01
 11
-3.31054576E+01
 21
5.01850191E+01
  0
LINE
  8
0
 62
7
 10
-2.76054646E+01
 20
4.41850276E+01
 11
-2.76054643E+01
 21
3.81850257E+01
  0
LINE
  8
0
 62
7
 10
-5.41054647E+01
 20
4.61850262E+01
 11
-5.41054645E+01
 21
4.21850262E+01
  0
LINE
  8
0
 62
4
 10
-4.96385150E+01
 20
4.19134620E+01
 11
-4.66385150E+01
 21
4.19134621E+01
  0
LINE
  8
0
 62
7
 10
-3.81054645E+01
 20
4.16850271E+01
 11
-3.81054647E+01
 21
4.66850290E+01
  0
LINE
  8
0
 62
7
 10
-5.41054498E+01
 20
4.21850231E+01
 11
-5.36054493E+01
 21
4.16850225E+01
  0
LINE
  8
0
 62
2
 10
-4.61385153E+01
 20
4.62850251E+01
 11
-3.91054647E+01
 21
4.62850255E+01
  0
LINE
  8
0
 62
7
 10
-2.43554644E+01
 20
3.99423863E+01
 11
-2.43554642E+01
 21
3.56850259E+01
  0
LINE
  8
0
 62
7
 10
-3.72355914E+01
 20
4.11828055E+01
 11
-3.41054645E+01
 21
4.11828057E+01
  0
LINE
  8
0
 62
7
 10
-1.63554648E+01
 20
4.84276696E+01
 11
-1.63554650E+01
 21
5.26850301E+01
  0
LINE
  8
0
 62
7
 10
-2.43554648E+01
 20
4.84276692E+01
 11
-2.43554650E+01
 21
5.26850297E+01
  0
LINE
  8
0
 62
4
 10
4.68945307E+01
 20
5.26850173E+01
 11
4.73945303E+01
 21
5.21850158E+01
  0
LINE
  8
0
  6
CENTER
 62
2
 10
-1.91054648E+01
 20
4.78518896E+01
 11
-1.91054644E+01
 21
4.05005951E+01
  0
LINE
  8
0
 62
4
 10
4.13945358E+01
 20
3.56850292E+01
 11
4.13945355E+01
 21
4.24183645E+01
  0
LINE
  8
0
 62
7
 10
-4.61385153E+01
 20
4.66850286E+01
 11
-3.81054647E+01
 21
4.66850290E+01
  0
LINE
  8
0
 62
7
 10
-4.61385153E+01
 20
4.62850289E+01
 11
-3.91054647E+01
 21
4.62850293E+01
  0
LINE
  8
0
 62
2
 10
-4.61385150E+01
 20
4.20850282E+01
 11
-3.91054645E+01
 21
4.20850285E+01
  0
LINE
  8
0
 62
7
 10
-3.72355916E+01
 20
4.56861378E+01
 11
-3.41054647E+01
 21
4.56861380E+01
  0
LINE
  8
0
 62
7
 10
-1.46054642E+01
 20
3.56850264E+01
 11
-1.46054650E+01
 21
5.26850302E+01
  0
LINE
  8
0
 62
7
 10
-2.61054650E+01
 20
5.26850296E+01
 11
-1.46054650E+01
 21
5.26850302E+01
  0
LINE
  8
0
 62
7
 10
-1.46054650E+01
 20
5.26850302E+01
 11
-6.10546504E+00
 21
5.26850306E+01
  0
LINE
  8
0
 62
7
 10
-2.43554648E+01
 20
4.84276692E+01
 11
-1.63554648E+01
 21
4.84276696E+01
  0
LINE
  8
0
 62
7
 10
-3.72355915E+01
 20
4.26839163E+01
 11
-3.41054645E+01
 21
4.26839165E+01
  0
LINE
  8
0
 62
4
 10
4.73945350E+01
 20
5.21850315E+01
 11
4.73945358E+01
 21
3.61850315E+01
  0
LINE
  8
0
 62
4
 10
4.68945229E+01
 20
3.56850448E+01
 11
4.73945225E+01
 21
3.61850463E+01
  0
LINE
  8
0
 62
4
 10
4.13945358E+01
 20
3.56850292E+01
 11
4.68945358E+01
 21
3.56850295E+01
  0
LINE
  8
0
 62
7
 10
-2.61054642E+01
 20
3.56850258E+01
 11
-2.61054650E+01
 21
5.26850296E+01
  0
LINE
  8
0
 62
7
 10
-3.72355939E+01
 20
4.71872492E+01
 11
-3.81054647E+01
 21
4.66850290E+01
  0
ARC
  8
0
 62
7
 10
-2.00876042E+01
 20
4.41850280E+01
 40
6.01785851E+00
 50
1.35169816E+02
 51
1.80000035E+02
  0
ARC
  8
0
 62
4
 10
-4.76300009E+01
 20
4.75708069E+01
 40
1.49148333E+00
 50
2.94524475E-06
 51
4.83357764E+01
  0
ARC
  8
0
 62
4
 10
-4.47285191E+01
 20
4.41850267E+01
 40
5.40999651E+00
 50
1.79999981E+02
 51
2.04827090E+02
  0
ARC
  8
0
 62
4
 10
-4.76300006E+01
 20
4.07992424E+01
 40
1.49148333E+00
 50
2.94524475E-06
 51
4.83357764E+01
  0
ARC
  8
0
 62
4
 10
-5.15485112E+01
 20
4.41850264E+01
 40
5.40999651E+00
 50
2.94524469E-06
 51
2.48271122E+01
  0
ARC
  8
0
 62
4
 10
-4.76300009E+01
 20
4.75708069E+01
 40
1.49148333E+00
 50
3.11664230E+02
 51
2.94524475E-06
  0
ARC
  8
0
 62
4
 10
-4.86470297E+01
 20
4.75708069E+01
 40
1.49148333E+00
 50
1.31664193E+02
 51
1.79999967E+02
  0
ARC
  8
0
 62
4
 10
-4.76300006E+01
 20
4.07992424E+01
 40
1.49148333E+00
 50
3.11664230E+02
 51
2.94524475E-06
  0
ARC
  8
0
 62
4
 10
-4.86470297E+01
 20
4.75708069E+01
 40
1.49148333E+00
 50
1.79999981E+02
 51
2.28335754E+02
  0
ARC
  8
0
 62
4
 10
-5.15485112E+01
 20
4.41850264E+01
 40
5.40999651E+00
 50
3.35172894E+02
 51
2.94524469E-06
  0
ARC
  8
0
 62
4
 10
-4.86470294E+01
 20
4.07992424E+01
 40
1.49148333E+00
 50
1.79999981E+02
 51
2.28335754E+02
  0
ARC
  8
0
 62
4
 10
-4.86470294E+01
 20
4.07992424E+01
 40
1.49148333E+00
 50
1.31664193E+02
 51
1.79999967E+02
  0
ARC
  8
0
 62
4
 10
-4.47285191E+01
 20
4.41850267E+01
 40
5.40999651E+00
 50
1.55172858E+02
 51
1.79999967E+02
  0
ARC
  8
0
 62
7
 10
-2.06233250E+01
 20
4.41850280E+01
 40
6.01785851E+00
 50
2.94524470E-06
 51
4.48302228E+01
  0
ARC
  8
0
 62
7
 10
-2.00876042E+01
 20
4.41850280E+01
 40
6.01785851E+00
 50
1.79999967E+02
 51
2.24830187E+02
  0
ARC
  8
0
 62
7
 10
-2.06233250E+01
 20
4.41850280E+01
 40
6.01785851E+00
 50
3.15169783E+02
 51
2.94524470E-06
  0
ARC
  8
0
 62
7
 10
-3.73821752E+01
 20
4.64366932E+01
 40
7.64734566E-01
 50
1.98949511E+02
 51
2.81050509E+02
  0
ARC
  8
0
 62
7
 10
-3.63753163E+01
 20
4.41850272E+01
 40
1.73014796E+00
 50
1.19816793E+02
 51
2.40183222E+02
  0
ARC
  8
0
 62
7
 10
-3.73821750E+01
 20
4.19333610E+01
 40
7.64734566E-01
 50
7.89495041E+01
 51
1.61050495E+02
  0
CIRCLE
  8
0
 62
7
 10
-1.91054646E+01
 20
4.41850280E+01
 40
2.10000000E+00
  0
CIRCLE
  8
0
 62
2
 10
-1.91054646E+01
 20
4.41850280E+01
 40
2.50000000E+00
  0
LINE
  8
0
  6
CENTER
 62
2
 10
-5.62155644E+01
 20
4.41850261E+01
 11
4.96137261E+01
 21
4.41850316E+01
  0
LINE
  8
0
 62
4
 10
-7.41498231E+01
 20
4.56850315E+01
 11
-7.41498231E+01
 21
4.26850315E+01
  0
LINE
  8
0
 62
4
 10
-9.09498231E+01
 20
5.94850315E+01
 11
-8.79498231E+01
 21
5.94850315E+01
  0
LINE
  8
0
 62
4
 10
-8.25751746E+01
 20
5.15667629E+01
 11
-8.27302616E+01
 21
5.10914230E+01
  0
LINE
  8
0
 62
4
 10
-7.79498231E+01
 20
3.98850315E+01
 11
-7.79498231E+01
 21
4.06850315E+01
  0
LINE
  8
0
 62
4
 10
-7.79498231E+01
 20
4.06850315E+01
 11
-8.18048037E+01
 21
3.85400177E+01
  0
LINE
  8
0
 62
4
 10
-7.79498231E+01
 20
4.08350315E+01
 11
-8.16151764E+01
 21
3.88062944E+01
  0
LINE
  8
0
 62
4
 10
-7.83498231E+01
 20
4.09350315E+01
 11
-8.09498231E+01
 21
4.09350315E+01
  0
LINE
  8
0
 62
4
 10
-7.83498231E+01
 20
4.09350315E+01
 11
-7.83498231E+01
 21
4.21350315E+01
  0
LINE
  8
0
 62
4
 10
-7.79498231E+01
 20
4.09350315E+01
 11
-7.79498231E+01
 21
4.21350315E+01
  0
LINE
  8
0
 62
4
 10
-7.91498231E+01
 20
4.31350315E+01
 11
-8.01498231E+01
 21
4.21350315E+01
  0
LINE
  8
0
 62
4
 10
-8.01498231E+01
 20
4.21350315E+01
 11
-8.01498231E+01
 21
4.62350315E+01
  0
LINE
  8
0
 62
4
 10
-7.86498231E+01
 20
4.76850315E+01
 11
-7.86498231E+01
 21
4.84850315E+01
  0
LINE
  8
0
 62
4
 10
-8.01498231E+01
 20
4.62350315E+01
 11
-7.91498231E+01
 21
4.52350315E+01
  0
LINE
  8
0
 62
4
 10
-7.91498231E+01
 20
4.31350315E+01
 11
-7.91498231E+01
 21
4.52350315E+01
  0
LINE
  8
0
 62
4
 10
-7.89275423E+01
 20
4.98507272E+01
 11
-7.89740684E+01
 21
4.97081253E+01
  0
LINE
  8
0
 62
4
 10
-7.89741132E+01
 20
4.97081399E+01
 11
-8.27775969E+01
 21
5.09490851E+01
  0
LINE
  8
0
 62
4
 10
-7.59250896E+01
 20
4.93970702E+01
 11
-7.57298231E+01
 21
4.97350315E+01
  0
LINE
  8
0
 62
6
 10
-7.30498231E+01
 20
4.54150315E+01
 11
-7.44198231E+01
 21
4.54150315E+01
  0
LINE
  8
0
 62
6
 10
-7.30498231E+01
 20
4.29550315E+01
 11
-7.44198231E+01
 21
4.29550315E+01
  0
LINE
  8
0
 62
4
 10
-7.30498231E+01
 20
4.56850315E+01
 11
-7.41498231E+01
 21
4.56850315E+01
  0
LINE
  8
0
 62
4
 10
-7.30498231E+01
 20
4.26850315E+01
 11
-7.41498231E+01
 21
4.26850315E+01
  0
LINE
  8
0
 62
4
 10
-7.58498231E+01
 20
4.51850315E+01
 11
-7.61498231E+01
 21
4.51850315E+01
  0
LINE
  8
0
 62
4
 10
-7.58498231E+01
 20
4.31850315E+01
 11
-7.61498231E+01
 21
4.31850315E+01
  0
LINE
  8
0
 62
4
 10
-7.58498231E+01
 20
4.31850315E+01
 11
-7.58498231E+01
 21
4.51850315E+01
  0
LINE
  8
0
 62
4
 10
-7.61498231E+01
 20
4.21350315E+01
 11
-7.61498231E+01
 21
4.62350315E+01
  0
ARC
  8
0
 62
4
 10
-6.99500758E+01
 20
4.26852842E+01
 40
1.00025280E+00
 50
2.70000000E+02
 51
3.59985521E+02
  0
ARC
  8
0
 62
4
 10
-6.99484107E+01
 20
4.56864438E+01
 40
9.98588677E-01
 50
3.59918966E+02
 51
9.00810348E+01
  0
ARC
  8
0
 62
4
 10
-7.48324674E+01
 20
4.86861797E+01
 40
4.98857363E-01
 50
9.02705623E+01
 51
1.19445368E+02
  0
ARC
  8
0
 62
4
 10
-7.52966888E+01
 20
4.94848278E+01
 40
5.00207143E-01
 50
8.97862932E+01
 51
1.49986761E+02
  0
ARC
  8
0
 62
4
 10
-7.27481605E+01
 20
4.71866941E+01
 40
4.98340176E-01
 50
3.59808845E+02
 51
9.01911544E+01
  0
ARC
  8
0
 62
4
 10
-7.27498273E+01
 20
4.11850357E+01
 40
5.00004290E-01
 50
2.70000000E+02
 51
3.59999509E+02
  0
ARC
  8
0
 62
4
 10
-7.22481605E+01
 20
4.76866941E+01
 40
7.98339134E-01
 50
3.59880678E+02
 51
9.01193227E+01
  0
ARC
  8
0
 62
4
 10
-7.22498263E+01
 20
4.06850347E+01
 40
8.00003254E-01
 50
2.70000000E+02
 51
3.59999767E+02
  0
LINE
  8
0
 62
4
 10
-7.09498231E+01
 20
4.26850315E+01
 11
-7.09498231E+01
 21
4.56850315E+01
  0
LINE
  8
0
 62
4
 10
-6.99498231E+01
 20
4.66850315E+01
 11
-7.04498231E+01
 21
4.66850315E+01
  0
LINE
  8
0
 62
4
 10
-6.99498231E+01
 20
4.16850315E+01
 11
-7.04498231E+01
 21
4.16850315E+01
  0
LINE
  8
0
 62
4
 10
-6.89498231E+01
 20
4.26850315E+01
 11
-6.89498231E+01
 21
4.56850315E+01
  0
LINE
  8
0
 62
4
 10
-7.04498231E+01
 20
4.16850315E+01
 11
-7.04498231E+01
 21
4.66850315E+01
  0
LINE
  8
0
 62
4
 10
-7.04498231E+01
 20
4.26850315E+01
 11
-7.14498231E+01
 21
4.26850315E+01
  0
LINE
  8
0
 62
4
 10
-7.04498231E+01
 20
4.56850315E+01
 11
-7.14498231E+01
 21
4.56850315E+01
  0
LINE
  8
0
 62
4
 10
-7.26248231E+01
 20
4.86100315E+01
 11
-7.26248231E+01
 21
4.91100315E+01
  0
LINE
  8
0
 62
4
 10
-7.26248231E+01
 20
4.91100315E+01
 11
-7.50453190E+01
 21
4.91100315E+01
  0
LINE
  8
0
 62
4
 10
-7.26248231E+01
 20
4.86100315E+01
 11
-7.51248231E+01
 21
4.86100315E+01
  0
LINE
  8
0
 62
4
 10
-7.51498231E+01
 20
4.09350315E+01
 11
-7.51498231E+01
 21
4.74350315E+01
  0
LINE
  8
0
 62
4
 10
-7.44498231E+01
 20
4.09350315E+01
 11
-7.44498231E+01
 21
4.74350315E+01
  0
LINE
  8
0
 62
4
 10
-7.27498231E+01
 20
4.06850315E+01
 11
-7.27498231E+01
 21
4.08350315E+01
  0
LINE
  8
0
 62
4
 10
-7.55258231E+01
 20
4.84850315E+01
 11
-7.54016423E+01
 21
4.86991362E+01
  0
LINE
  8
0
 62
4
 10
-7.31498231E+01
 20
4.99850315E+01
 11
-7.52948231E+01
 21
4.99850315E+01
  0
LINE
  8
0
 62
4
 10
-7.22498231E+01
 20
4.11850315E+01
 11
-7.22498231E+01
 21
4.71850315E+01
  0
LINE
  8
0
 62
6
 10
-7.09498231E+01
 20
4.29550315E+01
 11
-7.14498231E+01
 21
4.29550315E+01
  0
LINE
  8
0
 62
6
 10
-7.09498231E+01
 20
4.54150315E+01
 11
-7.14498231E+01
 21
4.54150315E+01
  0
LINE
  8
0
 62
4
 10
-7.30498231E+01
 20
4.20400315E+01
 11
-7.30498231E+01
 21
4.63300315E+01
  0
LINE
  8
0
 62
4
 10
-7.22498231E+01
 20
4.19000315E+01
 11
-7.30498231E+01
 21
4.20400315E+01
  0
LINE
  8
0
 62
4
 10
-7.22498231E+01
 20
4.64700315E+01
 11
-7.30498231E+01
 21
4.63300315E+01
  0
LINE
  8
0
 62
4
 10
-7.31498231E+01
 20
4.91850315E+01
 11
-7.31498231E+01
 21
4.99850315E+01
  0
LINE
  8
0
 62
4
 10
-7.31498231E+01
 20
4.91850315E+01
 11
-7.48348231E+01
 21
4.91850315E+01
  0
LINE
  8
0
 62
4
 10
-7.64520453E+01
 20
4.84850315E+01
 11
-7.61807680E+01
 21
4.89545498E+01
  0
LINE
  8
0
 62
4
 10
-7.14498231E+01
 20
4.06850315E+01
 11
-7.14498231E+01
 21
4.76850315E+01
  0
LINE
  8
0
 62
4
 10
-7.41498231E+01
 20
4.56850315E+01
 11
-7.44498231E+01
 21
4.53850315E+01
  0
LINE
  8
0
 62
4
 10
-7.41498231E+01
 20
4.26850315E+01
 11
-7.44498231E+01
 21
4.29850315E+01
  0
LINE
  8
0
 62
4
 10
-7.71498231E+01
 20
4.31350315E+01
 11
-7.71498231E+01
 21
4.52350315E+01
  0
LINE
  8
0
 62
4
 10
-7.61498231E+01
 20
4.62350315E+01
 11
-7.71498231E+01
 21
4.52350315E+01
  0
LINE
  8
0
 62
4
 10
-7.61498231E+01
 20
4.21350315E+01
 11
-7.71498231E+01
 21
4.31350315E+01
  0
LINE
  8
0
 62
4
 10
-7.71498231E+01
 20
4.31350315E+01
 11
-7.91498231E+01
 21
4.31350315E+01
  0
LINE
  8
0
 62
4
 10
-7.71498231E+01
 20
4.52350315E+01
 11
-7.91498231E+01
 21
4.52350315E+01
  0
LINE
  8
0
 62
4
 10
-7.50453190E+01
 20
4.91100315E+01
 11
-8.25751746E+01
 21
5.15667629E+01
  0
LINE
  8
0
 62
4
 10
-7.51248231E+01
 20
4.86100315E+01
 11
-8.30296150E+01
 21
5.11890917E+01
  0
LINE
  8
0
 62
4
 10
-7.27498231E+01
 20
4.76850315E+01
 11
-7.86498231E+01
 21
4.76850315E+01
  0
LINE
  8
0
 62
4
 10
-7.27498231E+01
 20
4.06850315E+01
 11
-7.79498231E+01
 21
4.06850315E+01
  0
LINE
  8
0
 62
4
 10
-7.22498231E+01
 20
3.98850315E+01
 11
-7.79498231E+01
 21
3.98850315E+01
  0
LINE
  8
0
 62
4
 10
-7.86498231E+01
 20
4.84850315E+01
 11
-7.22498231E+01
 21
4.84850315E+01
  0
LINE
  8
0
 62
4
 10
-7.27498231E+01
 20
4.08350315E+01
 11
-7.79498231E+01
 21
4.08350315E+01
  0
LINE
  8
0
 62
4
 10
-7.44498231E+01
 20
4.74350315E+01
 11
-8.09498231E+01
 21
4.74350315E+01
  0
LINE
  8
0
 62
4
 10
-7.44498231E+01
 20
4.09350315E+01
 11
-7.79498231E+01
 21
4.09350315E+01
  0
LINE
  8
0
 62
4
 10
-7.61498231E+01
 20
4.21350315E+01
 11
-8.01498231E+01
 21
4.21350315E+01
  0
LINE
  8
0
 62
4
 10
-7.61498231E+01
 20
4.62350315E+01
 11
-8.01498231E+01
 21
4.62350315E+01
  0
LINE
  8
0
 62
4
 10
-9.03417481E+01
 20
5.34850315E+01
 11
-9.14998231E+01
 21
5.34850315E+01
  0
LINE
  8
0
 62
4
 10
-9.68315545E+01
 20
5.10596799E+01
 11
-9.63562146E+01
 21
5.09045929E+01
  0
LINE
  8
0
 62
4
 10
-8.83998231E+01
 20
5.44850315E+01
 11
-8.73998231E+01
 21
5.34850315E+01
  0
LINE
  8
0
 62
4
 10
-9.14998231E+01
 20
5.34850315E+01
 11
-9.04998231E+01
 21
5.44850315E+01
  0
LINE
  8
0
 62
4
 10
-8.73998231E+01
 20
5.74850315E+01
 11
-8.83998231E+01
 21
5.64850315E+01
  0
LINE
  8
0
 62
4
 10
-9.14998231E+01
 20
5.74850315E+01
 11
-9.04998231E+01
 21
5.64850315E+01
  0
LINE
  8
0
 62
4
 10
-8.83998231E+01
 20
5.44850315E+01
 11
-9.04998231E+01
 21
5.44850315E+01
  0
LINE
  8
0
 62
4
 10
-8.83998231E+01
 20
5.64850315E+01
 11
-8.83998231E+01
 21
5.44850315E+01
  0
LINE
  8
0
 62
4
 10
-8.83998231E+01
 20
5.64850315E+01
 11
-9.04998231E+01
 21
5.64850315E+01
  0
LINE
  8
0
 62
4
 10
-9.04998231E+01
 20
5.64850315E+01
 11
-9.04998231E+01
 21
5.44850315E+01
  0
LINE
  8
0
 62
4
 10
-8.79498231E+01
 20
5.94850315E+01
 11
-8.82498231E+01
 21
5.91850315E+01
  0
LINE
  8
0
 62
4
 10
-9.09498231E+01
 20
5.94850315E+01
 11
-9.06498231E+01
 21
5.91850315E+01
  0
LINE
  8
0
 62
4
 10
-9.51155188E+01
 20
5.47073122E+01
 11
-9.49729169E+01
 21
5.46607861E+01
  0
LINE
  8
0
 62
4
 10
-9.43748231E+01
 20
5.85895355E+01
 11
-9.68315545E+01
 21
5.10596799E+01
  0
LINE
  8
0
 62
4
 10
-9.49729315E+01
 20
5.46607413E+01
 11
-9.62138767E+01
 21
5.08572576E+01
  0
LINE
  8
0
 62
4
 10
-9.38748231E+01
 20
5.85100315E+01
 11
-9.64538833E+01
 21
5.06052395E+01
  0
LINE
  8
0
 62
4
 10
-8.59498231E+01
 20
5.56850315E+01
 11
-8.38048093E+01
 21
5.18300508E+01
  0
LINE
  8
0
 62
4
 10
-8.60998231E+01
 20
5.56850315E+01
 11
-8.40710860E+01
 21
5.20196781E+01
  0
LINE
  8
0
 62
4
 10
-8.59498231E+01
 20
6.21850315E+01
 11
-9.29498231E+01
 21
6.21850315E+01
  0
LINE
  8
0
 62
4
 10
-9.29498231E+01
 20
6.08850315E+01
 11
-9.29498231E+01
 21
5.49850315E+01
  0
LINE
  8
0
 62
4
 10
-8.59498231E+01
 20
6.08850315E+01
 11
-8.59498231E+01
 21
5.56850315E+01
  0
LINE
  8
0
 62
4
 10
-9.37498231E+01
 20
5.71828092E+01
 11
-9.42193414E+01
 21
5.74540865E+01
  0
LINE
  8
0
 62
4
 10
-9.44498231E+01
 20
6.04850315E+01
 11
-9.44498231E+01
 21
5.88000315E+01
  0
LINE
  8
0
 62
4
 10
-9.44498231E+01
 20
6.04850315E+01
 11
-9.52498231E+01
 21
6.04850315E+01
  0
LINE
  8
0
 62
4
 10
-9.17348231E+01
 20
6.13850315E+01
 11
-9.15948231E+01
 21
6.05850315E+01
  0
LINE
  8
0
 62
4
 10
-8.71648231E+01
 20
6.13850315E+01
 11
-8.73048231E+01
 21
6.05850315E+01
  0
LINE
  8
0
 62
4
 10
-8.73048231E+01
 20
6.05850315E+01
 11
-9.15948231E+01
 21
6.05850315E+01
  0
LINE
  8
0
 62
6
 10
-9.06798231E+01
 20
6.26850315E+01
 11
-9.06798231E+01
 21
6.21850315E+01
  0
LINE
  8
0
 62
6
 10
-8.82198231E+01
 20
6.26850315E+01
 11
-8.82198231E+01
 21
6.21850315E+01
  0
LINE
  8
0
 62
4
 10
-8.51498231E+01
 20
6.13850315E+01
 11
-8.51498231E+01
 21
5.56850315E+01
  0
LINE
  8
0
 62
4
 10
-9.37498231E+01
 20
5.49850315E+01
 11
-9.37498231E+01
 21
6.13850315E+01
  0
LINE
  8
0
 62
4
 10
-8.64498231E+01
 20
6.13850315E+01
 11
-9.24498231E+01
 21
6.13850315E+01
  0
LINE
  8
0
 62
4
 10
-9.52498231E+01
 20
6.04850315E+01
 11
-9.52498231E+01
 21
5.83400315E+01
  0
LINE
  8
0
 62
4
 10
-9.37498231E+01
 20
5.81090315E+01
 11
-9.39639278E+01
 21
5.82332122E+01
  0
LINE
  8
0
 62
4
 10
-8.60998231E+01
 20
6.08850315E+01
 11
-8.60998231E+01
 21
5.56850315E+01
  0
LINE
  8
0
 62
4
 10
-8.59498231E+01
 20
6.08850315E+01
 11
-8.60998231E+01
 21
6.08850315E+01
  0
LINE
  8
0
 62
4
 10
-8.61998231E+01
 20
5.91850315E+01
 11
-9.26998231E+01
 21
5.91850315E+01
  0
LINE
  8
0
 62
4
 10
-8.61998231E+01
 20
5.84850315E+01
 11
-9.26998231E+01
 21
5.84850315E+01
  0
LINE
  8
0
 62
4
 10
-9.38748231E+01
 20
6.10100315E+01
 11
-9.38748231E+01
 21
5.85100315E+01
  0
LINE
  8
0
 62
4
 10
-9.43748231E+01
 20
6.10100315E+01
 11
-9.43748231E+01
 21
5.85895355E+01
  0
LINE
  8
0
 62
4
 10
-9.38748231E+01
 20
6.10100315E+01
 11
-9.43748231E+01
 21
6.10100315E+01
  0
LINE
  8
0
 62
4
 10
-9.09498231E+01
 20
6.31850315E+01
 11
-9.09498231E+01
 21
6.21850315E+01
  0
LINE
  8
0
 62
4
 10
-8.79498231E+01
 20
6.31850315E+01
 11
-8.79498231E+01
 21
6.21850315E+01
  0
LINE
  8
0
 62
4
 10
-8.51498231E+01
 20
5.56850315E+01
 11
-8.59498231E+01
 21
5.56850315E+01
  0
LINE
  8
0
 62
4
 10
-9.29498231E+01
 20
5.49850315E+01
 11
-9.37498231E+01
 21
5.49850315E+01
  0
LINE
  8
0
 62
4
 10
-8.69498231E+01
 20
6.31850315E+01
 11
-9.19498231E+01
 21
6.31850315E+01
  0
LINE
  8
0
 62
4
 10
-8.79498231E+01
 20
6.46850315E+01
 11
-9.09498231E+01
 21
6.46850315E+01
  0
LINE
  8
0
 62
4
 10
-8.69498231E+01
 20
6.36850315E+01
 11
-8.69498231E+01
 21
6.31850315E+01
  0
LINE
  8
0
 62
4
 10
-9.19498231E+01
 20
6.36850315E+01
 11
-9.19498231E+01
 21
6.31850315E+01
  0
LINE
  8
0
 62
4
 10
-8.79498231E+01
 20
6.26850315E+01
 11
-9.09498231E+01
 21
6.26850315E+01
  0
ARC
  8
0
 62
4
 10
-8.59498263E+01
 20
6.13850282E+01
 40
8.00003254E-01
 50
2.33015759E-04
 51
9.00000002E+01
  0
ARC
  8
0
 62
4
 10
-9.29514856E+01
 20
6.13866941E+01
 40
7.98339134E-01
 50
8.98806771E+01
 51
1.80119323E+02
  0
ARC
  8
0
 62
4
 10
-8.64498273E+01
 20
6.08850272E+01
 40
5.00004290E-01
 50
4.91607912E-04
 51
9.00000002E+01
  0
ARC
  8
0
 62
4
 10
-9.24514856E+01
 20
6.08866941E+01
 40
4.98340176E-01
 50
8.98088454E+01
 51
1.80191155E+02
  0
ARC
  8
0
 62
4
 10
-9.47496194E+01
 20
5.83381657E+01
 40
5.00207143E-01
 50
1.79786293E+02
 51
2.39986760E+02
  0
ARC
  8
0
 62
4
 10
-9.39509712E+01
 20
5.88023872E+01
 40
4.98857363E-01
 50
1.80270562E+02
 51
2.09445368E+02
  0
ARC
  8
0
 62
4
 10
-9.09512354E+01
 20
6.36864438E+01
 40
9.98588677E-01
 50
8.99189656E+01
 51
1.80081034E+02
  0
ARC
  8
0
 62
4
 10
-8.79500758E+01
 20
6.36847787E+01
 40
1.00025280E+00
 50
1.44788446E-02
 51
9.00000002E+01
  0
LINE
  8
0
 62
4
 10
-9.26998231E+01
 20
5.91850315E+01
 11
-9.26998231E+01
 21
5.26850315E+01
  0
LINE
  8
0
 62
4
 10
-8.61998231E+01
 20
5.52850315E+01
 11
-8.61998231E+01
 21
5.26850315E+01
  0
LINE
  8
0
 62
4
 10
-8.61998231E+01
 20
5.52850315E+01
 11
-8.73998231E+01
 21
5.52850315E+01
  0
LINE
  8
0
 62
4
 10
-8.61998231E+01
 20
5.56850315E+01
 11
-8.73998231E+01
 21
5.56850315E+01
  0
LINE
  8
0
 62
4
 10
-8.61998231E+01
 20
5.91850315E+01
 11
-8.61998231E+01
 21
5.56850315E+01
  0
LINE
  8
0
 62
4
 10
-8.73998231E+01
 20
5.34850315E+01
 11
-8.85578929E+01
 21
5.34850315E+01
  0
LINE
  8
0
 62
4
 10
-8.73998231E+01
 20
5.74850315E+01
 11
-9.14998231E+01
 21
5.74850315E+01
  0
LINE
  8
0
 62
4
 10
-8.84498231E+01
 20
5.77850315E+01
 11
-9.04498231E+01
 21
5.77850315E+01
  0
LINE
  8
0
 62
4
 10
-8.84498231E+01
 20
5.77850315E+01
 11
-8.84498231E+01
 21
5.74850315E+01
  0
LINE
  8
0
 10
-8.84498231E+01
 20
5.34850315E+01
 11
-8.84498231E+01
 21
5.34226373E+01
  0
LINE
  8
0
 62
4
 10
-8.73998231E+01
 20
5.74850315E+01
 11
-8.73998231E+01
 21
5.34850315E+01
  0
LINE
  8
0
 62
4
 10
-9.14998231E+01
 20
5.74850315E+01
 11
-9.14998231E+01
 21
5.34850315E+01
  0
LINE
  8
0
 62
4
 10
-9.04498231E+01
 20
5.77850315E+01
 11
-9.04498231E+01
 21
5.74850315E+01
  0
LINE
  8
0
 10
-9.04498231E+01
 20
5.34850315E+01
 11
-9.04498231E+01
 21
5.34226344E+01
  0
LINE
  8
0
 62
4
 10
-8.79498231E+01
 20
6.05850315E+01
 11
-8.79498231E+01
 21
5.94850315E+01
  0
LINE
  8
0
 62
4
 10
-9.09498231E+01
 20
6.05850315E+01
 11
-9.09498231E+01
 21
5.94850315E+01
  0
LINE
  8
0
 62
6
 10
-8.82198231E+01
 20
6.05850315E+01
 11
-8.82198231E+01
 21
5.92150315E+01
  0
LINE
  8
0
 62
6
 10
-9.06798231E+01
 20
6.05850315E+01
 11
-9.06798231E+01
 21
5.92150315E+01
  0
LINE
  8
0
 62
4
 10
-9.46618618E+01
 20
5.77097649E+01
 11
-9.49998231E+01
 21
5.79050315E+01
  0
LINE
  8
0
 62
4
 10
-8.94498172E+01
 20
3.95662230E+01
 11
-8.54498152E+01
 21
4.18756261E+01
  0
LINE
  8
0
 62
4
 10
-9.34498210E+01
 20
4.64944152E+01
 11
-8.94498189E+01
 21
4.88038183E+01
  0
LINE
  8
0
 62
4
 10
-9.34498231E+01
 20
4.64944263E+01
 11
-9.34498231E+01
 21
4.18756280E+01
  0
LINE
  8
0
 62
4
 10
-8.54498231E+01
 20
4.64944311E+01
 11
-8.54498231E+01
 21
4.18756252E+01
  0
LINE
  8
0
 62
4
 10
-9.34498075E+01
 20
4.18755803E+01
 11
-8.94498049E+01
 21
3.95661780E+01
  0
LINE
  8
0
 62
4
 10
-8.94498295E+01
 20
4.88037920E+01
 11
-8.54498401E+01
 21
4.64943973E+01
  0
LINE
  8
0
 62
7
 10
-9.36924607E+01
 20
3.56850315E+01
 11
-9.17273881E+01
 21
3.56850315E+01
  0
LINE
  8
0
 62
7
 10
-9.36924607E+01
 20
5.26850315E+01
 11
-9.17273881E+01
 21
5.26850315E+01
  0
LINE
  8
0
  6
CENTER
 62
2
 10
-8.94498231E+01
 20
6.62083466E+01
 11
-8.94498231E+01
 21
3.27301887E+01
  0
LINE
  8
0
 62
4
 10
-9.79498231E+01
 20
4.90925088E+01
 11
-9.79498231E+01
 21
3.92775541E+01
  0
LINE
  8
0
 62
4
 10
-8.09498231E+01
 20
4.90925088E+01
 11
-8.09498231E+01
 21
3.92775541E+01
  0
LINE
  8
0
 62
4
 10
-8.94498216E+01
 20
5.39999867E+01
 11
-8.09498199E+01
 21
4.90925084E+01
  0
LINE
  8
0
 62
4
 10
-9.79498216E+01
 20
3.92775551E+01
 11
-8.94498199E+01
 21
3.43700768E+01
  0
LINE
  8
0
 62
4
 10
-9.79498217E+01
 20
4.90925081E+01
 11
-8.94498200E+01
 21
5.39999864E+01
  0
LINE
  8
0
 62
4
 10
-8.94498217E+01
 20
3.43700765E+01
 11
-8.09498200E+01
 21
3.92775548E+01
  0
LINE
  8
0
 62
7
 10
-8.71722580E+01
 20
3.56850315E+01
 11
-8.52071854E+01
 21
3.56850315E+01
  0
LINE
  8
0
 62
7
 10
-8.71722580E+01
 20
5.26850315E+01
 11
-8.52071854E+01
 21
5.26850315E+01
  0
CIRCLE
  8
0
 62
7
 10
-8.94498231E+01
 20
4.41850315E+01
 40
2.50000000E+00
  0
CIRCLE
  8
0
 62
2
 10
-8.94498231E+01
 20
4.41850315E+01
 40
2.10000000E+00
  0
CIRCLE
  8
0
 62
4
 10
-8.94498231E+01
 20
4.41850315E+01
 40
4.00000000E+00
  0
CIRCLE
  8
0
 62
7
 10
-8.94498231E+01
 20
4.41850315E+01
 40
6.00000000E+00
  0
ARC
  8
0
 62
7
 10
-8.94498231E+01
 20
4.41850315E+01
 40
9.50000000E+00
 50
3.34746479E+01
 51
6.34746486E+01
  0
ARC
  8
0
 62
7
 10
-8.94498231E+01
 20
4.41850315E+01
 40
9.50000000E+00
 50
1.16525349E+02
 51
1.46525357E+02
  0
ARC
  8
0
 62
7
 10
-8.94498231E+01
 20
4.41850315E+01
 40
9.50000000E+00
 50
2.13474643E+02
 51
2.43474651E+02
  0
ARC
  8
0
 62
7
 10
-8.94498231E+01
 20
4.41850315E+01
 40
9.50000000E+00
 50
2.96525352E+02
 51
3.26525352E+02
  0
CIRCLE
  8
0
 62
2
 10
-8.94498231E+01
 20
4.41850315E+01
 40
5.50000000E+00
  0
CIRCLE
  8
0
 62
4
 10
-8.94498231E+01
 20
4.41850315E+01
 40
8.50000000E+00
  0
LINE
  8
0
  6
CENTER
 62
2
 10
-9.97294901E+01
 20
4.41850315E+01
 11
-6.77069042E+01
 21
4.41850315E+01
  0
LINE
  8
0
 62
4
 10
7.98396243E+01
 20
4.56850315E+01
 11
7.98396243E+01
 21
4.26850315E+01
  0
LINE
  8
0
 62
4
 10
9.36396243E+01
 20
5.94850315E+01
 11
9.66396243E+01
 21
5.94850315E+01
  0
LINE
  8
0
 62
7
 10
1.03639624E+02
 20
4.57889330E+01
 11
1.03639624E+02
 21
4.84276722E+01
  0
ARC
  8
0
 62
7
 10
9.51396243E+01
 20
4.41850315E+01
 40
9.50000000E+00
 50
2.16485460E+02
 51
2.43474648E+02
  0
LINE
  8
0
 62
7
 10
8.66396243E+01
 20
4.74350315E+01
 11
8.66396243E+01
 21
4.84276721E+01
  0
ARC
  8
0
 62
7
 10
9.51396243E+01
 20
4.41850315E+01
 40
9.50000000E+00
 50
1.34595066E+02
 51
1.53474648E+02
  0
ARC
  8
0
 62
7
 10
9.51396243E+01
 20
4.41850315E+01
 40
9.50000000E+00
 50
1.26485460E+02
 51
1.32491528E+02
  0
ARC
  8
0
 62
7
 10
9.51396243E+01
 20
4.41850315E+01
 40
9.50000000E+00
 50
4.45950657E+01
 51
6.34746480E+01
  0
LINE
  8
0
 62
7
 10
9.67435258E+01
 20
3.56850315E+01
 11
9.93822650E+01
 21
3.56850315E+01
  0
LINE
  8
0
 62
7
 10
9.67435258E+01
 20
5.26850315E+01
 11
9.93822650E+01
 21
5.26850315E+01
  0
ARC
  8
0
 62
7
 10
9.51396243E+01
 20
4.41850315E+01
 40
9.50000000E+00
 50
1.16525352E+02
 51
1.24510551E+02
  0
ARC
  8
0
 62
7
 10
9.51396243E+01
 20
4.41850315E+01
 40
9.50000000E+00
 50
2.65253520E+01
 51
4.24915276E+01
  0
ARC
  8
0
 62
7
 10
9.51396243E+01
 20
4.41850315E+01
 40
9.50000000E+00
 50
2.96525352E+02
 51
3.33474648E+02
  0
ARC
  8
0
 62
7
 10
9.51396243E+01
 20
4.41850315E+01
 40
9.50000000E+00
 50
2.06525352E+02
 51
2.14510551E+02
  0
LINE
  8
0
 62
7
 10
9.08969836E+01
 20
3.56850315E+01
 11
9.35357228E+01
 21
3.56850315E+01
  0
LINE
  8
0
 62
7
 10
9.08969836E+01
 20
5.26850315E+01
 11
9.35357228E+01
 21
5.26850315E+01
  0
LINE
  8
0
 62
7
 10
1.03639624E+02
 20
3.99423908E+01
 11
1.03639624E+02
 21
4.25811300E+01
  0
LINE
  8
0
 62
7
 10
8.66396243E+01
 20
3.99423908E+01
 11
8.66396243E+01
 21
4.09350315E+01
  0
ARC
  8
0
 62
4
 10
9.51396243E+01
 20
4.41850315E+01
 40
8.65000000E+00
 50
2.40907274E+02
 51
1.08069713E+02
  0
LINE
  8
0
 62
4
 10
8.93227963E+01
 20
5.12281719E+01
 11
8.78189705E+01
 21
4.85111846E+01
  0
LINE
  8
0
 62
4
 10
8.91235346E+01
 20
5.11631597E+01
 11
8.76068934E+01
 21
4.84374790E+01
  0
LINE
  8
0
 62
4
 10
9.74171894E+01
 20
3.56850315E+01
 11
9.51396211E+01
 21
3.43700768E+01
  0
LINE
  8
0
 62
4
 10
9.51396229E+01
 20
3.43700765E+01
 11
9.28620541E+01
 21
3.56850315E+01
  0
LINE
  8
0
 62
4
 10
1.02521356E+02
 20
5.10596799E+01
 11
1.02046016E+02
 21
5.09045929E+01
  0
LINE
  8
0
 62
4
 10
1.00805320E+02
 20
5.47073122E+01
 11
1.00662718E+02
 21
5.46607861E+01
  0
LINE
  8
0
 62
4
 10
1.00662733E+02
 20
5.46607413E+01
 11
1.02722914E+02
 21
4.83463068E+01
  0
LINE
  8
0
 62
4
 10
9.30896243E+01
 20
5.34850315E+01
 11
9.71896243E+01
 21
5.34850315E+01
  0
LINE
  8
0
 62
4
 10
9.18896243E+01
 20
5.56850315E+01
 11
9.30896243E+01
 21
5.56850315E+01
  0
LINE
  8
0
 62
4
 10
9.18896243E+01
 20
5.52850315E+01
 11
9.30896243E+01
 21
5.52850315E+01
  0
LINE
  8
0
 62
4
 10
9.86396243E+01
 20
5.49850315E+01
 11
9.94396243E+01
 21
5.49850315E+01
  0
LINE
  8
0
 62
4
 10
9.08396243E+01
 20
5.56850315E+01
 11
9.16396243E+01
 21
5.56850315E+01
  0
LINE
  8
0
 62
4
 10
9.61896243E+01
 20
5.64850315E+01
 11
9.61896243E+01
 21
5.44850315E+01
  0
LINE
  8
0
 62
4
 10
9.40896243E+01
 20
5.64850315E+01
 11
9.61896243E+01
 21
5.64850315E+01
  0
LINE
  8
0
 62
4
 10
9.40896243E+01
 20
5.64850315E+01
 11
9.40896243E+01
 21
5.44850315E+01
  0
LINE
  8
0
 62
4
 10
9.40896243E+01
 20
5.44850315E+01
 11
9.61896243E+01
 21
5.44850315E+01
  0
LINE
  8
0
 62
4
 10
9.40896243E+01
 20
5.44850315E+01
 11
9.30896243E+01
 21
5.34850315E+01
  0
LINE
  8
0
 62
4
 10
9.71896243E+01
 20
5.34850315E+01
 11
9.61896243E+01
 21
5.44850315E+01
  0
LINE
  8
0
 62
4
 10
9.16396243E+01
 20
5.56850315E+01
 11
8.92308023E+01
 21
5.13559393E+01
  0
LINE
  8
0
 62
4
 10
9.17896243E+01
 20
5.56850315E+01
 11
8.94293732E+01
 21
5.14207261E+01
  0
LINE
  8
0
 62
4
 10
9.18896243E+01
 20
5.52850315E+01
 11
9.18896243E+01
 21
5.26850315E+01
  0
LINE
  8
0
 62
4
 10
1.00351663E+02
 20
5.77097649E+01
 11
1.00689624E+02
 21
5.79050315E+01
  0
LINE
  8
0
 62
6
 10
9.63696243E+01
 20
6.05850315E+01
 11
9.63696243E+01
 21
5.92150315E+01
  0
LINE
  8
0
 62
6
 10
9.39096243E+01
 20
6.05850315E+01
 11
9.39096243E+01
 21
5.92150315E+01
  0
LINE
  8
0
 62
4
 10
9.66396243E+01
 20
6.05850315E+01
 11
9.66396243E+01
 21
5.94850315E+01
  0
LINE
  8
0
 62
4
 10
9.36396243E+01
 20
6.05850315E+01
 11
9.36396243E+01
 21
5.94850315E+01
  0
LINE
  8
0
 62
4
 10
9.61396243E+01
 20
5.77850315E+01
 11
9.61396243E+01
 21
5.74850315E+01
  0
LINE
  8
0
 62
4
 10
9.41396243E+01
 20
5.77850315E+01
 11
9.41396243E+01
 21
5.74850315E+01
  0
LINE
  8
0
 62
4
 10
9.41396243E+01
 20
5.77850315E+01
 11
9.61396243E+01
 21
5.77850315E+01
  0
LINE
  8
0
 62
4
 10
9.30896243E+01
 20
5.74850315E+01
 11
9.71896243E+01
 21
5.74850315E+01
  0
ARC
  8
0
 62
4
 10
9.36398770E+01
 20
6.36847787E+01
 40
1.00025280E+00
 50
9.00000002E+01
 51
1.79985521E+02
  0
ARC
  8
0
 62
4
 10
9.66410366E+01
 20
6.36864438E+01
 40
9.98588677E-01
 50
3.59918966E+02
 51
9.00810348E+01
  0
ARC
  8
0
 62
4
 10
9.96407725E+01
 20
5.88023872E+01
 40
4.98857363E-01
 50
3.30554632E+02
 51
3.59729437E+02
  0
ARC
  8
0
 62
4
 10
1.00439421E+02
 20
5.83381657E+01
 40
5.00207143E-01
 50
3.00013240E+02
 51
2.13706628E-01
  0
ARC
  8
0
 62
4
 10
9.81412869E+01
 20
6.08866941E+01
 40
4.98340176E-01
 50
3.59808845E+02
 51
9.01911544E+01
  0
ARC
  8
0
 62
4
 10
9.21396286E+01
 20
6.08850272E+01
 40
5.00004290E-01
 50
9.00000002E+01
 51
1.79999508E+02
  0
ARC
  8
0
 62
4
 10
9.86412869E+01
 20
6.13866941E+01
 40
7.98339134E-01
 50
3.59880678E+02
 51
9.01193227E+01
  0
ARC
  8
0
 62
4
 10
9.16396275E+01
 20
6.13850282E+01
 40
8.00003254E-01
 50
9.00000002E+01
 51
1.79999767E+02
  0
LINE
  8
0
 62
4
 10
9.36396243E+01
 20
6.26850315E+01
 11
9.66396243E+01
 21
6.26850315E+01
  0
LINE
  8
0
 62
4
 10
9.76396243E+01
 20
6.36850315E+01
 11
9.76396243E+01
 21
6.31850315E+01
  0
LINE
  8
0
 62
4
 10
9.26396243E+01
 20
6.36850315E+01
 11
9.26396243E+01
 21
6.31850315E+01
  0
LINE
  8
0
 62
4
 10
9.36396243E+01
 20
6.46850315E+01
 11
9.66396243E+01
 21
6.46850315E+01
  0
LINE
  8
0
 62
4
 10
9.26396243E+01
 20
6.31850315E+01
 11
9.76396243E+01
 21
6.31850315E+01
  0
LINE
  8
0
 62
4
 10
9.36396243E+01
 20
6.31850315E+01
 11
9.36396243E+01
 21
6.21850315E+01
  0
LINE
  8
0
 62
4
 10
9.66396243E+01
 20
6.31850315E+01
 11
9.66396243E+01
 21
6.21850315E+01
  0
LINE
  8
0
 62
4
 10
9.95646243E+01
 20
6.10100315E+01
 11
1.00064624E+02
 21
6.10100315E+01
  0
LINE
  8
0
 62
4
 10
1.00064624E+02
 20
6.10100315E+01
 11
1.00064624E+02
 21
5.85895355E+01
  0
LINE
  8
0
 62
4
 10
9.95646243E+01
 20
6.10100315E+01
 11
9.95646243E+01
 21
5.85100315E+01
  0
LINE
  8
0
 62
4
 10
9.18896243E+01
 20
5.84850315E+01
 11
9.83896243E+01
 21
5.84850315E+01
  0
LINE
  8
0
 62
4
 10
9.18896243E+01
 20
5.91850315E+01
 11
9.83896243E+01
 21
5.91850315E+01
  0
LINE
  8
0
 62
4
 10
9.16396243E+01
 20
6.08850315E+01
 11
9.17896243E+01
 21
6.08850315E+01
  0
LINE
  8
0
 62
4
 10
9.94396243E+01
 20
5.81090315E+01
 11
9.96537290E+01
 21
5.82332122E+01
  0
LINE
  8
0
 62
4
 10
1.00939624E+02
 20
6.04850315E+01
 11
1.00939624E+02
 21
5.83400315E+01
  0
LINE
  8
0
 62
4
 10
9.21396243E+01
 20
6.13850315E+01
 11
9.81396243E+01
 21
6.13850315E+01
  0
LINE
  8
0
 62
6
 10
9.39096243E+01
 20
6.26850315E+01
 11
9.39096243E+01
 21
6.21850315E+01
  0
LINE
  8
0
 62
6
 10
9.63696243E+01
 20
6.26850315E+01
 11
9.63696243E+01
 21
6.21850315E+01
  0
LINE
  8
0
 62
4
 10
9.29946243E+01
 20
6.05850315E+01
 11
9.72846243E+01
 21
6.05850315E+01
  0
LINE
  8
0
 62
4
 10
9.28546243E+01
 20
6.13850315E+01
 11
9.29946243E+01
 21
6.05850315E+01
  0
LINE
  8
0
 62
4
 10
9.74246243E+01
 20
6.13850315E+01
 11
9.72846243E+01
 21
6.05850315E+01
  0
LINE
  8
0
 62
4
 10
1.00139624E+02
 20
6.04850315E+01
 11
1.00939624E+02
 21
6.04850315E+01
  0
LINE
  8
0
 62
4
 10
1.00139624E+02
 20
6.04850315E+01
 11
1.00139624E+02
 21
5.88000315E+01
  0
LINE
  8
0
 62
4
 10
9.94396243E+01
 20
5.71828092E+01
 11
9.99091426E+01
 21
5.74540865E+01
  0
LINE
  8
0
 62
4
 10
9.16396243E+01
 20
6.21850315E+01
 11
9.86396243E+01
 21
6.21850315E+01
  0
LINE
  8
0
 62
4
 10
9.66396243E+01
 20
5.94850315E+01
 11
9.63396243E+01
 21
5.91850315E+01
  0
LINE
  8
0
 62
4
 10
9.36396243E+01
 20
5.94850315E+01
 11
9.39396243E+01
 21
5.91850315E+01
  0
LINE
  8
0
 62
4
 10
9.30896243E+01
 20
5.74850315E+01
 11
9.40896243E+01
 21
5.64850315E+01
  0
LINE
  8
0
 62
4
 10
9.71896243E+01
 20
5.74850315E+01
 11
9.61896243E+01
 21
5.64850315E+01
  0
LINE
  8
0
 62
4
 10
1.00064624E+02
 20
5.85895355E+01
 11
1.02521356E+02
 21
5.10596799E+01
  0
LINE
  8
0
 62
4
 10
9.95646243E+01
 20
5.85100315E+01
 11
1.03363005E+02
 21
4.68680361E+01
  0
LINE
  8
0
 62
4
 10
9.86396243E+01
 20
6.08850315E+01
 11
9.86396243E+01
 21
5.49850315E+01
  0
LINE
  8
0
 62
4
 10
9.16396243E+01
 20
6.08850315E+01
 11
9.16396243E+01
 21
5.56850315E+01
  0
LINE
  8
0
 62
4
 10
9.08396243E+01
 20
6.13850315E+01
 11
9.08396243E+01
 21
5.56850315E+01
  0
LINE
  8
0
 62
4
 10
9.94396243E+01
 20
5.49850315E+01
 11
9.94396243E+01
 21
6.13850315E+01
  0
LINE
  8
0
 62
4
 10
9.17896243E+01
 20
6.08850315E+01
 11
9.17896243E+01
 21
5.56850315E+01
  0
LINE
  8
0
 62
4
 10
9.83896243E+01
 20
5.91850315E+01
 11
9.83896243E+01
 21
5.26850315E+01
  0
LINE
  8
0
 62
4
 10
9.18896243E+01
 20
5.91850315E+01
 11
9.18896243E+01
 21
5.56850315E+01
  0
LINE
  8
0
 62
4
 10
9.30896243E+01
 20
5.74850315E+01
 11
9.30896243E+01
 21
5.34850315E+01
  0
LINE
  8
0
 62
4
 10
9.71896243E+01
 20
5.74850315E+01
 11
9.71896243E+01
 21
5.34850315E+01
  0
CIRCLE
  8
0
 62
4
 10
9.51396228E+01
 20
4.41916880E+01
 40
8.00000000E+00
  0
CIRCLE
  8
0
 62
6
 10
9.51396228E+01
 20
4.41916880E+01
 40
2.50000000E+00
  0
LINE
  8
0
  6
CENTER
 62
2
 10
9.51396243E+01
 20
3.21151736E+01
 11
9.51396243E+01
 21
6.71076795E+01
  0
CIRCLE
  8
0
 62
4
 10
9.51396243E+01
 20
4.41850315E+01
 40
2.06700000E+00
  0
LINE
  8
0
 62
4
 10
8.16148908E+01
 20
4.93970702E+01
 11
8.14196243E+01
 21
4.97350315E+01
  0
LINE
  8
0
 62
6
 10
7.87396243E+01
 20
4.54150315E+01
 11
8.01096243E+01
 21
4.54150315E+01
  0
LINE
  8
0
 62
6
 10
7.87396243E+01
 20
4.29550315E+01
 11
8.01096243E+01
 21
4.29550315E+01
  0
LINE
  8
0
 62
4
 10
7.87396243E+01
 20
4.56850315E+01
 11
7.98396243E+01
 21
4.56850315E+01
  0
LINE
  8
0
 62
4
 10
7.87396243E+01
 20
4.26850315E+01
 11
7.98396243E+01
 21
4.26850315E+01
  0
LINE
  8
0
 62
4
 10
8.51396243E+01
 20
4.54850315E+01
 11
8.58396243E+01
 21
4.62350315E+01
  0
LINE
  8
0
 62
4
 10
8.25396243E+01
 20
4.54850315E+01
 11
8.18396243E+01
 21
4.62350315E+01
  0
LINE
  8
0
 62
4
 10
8.25396243E+01
 20
4.54850315E+01
 11
8.51396243E+01
 21
4.54850315E+01
  0
LINE
  8
0
 62
4
 10
8.58396243E+01
 20
4.51850315E+01
 11
8.61396243E+01
 21
4.51850315E+01
  0
LINE
  8
0
 10
8.15396243E+01
 20
4.51850315E+01
 11
8.18396243E+01
 21
4.51850315E+01
  0
LINE
  8
0
 62
4
 10
8.18396243E+01
 20
4.62350315E+01
 11
8.58396243E+01
 21
4.62350315E+01
  0
LINE
  8
0
 62
4
 10
8.18396243E+01
 20
4.21350315E+01
 11
8.25396243E+01
 21
4.28850315E+01
  0
LINE
  8
0
 62
4
 10
8.25396243E+01
 20
4.28850315E+01
 11
8.51396243E+01
 21
4.28850315E+01
  0
LINE
  8
0
 62
4
 10
8.18396243E+01
 20
4.21350315E+01
 11
8.58396243E+01
 21
4.21350315E+01
  0
LINE
  8
0
 10
8.58396243E+01
 20
4.31850315E+01
 11
8.61396243E+01
 21
4.31850315E+01
  0
LINE
  8
0
 62
4
 10
8.15396243E+01
 20
4.31850315E+01
 11
8.18396243E+01
 21
4.31850315E+01
  0
LINE
  8
0
 62
4
 10
8.25396243E+01
 20
4.28850315E+01
 11
8.25396243E+01
 21
4.54850315E+01
  0
LINE
  8
0
 62
4
 10
8.15396243E+01
 20
4.31850315E+01
 11
8.15396243E+01
 21
4.51850315E+01
  0
LINE
  8
0
 62
4
 10
8.18396243E+01
 20
4.21350315E+01
 11
8.18396243E+01
 21
4.62350315E+01
  0
LINE
  8
0
 62
4
 10
8.58396243E+01
 20
4.21350315E+01
 11
8.58396243E+01
 21
4.62350315E+01
  0
LINE
  8
0
 62
4
 10
8.01396243E+01
 20
4.09350315E+01
 11
8.36396243E+01
 21
4.09350315E+01
  0
LINE
  8
0
 62
4
 10
8.36396243E+01
 20
4.09350315E+01
 11
8.36396243E+01
 21
4.21350315E+01
  0
LINE
  8
0
 62
4
 10
8.40396243E+01
 20
4.09350315E+01
 11
8.40396243E+01
 21
4.21350315E+01
  0
LINE
  8
0
 62
4
 10
8.40396243E+01
 20
4.09350315E+01
 11
8.66396243E+01
 21
4.09350315E+01
  0
LINE
  8
0
 62
4
 10
8.69900768E+01
 20
4.12854840E+01
 11
8.66396243E+01
 21
4.09350315E+01
  0
LINE
  8
0
 62
4
 10
8.69900768E+01
 20
4.70845790E+01
 11
8.66396243E+01
 21
4.74350315E+01
  0
LINE
  8
0
 62
4
 10
8.01396243E+01
 20
4.74350315E+01
 11
8.66396243E+01
 21
4.74350315E+01
  0
ARC
  8
0
 62
4
 10
7.56398770E+01
 20
4.26852842E+01
 40
1.00025280E+00
 50
1.80014479E+02
 51
2.70000000E+02
  0
ARC
  8
0
 62
4
 10
7.56382120E+01
 20
4.56864438E+01
 40
9.98588677E-01
 50
8.99189656E+01
 51
1.80081034E+02
  0
ARC
  8
0
 62
4
 10
8.05222686E+01
 20
4.86861797E+01
 40
4.98857363E-01
 50
6.05546317E+01
 51
8.97294375E+01
  0
ARC
  8
0
 62
4
 10
8.09864900E+01
 20
4.94848278E+01
 40
5.00207143E-01
 50
3.00132395E+01
 51
9.02137066E+01
  0
ARC
  8
0
 62
4
 10
7.84379617E+01
 20
4.71866941E+01
 40
4.98340176E-01
 50
8.98088454E+01
 51
1.80191155E+02
  0
ARC
  8
0
 62
4
 10
7.84396286E+01
 20
4.11850357E+01
 40
5.00004290E-01
 50
1.80000491E+02
 51
2.70000000E+02
  0
ARC
  8
0
 62
4
 10
7.79379617E+01
 20
4.76866941E+01
 40
7.98339134E-01
 50
8.98806771E+01
 51
1.80119323E+02
  0
ARC
  8
0
 62
4
 10
7.79396275E+01
 20
4.06850347E+01
 40
8.00003254E-01
 50
1.80000233E+02
 51
2.70000000E+02
  0
LINE
  8
0
 62
4
 10
7.66396243E+01
 20
4.26850315E+01
 11
7.66396243E+01
 21
4.56850315E+01
  0
LINE
  8
0
 62
4
 10
7.56396243E+01
 20
4.66850315E+01
 11
7.61396243E+01
 21
4.66850315E+01
  0
LINE
  8
0
 62
4
 10
7.56396243E+01
 20
4.16850315E+01
 11
7.61396243E+01
 21
4.16850315E+01
  0
LINE
  8
0
 62
4
 10
7.46396243E+01
 20
4.26850315E+01
 11
7.46396243E+01
 21
4.56850315E+01
  0
LINE
  8
0
 62
4
 10
7.61396243E+01
 20
4.16850315E+01
 11
7.61396243E+01
 21
4.66850315E+01
  0
LINE
  8
0
 62
4
 10
8.43396243E+01
 20
4.76850315E+01
 11
8.43396243E+01
 21
4.84850315E+01
  0
LINE
  8
0
 62
4
 10
8.36396243E+01
 20
3.98850315E+01
 11
8.36396243E+01
 21
4.06850315E+01
  0
LINE
  8
0
 62
4
 10
7.61396243E+01
 20
4.26850315E+01
 11
7.71396243E+01
 21
4.26850315E+01
  0
LINE
  8
0
 62
4
 10
7.61396243E+01
 20
4.56850315E+01
 11
7.71396243E+01
 21
4.56850315E+01
  0
LINE
  8
0
 62
4
 10
7.83146243E+01
 20
4.86100315E+01
 11
7.83146243E+01
 21
4.91100315E+01
  0
LINE
  8
0
 62
4
 10
7.83146243E+01
 20
4.91100315E+01
 11
8.07351202E+01
 21
4.91100315E+01
  0
LINE
  8
0
 62
4
 10
7.83146243E+01
 20
4.86100315E+01
 11
8.08146243E+01
 21
4.86100315E+01
  0
LINE
  8
0
 62
4
 10
8.08396243E+01
 20
4.09350315E+01
 11
8.08396243E+01
 21
4.74350315E+01
  0
LINE
  8
0
 62
4
 10
8.01396243E+01
 20
4.09350315E+01
 11
8.01396243E+01
 21
4.74350315E+01
  0
LINE
  8
0
 62
4
 10
7.84396243E+01
 20
4.06850315E+01
 11
7.84396243E+01
 21
4.08350315E+01
  0
LINE
  8
0
 62
4
 10
7.84396243E+01
 20
4.08350315E+01
 11
8.36396243E+01
 21
4.08350315E+01
  0
LINE
  8
0
 62
4
 10
8.12156243E+01
 20
4.84850315E+01
 11
8.10914435E+01
 21
4.86991362E+01
  0
LINE
  8
0
 62
4
 10
7.88396243E+01
 20
4.99850315E+01
 11
8.09846243E+01
 21
4.99850315E+01
  0
LINE
  8
0
 62
4
 10
7.79396243E+01
 20
4.11850315E+01
 11
7.79396243E+01
 21
4.71850315E+01
  0
LINE
  8
0
 62
4
 10
8.43396243E+01
 20
4.84850315E+01
 11
7.79396243E+01
 21
4.84850315E+01
  0
LINE
  8
0
 62
4
 10
7.79396243E+01
 20
3.98850315E+01
 11
8.36396243E+01
 21
3.98850315E+01
  0
LINE
  8
0
 62
6
 10
7.66396243E+01
 20
4.29550315E+01
 11
7.71396243E+01
 21
4.29550315E+01
  0
LINE
  8
0
 62
6
 10
7.66396243E+01
 20
4.54150315E+01
 11
7.71396243E+01
 21
4.54150315E+01
  0
LINE
  8
0
 62
4
 10
7.87396243E+01
 20
4.20400315E+01
 11
7.87396243E+01
 21
4.63300315E+01
  0
LINE
  8
0
 62
4
 10
7.79396243E+01
 20
4.19000315E+01
 11
7.87396243E+01
 21
4.20400315E+01
  0
LINE
  8
0
 62
4
 10
7.79396243E+01
 20
4.64700315E+01
 11
7.87396243E+01
 21
4.63300315E+01
  0
LINE
  8
0
 62
4
 10
7.88396243E+01
 20
4.91850315E+01
 11
7.88396243E+01
 21
4.99850315E+01
  0
LINE
  8
0
 62
4
 10
7.88396243E+01
 20
4.91850315E+01
 11
8.05246243E+01
 21
4.91850315E+01
  0
LINE
  8
0
 62
4
 10
8.21418465E+01
 20
4.84850315E+01
 11
8.18705692E+01
 21
4.89545498E+01
  0
LINE
  8
0
 62
4
 10
7.84396243E+01
 20
4.06850315E+01
 11
8.36396243E+01
 21
4.06850315E+01
  0
LINE
  8
0
 62
4
 10
7.84396243E+01
 20
4.76850315E+01
 11
8.43396243E+01
 21
4.76850315E+01
  0
LINE
  8
0
 62
4
 10
7.71396243E+01
 20
4.06850315E+01
 11
7.71396243E+01
 21
4.76850315E+01
  0
CIRCLE
  8
0
 62
4
 10
8.38396243E+01
 20
4.41850315E+01
 40
1.30000000E+00
  0
LINE
  8
0
 62
4
 10
8.36396243E+01
 20
4.08350315E+01
 11
9.10234018E+01
 21
3.67481832E+01
  0
LINE
  8
0
 62
4
 10
8.36396243E+01
 20
4.06850315E+01
 11
9.09337828E+01
 21
3.66263677E+01
  0
LINE
  8
0
 62
4
 10
8.08146243E+01
 20
4.86100315E+01
 11
9.24566196E+01
 21
5.24084119E+01
  0
LINE
  8
0
 62
4
 10
8.46639145E+01
 20
4.97081399E+01
 11
9.25031457E+01
 21
5.22658099E+01
  0
LINE
  8
0
 62
4
 10
8.07351202E+01
 20
4.91100315E+01
 11
8.82649759E+01
 21
5.15667629E+01
  0
LINE
  8
0
 62
4
 10
8.46173436E+01
 20
4.98507272E+01
 11
8.46638697E+01
 21
4.97081253E+01
  0
LINE
  8
0
 62
4
 10
8.84200628E+01
 20
5.10914230E+01
 11
8.82649759E+01
 21
5.15667629E+01
  0
LINE
  8
0
 62
4
 10
8.51396243E+01
 20
4.28850315E+01
 11
8.58396243E+01
 21
4.21350315E+01
  0
LINE
  8
0
 62
4
 10
8.51396243E+01
 20
4.28850315E+01
 11
8.51396243E+01
 21
4.54850315E+01
  0
LINE
  8
0
 62
4
 10
8.61396243E+01
 20
4.31850315E+01
 11
8.61396243E+01
 21
4.51850315E+01
  0
LINE
  8
0
 62
4
 10
7.98396243E+01
 20
4.56850315E+01
 11
8.01396243E+01
 21
4.53850315E+01
  0
LINE
  8
0
 62
4
 10
7.98396243E+01
 20
4.26850315E+01
 11
8.01396243E+01
 21
4.29850315E+01
  0
LINE
  8
0
  6
CENTER
 62
2
 10
7.22311127E+01
 20
4.41850315E+01
 11
1.06247538E+02
 21
4.41850315E+01
  0
ARC
  8
0
 62
4
 10
9.51396243E+01
 20
4.41850315E+01
 40
8.65000000E+00
 50
1.50553997E+02
 51
2.30350158E+02
  0
CIRCLE
  8
0
 62
4
 10
9.51396228E+01
 20
4.41916880E+01
 40
8.50000000E+00
  0
LINE
  8
0
  6
CENTER
 62
6
 10
-1.05726312E+02
 20
-6.50099078E+01
 11
-1.05726312E+02
 21
-3.30648651E+01
  0
LINE
  8
0
 62
4
 10
-1.26726312E+02
 20
-6.06294654E+01
 11
-8.47263117E+01
 21
-6.06294654E+01
  0
LINE
  8
0
 62
4
 10
-1.26726312E+02
 20
-5.83294654E+01
 11
-8.47263117E+01
 21
-5.83294654E+01
  0
LINE
  8
0
  6
CENTER
 62
6
 10
-1.13463488E+02
 20
-4.66294654E+01
 11
-9.77761907E+01
 21
-4.66294654E+01
  0
LINE
  8
0
 62
4
 10
-1.26726312E+02
 20
-6.06294655E+01
 11
-1.26726312E+02
 21
-5.83294654E+01
  0
LINE
  8
0
 62
4
 10
-8.47263117E+01
 20
-6.06294655E+01
 11
-8.47263117E+01
 21
-5.83294654E+01
  0
CIRCLE
  8
0
 62
4
 10
-1.05726312E+02
 20
-4.66294654E+01
 40
6.00000000E+00
  0
ARC
  8
0
 62
4
 10
-1.05726312E+02
 20
-4.66294654E+01
 40
1.00000000E+01
 50
3.62946002E+01
 51
1.43705400E+02
  0
LINE
  8
0
 62
4
 10
-8.47263117E+01
 20
-5.83294654E+01
 11
-9.76664710E+01
 21
-4.07100932E+01
  0
LINE
  8
0
 62
4
 10
-1.26726312E+02
 20
-5.83294654E+01
 11
-1.13786152E+02
 21
-4.07100932E+01
  0
LINE
  8
0
  6
CENTER
 62
6
 10
-1.20326312E+02
 20
-5.54549173E+01
 11
-1.20326312E+02
 21
-6.37264016E+01
  0
LINE
  8
0
  6
CENTER
 62
6
 10
-9.11263117E+01
 20
-5.54549173E+01
 11
-9.11263117E+01
 21
-6.37264016E+01
  0
LINE
  8
0
 62
4
 10
-6.38263117E+01
 20
-5.78531198E+01
 11
-6.38263117E+01
 21
-3.66294654E+01
  0
LINE
  8
0
 62
4
 10
-6.61263117E+01
 20
-3.66294654E+01
 11
-6.38263117E+01
 21
-3.66294654E+01
  0
LINE
  8
0
 62
4
 10
-7.88263117E+01
 20
-6.06294654E+01
 11
-6.66026573E+01
 21
-6.06294654E+01
  0
LINE
  8
0
 62
4
 10
-6.61263117E+01
 20
-5.78531198E+01
 11
-6.61263117E+01
 21
-3.66294654E+01
  0
LINE
  8
0
 62
4
 10
-7.88263117E+01
 20
-5.83294654E+01
 11
-6.66026573E+01
 21
-5.83294654E+01
  0
LINE
  8
0
 62
4
 10
-7.88263117E+01
 20
-6.06294655E+01
 11
-7.88263117E+01
 21
-5.83294654E+01
  0
LINE
  8
0
  6
CENTER
 62
6
 10
-7.28263117E+01
 20
-6.37264016E+01
 11
-7.28263117E+01
 21
-5.54549173E+01
  0
LINE
  8
0
 62
4
 10
-7.54263117E+01
 20
-6.06294655E+01
 11
-7.54263117E+01
 21
-5.83294654E+01
  0
LINE
  8
0
 62
4
 10
-7.02263117E+01
 20
-6.06294655E+01
 11
-7.02263117E+01
 21
-5.83294654E+01
  0
LINE
  8
0
  6
CENTER
 62
6
 10
-7.02263117E+01
 20
-4.66294654E+01
 11
-6.06103326E+01
 21
-4.66294654E+01
  0
ARC
  8
0
 62
4
 10
-6.66026573E+01
 20
-5.78531198E+01
 40
2.77634560E+00
 50
2.70000000E+02
 51
0.00000000E+00
  0
ARC
  8
0
 62
4
 10
-6.66026573E+01
 20
-5.78531198E+01
 40
4.76345597E-01
 50
2.70000000E+02
 51
0.00000000E+00
  0
LINE
  8
0
 62
4
 10
-1.26726312E+02
 20
-1.31294654E+01
 11
-1.26726312E+02
 21
-6.72946547E+00
  0
LINE
  8
0
 62
4
 10
-8.47263117E+01
 20
-1.31294654E+01
 11
-8.47263117E+01
 21
-6.72946547E+00
  0
LINE
  8
0
 62
4
 10
-1.26726312E+02
 20
-2.17294655E+01
 11
-1.26726312E+02
 21
-1.83294654E+01
  0
LINE
  8
0
 62
4
 10
-8.47263117E+01
 20
-2.17294655E+01
 11
-8.47263117E+01
 21
-1.83294654E+01
  0
LINE
  8
0
 62
4
 10
-1.26726312E+02
 20
-9.02946544E+00
 11
-8.47263117E+01
 21
-9.02946544E+00
  0
LINE
  8
0
 62
4
 10
-1.26726312E+02
 20
-6.72946544E+00
 11
-8.47263117E+01
 21
-6.72946544E+00
  0
LINE
  8
0
 62
4
 10
-1.26726312E+02
 20
-2.17294654E+01
 11
-8.47263117E+01
 21
-2.17294654E+01
  0
LINE
  8
0
  6
CENTER
 62
6
 10
-1.27867280E+02
 20
-1.57294654E+01
 11
-8.35150110E+01
 21
-1.57294654E+01
  0
ARC
  8
0
 62
4
 10
-9.11263117E+01
 20
-1.57294654E+01
 40
2.60000000E+00
 50
9.00000002E+01
 51
2.70000000E+02
  0
LINE
  8
0
  6
CENTER
 62
6
 10
-1.05726312E+02
 20
-2.29245820E+01
 11
-1.05726312E+02
 21
-5.38333092E+00
  0
LINE
  8
0
  6
CENTER
 62
6
 10
-9.11263117E+01
 20
-1.93592871E+01
 11
-9.11263117E+01
 21
-1.18008618E+01
  0
LINE
  8
0
 62
4
 10
-9.11263117E+01
 20
-1.31294654E+01
 11
-8.47263117E+01
 21
-1.31294654E+01
  0
LINE
  8
0
 62
4
 10
-9.11263117E+01
 20
-1.83294654E+01
 11
-8.47263117E+01
 21
-1.83294654E+01
  0
ARC
  8
0
 62
4
 10
-1.20326312E+02
 20
-1.57294654E+01
 40
2.60000000E+00
 50
2.70000000E+02
 51
9.00000002E+01
  0
LINE
  8
0
  6
CENTER
 62
6
 10
-1.20326312E+02
 20
-1.93592871E+01
 11
-1.20326312E+02
 21
-1.18008618E+01
  0
LINE
  8
0
 62
4
 10
-1.20326312E+02
 20
-1.31294654E+01
 11
-1.26726312E+02
 21
-1.31294654E+01
  0
LINE
  8
0
 62
4
 10
-1.20326312E+02
 20
-1.83294654E+01
 11
-1.26726312E+02
 21
-1.83294654E+01
  0
LINE
  8
0
  6
CENTER
 62
6
 10
-3.33012141E+01
 20
-5.11294654E+01
 11
1.19352408E+01
 21
-5.11294654E+01
  0
LINE
  8
0
  6
CENTER
 62
6
 10
-1.07263117E+01
 20
-6.55280379E+01
 11
-1.07263117E+01
 21
-3.71953631E+01
  0
LINE
  8
0
 62
4
 10
-3.17263117E+01
 20
-6.11294654E+01
 11
-3.17263117E+01
 21
-5.37294654E+01
  0
LINE
  8
0
 62
4
 10
1.02736883E+01
 20
-6.11294654E+01
 11
1.02736883E+01
 21
-5.37294654E+01
  0
LINE
  8
0
  6
CENTER
 62
6
 10
3.87368830E+00
 20
-5.46808457E+01
 11
3.87368830E+00
 21
-4.75322116E+01
  0
LINE
  8
0
 62
4
 10
3.87368830E+00
 20
-4.85294654E+01
 11
1.02736883E+01
 21
-4.85294654E+01
  0
LINE
  8
0
 62
4
 10
3.87368830E+00
 20
-5.37294654E+01
 11
1.02736883E+01
 21
-5.37294654E+01
  0
LINE
  8
0
 62
4
 10
-3.17263117E+01
 20
-4.11294654E+01
 11
1.02736883E+01
 21
-4.11294654E+01
  0
LINE
  8
0
 62
4
 10
-3.17263117E+01
 20
-6.11294654E+01
 11
1.02736883E+01
 21
-6.11294654E+01
  0
ARC
  8
0
 62
4
 10
3.87368830E+00
 20
-5.11294654E+01
 40
2.60000000E+00
 50
9.00000002E+01
 51
2.70000000E+02
  0
LINE
  8
0
  6
CENTER
 62
6
 10
-2.53263117E+01
 20
-5.46808457E+01
 11
-2.53263117E+01
 21
-4.75322116E+01
  0
LINE
  8
0
 62
4
 10
-2.53263117E+01
 20
-4.85294654E+01
 11
-3.17263117E+01
 21
-4.85294654E+01
  0
ARC
  8
0
 62
4
 10
-2.53263117E+01
 20
-5.11294654E+01
 40
2.60000000E+00
 50
2.70000000E+02
 51
9.00000002E+01
  0
LINE
  8
0
 62
4
 10
-2.53263117E+01
 20
-5.37294654E+01
 11
-3.17263117E+01
 21
-5.37294654E+01
  0
CIRCLE
  8
0
 62
4
 10
-1.07263117E+01
 20
-5.11294654E+01
 40
6.00000000E+00
  0
LINE
  8
0
 62
4
 10
1.02736883E+01
 20
-4.85294654E+01
 11
1.02736883E+01
 21
-4.11294654E+01
  0
LINE
  8
0
 62
4
 10
-3.17263117E+01
 20
-4.85294654E+01
 11
-3.17263117E+01
 21
-4.11294654E+01
  0
LINE
  8
0
 62
4
 10
2.02736883E+01
 20
-6.11294654E+01
 11
2.02736883E+01
 21
-4.11294654E+01
  0
LINE
  8
0
 62
4
 10
2.25736883E+01
 20
-6.11294654E+01
 11
2.25736883E+01
 21
-4.11294654E+01
  0
LINE
  8
0
 62
4
 10
2.02736883E+01
 20
-4.11294654E+01
 11
2.25736883E+01
 21
-4.11294654E+01
  0
LINE
  8
0
 62
4
 10
2.02736883E+01
 20
-6.11294654E+01
 11
2.25736883E+01
 21
-6.11294654E+01
  0
LINE
  8
0
  6
CENTER
 62
6
 10
2.41146456E+01
 20
-5.11294654E+01
 11
1.84377891E+01
 21
-5.11294654E+01
  0
LINE
  8
0
 62
4
 10
2.02736883E+01
 20
-4.85294654E+01
 11
2.25736883E+01
 21
-4.85294654E+01
  0
LINE
  8
0
 62
4
 10
2.02736883E+01
 20
-5.37294654E+01
 11
2.25736883E+01
 21
-5.37294654E+01
  0
LINE
  8
0
  6
CENTER
 62
6
 10
3.87368833E+00
 20
-2.23308457E+01
 11
3.87368833E+00
 21
-1.51822116E+01
  0
LINE
  8
0
  6
CENTER
 62
6
 10
-2.53263117E+01
 20
-2.23308457E+01
 11
-2.53263117E+01
 21
-1.51822116E+01
  0
LINE
  8
0
 62
4
 10
1.02736883E+01
 20
-1.99294655E+01
 11
1.02736883E+01
 21
-1.76294654E+01
  0
LINE
  8
0
 62
4
 10
-3.17263117E+01
 20
-1.99294655E+01
 11
-3.17263117E+01
 21
-1.76294654E+01
  0
LINE
  8
0
 62
4
 10
-3.17263117E+01
 20
-1.99294654E+01
 11
1.02736883E+01
 21
-1.99294654E+01
  0
LINE
  8
0
 62
4
 10
-3.17263117E+01
 20
-1.76294654E+01
 11
1.02736883E+01
 21
-1.76294654E+01
  0
LINE
  8
0
  6
CENTER
 62
6
 10
-1.07263117E+01
 20
-2.37114879E+01
 11
-1.07263117E+01
 21
-1.41213595E+01
  0
LINE
  8
0
  6
CENTER
 62
6
 10
6.17205046E+01
 20
-1.66523264E+01
 11
9.75943283E+01
 21
-1.66323965E+01
  0
ARC
  8
0
 62
4
 10
9.07707536E+01
 20
-1.66411874E+01
 40
6.02357857E+00
 50
3.15224049E+02
 51
4.48396128E+01
  0
ARC
  8
0
 62
4
 10
9.38179102E+01
 20
-1.66394945E+01
 40
6.02357857E+00
 50
1.35224049E+02
 51
2.24839613E+02
  0
LINE
  8
0
 62
4
 10
8.77896076E+01
 20
-8.13784226E+00
 11
8.77990520E+01
 21
-2.51378396E+01
  0
LINE
  8
0
 62
4
 10
8.95396073E+01
 20
-8.13687004E+00
 11
8.95419740E+01
 21
-1.23968694E+01
  0
LINE
  8
0
 62
4
 10
8.95466907E+01
 20
-2.08868681E+01
 11
8.95490518E+01
 21
-2.51368674E+01
  0
LINE
  8
0
 62
4
 10
9.50466898E+01
 20
-2.08838125E+01
 11
9.50490509E+01
 21
-2.51338119E+01
  0
LINE
  8
0
 62
4
 10
9.50396065E+01
 20
-8.13381449E+00
 11
9.50419732E+01
 21
-1.23938138E+01
  0
LINE
  8
0
 62
4
 10
9.67896062E+01
 20
-8.13284226E+00
 11
9.67990507E+01
 21
-2.51328396E+01
  0
CIRCLE
  8
0
 62
6
 10
9.22893261E+01
 20
-1.66353559E+01
 40
2.64999962E+00
  0
LINE
  8
0
 62
4
 10
8.95419740E+01
 20
-1.23968694E+01
 11
9.50419732E+01
 21
-1.23938138E+01
  0
LINE
  8
0
 62
4
 10
8.95466907E+01
 20
-2.08868681E+01
 11
9.50466898E+01
 21
-2.08838125E+01
  0
CIRCLE
  8
0
 62
4
 10
9.22943291E+01
 20
-1.66353410E+01
 40
2.10000000E+00
  0
LINE
  8
0
  6
CENTER
 62
6
 10
9.22923569E+01
 20
-1.30853415E+01
 11
9.22963736E+01
 21
-2.03153404E+01
  0
LINE
  8
0
 62
4
 10
8.77896076E+01
 20
-8.13784226E+00
 11
9.67896062E+01
 21
-8.13284226E+00
  0
LINE
  8
0
 62
4
 10
8.77990520E+01
 20
-2.51378396E+01
 11
9.67990507E+01
 21
-2.51328396E+01
  0
LINE
  8
0
 62
4
 10
1.09294537E+02
 20
-1.23978410E+01
 11
1.09294537E+02
 21
-2.08878410E+01
  0
LINE
  8
0
 62
4
 10
1.26294537E+02
 20
-1.23978410E+01
 11
1.26294537E+02
 21
-2.08878410E+01
  0
LINE
  8
0
  6
CENTER
 62
6
 10
1.06944537E+02
 20
-1.66378410E+01
 11
1.28994537E+02
 21
-1.66378410E+01
  0
LINE
  8
0
  6
CENTER
 62
6
 10
1.17794537E+02
 20
-5.78784095E+00
 11
1.17794537E+02
 21
-2.64378410E+01
  0
LINE
  8
0
 62
4
 10
1.13554537E+02
 20
-8.13784095E+00
 11
1.22034537E+02
 21
-8.13784095E+00
  0
LINE
  8
0
 62
4
 10
1.13554537E+02
 20
-2.51378410E+01
 11
1.22034537E+02
 21
-2.51378410E+01
  0
ARC
  8
0
 62
4
 10
1.17792037E+02
 20
-1.66403414E+01
 40
9.50217468E+00
 50
2.65178620E+01
 51
6.34821378E+01
  0
ARC
  8
0
 62
4
 10
1.17792050E+02
 20
-1.66353536E+01
 40
9.49548496E+00
 50
1.16504369E+02
 51
1.53495631E+02
  0
ARC
  8
0
 62
4
 10
1.17787050E+02
 20
-1.66353581E+01
 40
9.49770359E+00
 50
2.06598649E+02
 51
2.43536006E+02
  0
ARC
  8
0
 62
4
 10
1.17797046E+02
 20
-1.66303668E+01
 40
9.50439122E+00
 50
2.96477458E+02
 51
3.33387887E+02
  0
CIRCLE
  8
0
 62
4
 10
1.17789550E+02
 20
-1.66378532E+01
 40
8.50000000E+00
  0
ARC
  8
0
 62
4
 10
8.50431981E+01
 20
-6.34990571E+01
 40
7.72604249E+00
 50
3.41482564E+02
 51
1.85174358E+01
  0
ARC
  8
0
 62
4
 10
6.24650793E+01
 20
-5.61378404E+01
 40
3.03041613E+01
 50
3.50680441E+02
 51
9.31955892E+00
  0
ARC
  8
0
 62
4
 10
8.50431981E+01
 20
-4.87766248E+01
 40
7.72604249E+00
 50
3.41482564E+02
 51
1.85174358E+01
  0
ARC
  8
0
 62
4
 10
9.64952831E+01
 20
-6.34990571E+01
 40
7.72604249E+00
 50
1.61482564E+02
 51
1.98517436E+02
  0
ARC
  8
0
 62
4
 10
1.19073402E+02
 20
-5.61378404E+01
 40
3.03041613E+01
 50
1.70680441E+02
 51
1.89319559E+02
  0
ARC
  8
0
 62
4
 10
9.64952831E+01
 20
-4.87766248E+01
 40
7.72604249E+00
 50
1.61482564E+02
 51
1.98517436E+02
  0
LINE
  8
0
 62
4
 10
8.91692406E+01
 20
-4.63228860E+01
 11
9.23692406E+01
 21
-4.63228860E+01
  0
LINE
  8
0
 62
4
 10
8.91692407E+01
 20
-6.59527959E+01
 11
9.23692406E+01
 21
-6.59527959E+01
  0
LINE
  8
0
 62
4
 10
8.91692406E+01
 20
-6.10453173E+01
 11
9.23692406E+01
 21
-6.10453173E+01
  0
LINE
  8
0
 62
4
 10
8.91692406E+01
 20
-5.12303636E+01
 11
9.23692406E+01
 21
-5.12303636E+01
  0
LINE
  8
0
 62
4
 10
8.87692406E+01
 20
-6.21378429E+01
 11
8.68007729E+01
 21
-6.21378429E+01
  0
LINE
  8
0
 62
4
 10
8.87692406E+01
 20
-5.01378390E+01
 11
8.68007729E+01
 21
-5.01378390E+01
  0
LINE
  8
0
 62
6
 10
8.87692406E+01
 20
-5.07378394E+01
 11
8.83007729E+01
 21
-5.07378394E+01
  0
LINE
  8
0
 62
4
 10
9.48007586E+01
 20
-5.11378508E+01
 11
9.38007575E+01
 21
-5.01378497E+01
  0
LINE
  8
0
 62
6
 10
9.44007714E+01
 20
-6.15378425E+01
 11
9.27692406E+01
 21
-6.15378425E+01
  0
LINE
  8
0
 62
4
 10
9.27692406E+01
 20
-6.34990571E+01
 11
9.27692406E+01
 21
-4.87766248E+01
  0
LINE
  8
0
 62
4
 10
9.38007729E+01
 20
-5.01378390E+01
 11
9.27692406E+01
 21
-5.01378390E+01
  0
LINE
  8
0
 62
4
 10
8.87692406E+01
 20
-6.34990571E+01
 11
8.87692406E+01
 21
-4.87766248E+01
  0
LINE
  8
0
 62
4
 10
9.38007729E+01
 20
-6.21378429E+01
 11
9.27692406E+01
 21
-6.21378429E+01
  0
LINE
  8
0
 62
4
 10
9.38007500E+01
 20
-6.21378410E+01
 11
9.38007500E+01
 21
-5.01378410E+01
  0
LINE
  8
0
 62
4
 10
9.48007729E+01
 20
-5.11378643E+01
 11
9.48007729E+01
 21
-6.11378343E+01
  0
LINE
  8
0
 62
6
 10
9.44007714E+01
 20
-5.07378394E+01
 11
9.27692406E+01
 21
-5.07378394E+01
  0
LINE
  8
0
 62
6
 10
8.87692406E+01
 20
-6.15378425E+01
 11
8.83007729E+01
 21
-6.15378425E+01
  0
LINE
  8
0
 62
4
 10
9.48007667E+01
 20
-6.11378317E+01
 11
9.38007656E+01
 21
-6.21378328E+01
  0
LINE
  8
0
 62
4
 10
8.83007729E+01
 20
-6.21378429E+01
 11
8.83007729E+01
 21
-5.01378390E+01
  0
LINE
  8
0
  6
CENTER
 62
6
 10
5.59650936E+01
 20
-5.61378410E+01
 11
9.79076551E+01
 21
-5.61378410E+01
  0
LINE
  8
0
 62
4
 10
8.67976551E+01
 20
-4.76378410E+01
 11
8.67976551E+01
 21
-6.46378410E+01
  0
LINE
  8
0
 62
4
 10
7.95576551E+01
 20
-4.76378410E+01
 11
7.95576551E+01
 21
-5.18978410E+01
  0
LINE
  8
0
 62
4
 10
8.50476551E+01
 20
-4.76378410E+01
 11
8.50476551E+01
 21
-5.18978410E+01
  0
LINE
  8
0
 62
4
 10
7.95576551E+01
 20
-6.03878410E+01
 11
7.95576551E+01
 21
-6.46378410E+01
  0
LINE
  8
0
 62
4
 10
8.50476551E+01
 20
-6.03878410E+01
 11
8.50476551E+01
 21
-6.46378410E+01
  0
LINE
  8
0
 62
4
 10
7.78076551E+01
 20
-4.76378410E+01
 11
7.78076551E+01
 21
-6.46378410E+01
  0
ARC
  8
0
 62
4
 10
8.38205113E+01
 20
-5.61428410E+01
 40
6.01597604E+00
 50
1.35120251E+02
 51
2.24879748E+02
  0
CIRCLE
  8
0
 62
4
 10
8.23076551E+01
 20
-5.61378410E+01
 40
2.10000000E+00
  0
LINE
  8
0
 62
4
 10
7.95576551E+01
 20
-5.18978410E+01
 11
8.50476551E+01
 21
-5.18978410E+01
  0
LINE
  8
0
 62
4
 10
7.95576551E+01
 20
-6.03878410E+01
 11
8.50476551E+01
 21
-6.03878410E+01
  0
LINE
  8
0
  6
CENTER
 62
6
 10
8.23076551E+01
 20
-5.25878410E+01
 11
8.23076551E+01
 21
-5.98178410E+01
  0
CIRCLE
  8
0
 62
6
 10
8.23026551E+01
 20
-5.61378532E+01
 40
2.64999962E+00
  0
ARC
  8
0
 62
4
 10
8.07847989E+01
 20
-5.61428410E+01
 40
6.01597604E+00
 50
3.15120252E+02
 51
4.48797486E+01
  0
LINE
  8
0
 62
4
 10
7.78076551E+01
 20
-4.76378410E+01
 11
8.67976551E+01
 21
-4.76378410E+01
  0
LINE
  8
0
 62
4
 10
7.78076551E+01
 20
-6.46378410E+01
 11
8.67976551E+01
 21
-6.46378410E+01
  0
LINE
  8
0
 62
4
 10
1.20072108E+02
 20
-6.46378410E+01
 11
1.22034537E+02
 21
-6.46378410E+01
  0
LINE
  8
0
 62
4
 10
1.20072108E+02
 20
-4.76378410E+01
 11
1.22034537E+02
 21
-4.76378410E+01
  0
CIRCLE
  8
0
 62
4
 10
1.17794537E+02
 20
-5.61378410E+01
 40
6.00000000E+00
  0
CIRCLE
  8
0
 62
6
 10
1.17794537E+02
 20
-5.61378410E+01
 40
5.40000153E+00
  0
LINE
  8
0
 62
4
 10
1.17794539E+02
 20
-4.63228857E+01
 11
1.26294540E+02
 21
-5.12303640E+01
  0
LINE
  8
0
 62
4
 10
1.09294539E+02
 20
-5.12303643E+01
 11
1.17794540E+02
 21
-4.63228860E+01
  0
LINE
  8
0
 62
4
 10
1.09294539E+02
 20
-6.10453173E+01
 11
1.17794540E+02
 21
-6.59527956E+01
  0
LINE
  8
0
 62
4
 10
1.17794539E+02
 20
-6.59527959E+01
 11
1.26294540E+02
 21
-6.10453176E+01
  0
LINE
  8
0
  6
CENTER
 62
6
 10
1.17794537E+02
 20
-4.52878410E+01
 11
1.17794537E+02
 21
-6.59378410E+01
  0
LINE
  8
0
 62
4
 10
1.09294537E+02
 20
-5.12303652E+01
 11
1.09294537E+02
 21
-6.10453164E+01
  0
LINE
  8
0
 62
4
 10
1.26294537E+02
 20
-5.12303622E+01
 11
1.26294537E+02
 21
-6.10453194E+01
  0
LINE
  8
0
  6
CENTER
 62
6
 10
1.06944537E+02
 20
-5.61378410E+01
 11
1.28994537E+02
 21
-5.61378410E+01
  0
LINE
  8
0
 62
4
 10
1.13554537E+02
 20
-4.76378410E+01
 11
1.15516972E+02
 21
-4.76378410E+01
  0
LINE
  8
0
 62
4
 10
1.13554537E+02
 20
-6.46378410E+01
 11
1.15516972E+02
 21
-6.46378410E+01
  0
ARC
  8
0
 62
4
 10
1.17797031E+02
 20
-5.61353475E+01
 40
9.49547678E+00
 50
3.34833269E+01
 51
6.34956470E+01
  0
ARC
  8
0
 62
4
 10
1.17797044E+02
 20
-5.61403475E+01
 40
9.50218287E+00
 50
1.16517879E+02
 51
1.46505503E+02
  0
ARC
  8
0
 62
4
 10
1.17792035E+02
 20
-5.61303607E+01
 40
9.50439941E+00
 50
2.13492055E+02
 51
2.43522525E+02
  0
ARC
  8
0
 62
4
 10
1.17802031E+02
 20
-5.61353642E+01
 40
9.49769541E+00
 50
2.96463977E+02
 51
3.26519125E+02
  0
CIRCLE
  8
0
 62
7
 10
1.17794537E+02
 20
-5.61378410E+01
 40
8.50000000E+00
  0
LINE
  8
0
 62
7
 10
7.06613771E+01
 20
-8.13784095E+00
 11
8.77943298E+01
 21
-8.13784095E+00
  0
LINE
  8
0
 62
7
 10
6.47694919E+01
 20
-4.76378410E+01
 11
7.78045373E+01
 21
-4.76378410E+01
  0
LINE
  8
0
 62
6
 10
5.49545373E+01
 20
-6.46378410E+01
 11
6.47694919E+01
 21
-4.76378410E+01
  0
LINE
  8
0
 62
7
 10
5.49545373E+01
 20
-6.46378410E+01
 11
7.78045373E+01
 21
-6.46378410E+01
  0
LINE
  8
0
 62
6
 10
6.08464225E+01
 20
-2.51378410E+01
 11
7.06613771E+01
 21
-8.13784095E+00
  0
LINE
  8
0
 62
7
 10
6.08464225E+01
 20
-2.51378410E+01
 11
8.77943298E+01
 21
-2.51378410E+01
  0
TEXT
  8
0
 62
7
 10
-1.03849994E+02
 20
-8.24000031E+01
 40
3.20000005E+00
  1
5
 41
1.00000000E+00
  7
MONOTXT
  0
TEXT
  8
0
 62
7
 10
-1.07049994E+02
 20
-8.84000031E+01
 40
3.20000005E+00
  1
-25
 41
1.00000000E+00
  7
MONOTXT
  0
TEXT
  8
0
 62
7
 10
-9.58499939E+01
 20
-8.24000031E+01
 40
3.20000005E+00
  1
10
 41
1.00000000E+00
  7
MONOTXT
  0
TEXT
  8
0
 62
7
 10
-9.74499940E+01
 20
-8.84000031E+01
 40
3.20000005E+00
  1
-20
 41
1.00000000E+00
  7
MONOTXT
  0
TEXT
  8
0
 62
7
 10
-8.62499939E+01
 20
-8.24000031E+01
 40
3.20000005E+00
  1
15
 41
1.00000000E+00
  7
MONOTXT
  0
TEXT
  8
0
 62
7
 10
-8.78499940E+01
 20
-8.84000031E+01
 40
3.20000005E+00
  1
-15
 41
1.00000000E+00
  7
MONOTXT
  0
TEXT
  8
0
 62
7
 10
-7.50499939E+01
 20
-8.84000031E+01
 40
3.20000005E+00
  1
0
 41
1.00000000E+00
  7
MONOTXT
  0
TEXT
  8
0
 62
7
 10
-6.70499939E+01
 20
-8.84000031E+01
 40
3.20000005E+00
  1
15
 41
1.00000000E+00
  7
MONOTXT
  0
TEXT
  8
0
 62
7
 10
-5.74499939E+01
 20
-8.84000031E+01
 40
3.20000005E+00
  1
30
 41
1.00000000E+00
  7
MONOTXT
  0
TEXT
  8
0
 62
7
 10
-1.10313141E+02
 20
-7.57181748E+01
 40
3.20000005E+00
  1
STRETCH LIST
 41
1.05263158E+00
  7
MONOTXT
  0
TEXT
  8
0
 62
7
 10
-6.04841752E+01
 20
-7.58912073E+01
 40
3.20000005E+00
  1
(mm)
 41
1.00000000E+00
  7
MONOTXT
  0
TEXT
  8
0
 62
7
 10
-1.31249994E+02
 20
-8.84000031E+01
 40
3.20000005E+00
  1
STRETCH
 41
1.00000000E+00
  7
MONOTXT
  0
TEXT
  8
0
 62
7
 10
-1.29649994E+02
 20
-8.24000031E+01
 40
3.20000005E+00
  1
STROKE
 41
1.00000000E+00
  7
MONOTXT
  0
TEXT
  8
0
 62
7
 10
-5.74499939E+01
 20
-8.24000031E+01
 40
3.20000005E+00
  1
60
 41
1.00000000E+00
  7
MONOTXT
  0
LINE
  8
0
 62
7
 10
-4.97999939E+01
 20
-8.98000031E+01
 11
-4.97999939E+01
 21
-7.78000031E+01
  0
TEXT
  8
0
 62
7
 10
-6.70499939E+01
 20
-8.24000031E+01
 40
3.20000005E+00
  1
45
 41
1.00000000E+00
  7
MONOTXT
  0
LINE
  8
0
 62
7
 10
-5.93999939E+01
 20
-8.98000031E+01
 11
-5.93999939E+01
 21
-7.78000031E+01
  0
TEXT
  8
0
 62
7
 10
-7.66499939E+01
 20
-8.24000031E+01
 40
3.20000005E+00
  1
30
 41
1.00000000E+00
  7
MONOTXT
  0
LINE
  8
0
 62
7
 10
-6.89999939E+01
 20
-8.98000031E+01
 11
-6.89999939E+01
 21
-7.78000031E+01
  0
TEXT
  8
0
 62
7
 10
-8.62499939E+01
 20
-8.24000031E+01
 40
3.20000005E+00
  1
15
 41
1.00000000E+00
  7
MONOTXT
  0
LINE
  8
0
 62
7
 10
-7.85999939E+01
 20
-8.98000031E+01
 11
-7.85999939E+01
 21
-7.78000031E+01
  0
TEXT
  8
0
 62
7
 10
-9.58499939E+01
 20
-8.24000031E+01
 40
3.20000005E+00
  1
10
 41
1.00000000E+00
  7
MONOTXT
  0
LINE
  8
0
 62
7
 10
-8.81999939E+01
 20
-8.98000031E+01
 11
-8.81999939E+01
 21
-7.78000031E+01
  0
TEXT
  8
0
 62
7
 10
-1.03849994E+02
 20
-8.24000031E+01
 40
3.20000005E+00
  1
5
 41
1.00000000E+00
  7
MONOTXT
  0
LINE
  8
0
 62
7
 10
-1.33399994E+02
 20
-7.78000031E+01
 11
-4.97999939E+01
 21
-7.78000031E+01
  0
LINE
  8
0
 62
7
 10
-9.77999939E+01
 20
-8.98000031E+01
 11
-9.77999939E+01
 21
-7.78000031E+01
  0
LINE
  8
0
 62
7
 10
-1.07399994E+02
 20
-8.98000031E+01
 11
-1.07399994E+02
 21
-7.78000031E+01
  0
LINE
  8
0
 62
7
 10
-1.33399994E+02
 20
-8.38000031E+01
 11
-4.97999939E+01
 21
-8.38000031E+01
  0
LINE
  8
0
 62
7
 10
-1.33399994E+02
 20
-8.98000031E+01
 11
-1.33399994E+02
 21
-7.78000031E+01
  0
LINE
  8
0
 62
7
 10
-1.33399994E+02
 20
-8.98000031E+01
 11
-4.97999939E+01
 21
-8.98000031E+01
  0
TEXT
  8
0
 10
4.56350648E+00
 20
6.89918126E+01
 40
3.20000005E+00
  1
STRETCH LINE
 41
1.05263158E+00
  7
MONOTXT
  0
LINE
  8
0
 62
7
 10
-1.38399994E+02
 20
9.45000000E+01
 11
1.38350006E+02
 21
9.45000000E+01
  0
LINE
  8
0
 62
7
 10
1.38350006E+02
 20
9.45000000E+01
 11
1.38350006E+02
 21
-9.48000031E+01
  0
LINE
  8
0
 62
7
 10
-1.38399994E+02
 20
-9.48000031E+01
 11
1.38350006E+02
 21
-9.48000031E+01
  0
LINE
  8
0
 62
7
 10
-1.38399994E+02
 20
9.45000000E+01
 11
-1.38399994E+02
 21
-9.48000031E+01
  0
LINE
  8
0
 62
7
 10
7.33500061E+01
 20
-8.48000031E+01
 11
1.38350006E+02
 21
-8.48000031E+01
  0
LINE
  8
0
 62
7
 10
-1.38399994E+02
 20
8.45000000E+01
 11
-7.33999939E+01
 21
8.45000000E+01
  0
LINE
  8
0
 62
7
 10
7.33500061E+01
 20
8.45000000E+01
 11
1.38350006E+02
 21
8.45000000E+01
  0
LINE
  8
0
 62
7
 10
7.33500061E+01
 20
-8.48000031E+01
 11
7.33500061E+01
 21
-9.48000031E+01
  0
LINE
  8
0
 62
7
 10
7.33500061E+01
 20
9.45000000E+01
 11
7.33500061E+01
 21
8.45000000E+01
  0
LINE
  8
0
 62
7
 10
-7.33999939E+01
 20
9.45000000E+01
 11
-7.33999939E+01
 21
8.45000000E+01
  0
TEXT
  8
0
 62
7
 10
7.72426624E+01
 20
-9.20500031E+01
 40
4.50000000E+00
  1
KOGANEI CORP.
 41
1.04838710E+00
  7
MONOTXT
  0
TEXT
  8
0
 62
7
 10
9.35071493E+01
 20
8.79000001E+01
 40
3.19999981E+00
  1
Ver. 1.0
 41
1.08108108E+00
  7
MONOTXT
  0
TEXT
  8
0
 62
7
 10
-1.31042850E+02
 20
8.79000001E+01
 40
3.19999981E+00
  1
NEW PEN CYLINDER
 41
1.08108108E+00
  7
MONOTXT
  0
TEXT
  8
0
 62
7
 10
-1.29085994E+02
 20
7.29000000E+01
 40
3.20000005E+00
  1
MODEL:PBDALS16*ST(30)-ZC230
 41
1.00000000E+00
  7
MONOTXT
  0
ENDSEC
  0
EOF
