  0
SECTION
  2
HEADER
  9
$ACADVER
  1
AC1003
  9
$EXTMIN
 10
-1.38399994E+02
 20
-9.48000031E+01
  9
$EXTMAX
 10
1.38350006E+02
 20
9.45000000E+01
  9
$LIMMIN
 10
-1.38400994E+02
 20
-9.48010031E+01
  9
$LIMMAX
 10
1.38351006E+02
 20
9.45010000E+01
  9
$SNAPUNIT
 10
1
 20
1
  9
$SNAPBASE
 10
0
 20
0
  9
$GRIDMODE
 70
0
  9
$GRIDUNIT
 10
0
 20
0
  9
$LTSCALE
 40
4.61250000E+00
  9
$TEXTSIZE
 40
3.2
  9
$DIMTAD
 70
0
  9
$LUNITS
 70
2
  9
$LUPREC
 70
4
  9
$FILLETRAD
 40
0
  9
$AUNITS
 70
0
  9
$AUPREC
 70
0
  0
ENDSEC
  0
SECTION
  2
TABLES
  0
TABLE
  2
LTYPE
 70
2
  0
LTYPE
  2
CONTINUOUS
 70
64
  3
Solid-Line
 72
65
 73
0
 40
0
  0
LTYPE
  2
DASHED
 70
64
  3
DASHED
 72
65
 73
2
 40
.75
 49
.5
 49
-.25
  0
LTYPE
  2
HIDDEN
 70
64
  3
HIDDEN
 72
65
 73
2
 40
.375
 49
.25
 49
-.125
  0
LTYPE
  2
CENTER
 70
64
  3
CENTER
 72
65
 73
4
 40
2
 49
1.25
 49
-.25
 49
.25
 49
-.25
  0
LTYPE
  2
PHANTOM
 70
64
  3
PHANTOM
 72
65
 73
6
 40
2.5
 49
1.25
 49
-.25
 49
.25
 49
-.25
 49
.25
 49
-.25
  0
ENDTAB
  0
TABLE
  2
LAYER
 70
1
  0
LAYER
  2
0
 70
0
 62
3
  6
CONTINUOUS
 0
ENDTAB
  0
TABLE
  2
STYLE
 70
2
  0
STYLE
  2
MONOTXT
 70
0
 40
0
 41
1
 50
0
 71
0
 42
.2
  3
monotxt
  0
STYLE
  2
BIGFONT
 70
0
 40
0
 41
1
 50
0
 71
0
 42
.2
  3
txt
  4
bigfont
  0
ENDTAB
  0
ENDSEC
  0
SECTION
  2
ENTITIES
  0
LINE
  8
0
  6
PHANTOM
 10
1.24826032E+01
 20
5.86706038E+00
 11
1.24826032E+01
 21
3.46585819E+01
  0
LINE
  8
0
  6
CENTER
 62
6
 10
2.89943364E+01
 20
3.81041957E+01
 11
2.89943364E+01
 21
1.06741957E+01
  0
LINE
  8
0
  6
CENTER
 62
6
 10
-1.30056655E+01
 20
3.81041957E+01
 11
-1.30056655E+01
 21
1.06741957E+01
  0
LINE
  8
0
  6
CENTER
 62
2
 10
-7.05056578E+01
 20
1.80941957E+01
 11
6.67575854E+01
 21
1.80941957E+01
  0
LINE
  8
0
 62
2
 10
-6.81556778E+01
 20
1.64441957E+01
 11
-6.39289900E+01
 21
1.64441957E+01
  0
LINE
  8
0
 62
2
 10
-6.07289855E+01
 20
1.64441957E+01
 11
-5.35056578E+01
 21
1.64441957E+01
  0
LINE
  8
0
 62
2
 10
-6.07289855E+01
 20
1.97441957E+01
 11
-5.35056578E+01
 21
1.97441957E+01
  0
LINE
  8
0
 62
2
 10
-6.81556778E+01
 20
1.97441957E+01
 11
-6.39289900E+01
 21
1.97441957E+01
  0
TEXT
  8
0
 62
7
 10
-5.34746865E+00
 20
1.38441957E+01
 40
1.50000000E+00
  1
PBDALS10-7
 41
1.00000000E+00
  7
MONOTXT
  0
LINE
  8
0
  6
CENTER
 62
2
 10
4.59994818E+01
 20
2.24332888E+01
 11
4.59994818E+01
 21
2.57784955E+01
  0
LINE
  8
0
  6
CENTER
 62
2
 10
-3.20056540E+01
 20
2.16807646E+01
 11
-3.20056540E+01
 21
2.91033758E+01
  0
LINE
  8
0
 62
7
 10
-8.50566546E+00
 20
1.25941957E+01
 11
2.44943364E+01
 21
1.25941957E+01
  0
LINE
  8
0
 62
7
 10
-6.00566546E+00
 20
2.35941957E+01
 11
2.19943364E+01
 21
2.35941957E+01
  0
LINE
  8
0
 62
7
 10
3.34943364E+01
 20
1.25941957E+01
 11
4.14943364E+01
 21
1.25941957E+01
  0
LINE
  8
0
 62
7
 10
3.59943364E+01
 20
2.35941957E+01
 11
4.14943364E+01
 21
2.35941957E+01
  0
CIRCLE
  8
0
 62
7
 10
5.84943364E+01
 20
1.80941957E+01
 40
1.60000000E+00
  0
LINE
  8
0
 62
7
 10
4.32243354E+01
 20
1.44865441E+01
 11
4.32243354E+01
 21
1.20920958E+01
  0
LINE
  8
0
 62
7
 10
4.32243355E+01
 20
2.16976484E+01
 11
4.32243355E+01
 21
2.40920958E+01
  0
ARC
  8
0
 62
7
 10
4.61165632E+01
 20
1.80920958E+01
 40
4.62222719E+00
 50
1.28735173E+02
 51
1.63638068E+02
  0
ARC
  8
0
 62
7
 10
5.88721097E+01
 20
1.80920958E+01
 40
4.62222719E+00
 50
3.08735172E+02
 51
5.12648283E+01
  0
ARC
  8
0
 62
7
 10
-5.18880126E+01
 20
1.62755426E+01
 40
6.17644012E-01
 50
7.89619728E+01
 51
1.98961976E+02
  0
ARC
  8
0
 62
7
 10
-5.18880126E+01
 20
1.99128508E+01
 40
6.17644012E-01
 50
1.61038020E+02
 51
2.81038023E+02
  0
ARC
  8
0
 62
7
 10
-3.60056655E+01
 20
1.80941957E+01
 40
8.50000000E+00
 50
3.25439676E+02
 51
3.45603235E+01
  0
ARC
  8
0
 62
7
 10
-3.20056655E+01
 20
1.80941957E+01
 40
8.50000000E+00
 50
1.45439685E+02
 51
2.14560325E+02
  0
ARC
  8
0
 62
7
 10
-5.11389281E+01
 20
1.80941957E+01
 40
1.36672843E+00
 50
1.17487955E+02
 51
2.42512041E+02
  0
ARC
  8
0
 62
4
 10
-6.22923857E+01
 20
2.11252855E+01
 40
1.56340027E+00
 50
3.19739791E+02
 51
4.02602086E+01
  0
ARC
  8
0
 62
4
 10
-6.23655898E+01
 20
1.50631079E+01
 40
1.56340027E+00
 50
1.39739796E+02
 51
2.20260214E+02
  0
ARC
  8
0
 62
4
 10
-6.22923857E+01
 20
1.50631079E+01
 40
1.56340027E+00
 50
3.19739791E+02
 51
4.02602086E+01
  0
ARC
  8
0
 62
4
 10
-6.23655898E+01
 20
2.11252855E+01
 40
1.56340027E+00
 50
1.39739796E+02
 51
2.20260214E+02
  0
ARC
  8
0
 62
4
 10
-6.64270751E+01
 20
1.80941957E+01
 40
5.69808722E+00
 50
3.39229087E+02
 51
2.07709126E+01
  0
ARC
  8
0
 62
4
 10
-5.82309004E+01
 20
1.80941957E+01
 40
5.69808722E+00
 50
1.59229086E+02
 51
2.00770911E+02
  0
LINE
  8
0
 62
7
 10
6.17643369E+01
 20
1.44865450E+01
 11
6.17643369E+01
 21
1.20920958E+01
  0
LINE
  8
0
 62
7
 10
4.32243355E+01
 20
1.44865450E+01
 11
6.17643379E+01
 21
1.44865450E+01
  0
LINE
  8
0
 62
7
 10
4.14943364E+01
 20
1.20920958E+01
 11
6.34943364E+01
 21
1.20920958E+01
  0
LINE
  8
0
 62
7
 10
4.14943364E+01
 20
2.40920958E+01
 11
6.34943364E+01
 21
2.40920958E+01
  0
LINE
  8
0
 62
7
 10
4.32243355E+01
 20
2.16976484E+01
 11
6.17643379E+01
 21
2.16976484E+01
  0
LINE
  8
0
 62
7
 10
6.17643369E+01
 20
2.40920958E+01
 11
6.17643369E+01
 21
2.16976484E+01
  0
LINE
  8
0
 62
7
 10
6.34943364E+01
 20
1.20920958E+01
 11
6.34943364E+01
 21
2.40920958E+01
  0
LINE
  8
0
  6
CENTER
 62
2
 10
5.84943364E+01
 20
2.13788687E+01
 11
5.84943364E+01
 21
1.50388008E+01
  0
LINE
  8
0
 62
7
 10
-4.77056624E+01
 20
2.30941957E+01
 11
-4.05056655E+01
 21
2.30941957E+01
  0
LINE
  8
0
 62
7
 10
-6.78056609E+01
 20
2.00941957E+01
 11
-6.39289900E+01
 21
2.00941957E+01
  0
LINE
  8
0
 62
7
 10
-2.90056655E+01
 20
1.32723707E+01
 11
-2.90056655E+01
 21
1.10941957E+01
  0
LINE
  8
0
 62
7
 10
-2.90056655E+01
 20
2.50941957E+01
 11
-2.90056655E+01
 21
2.29160227E+01
  0
LINE
  8
0
 62
7
 10
-3.90056655E+01
 20
1.32723707E+01
 11
-3.90056655E+01
 21
1.10941957E+01
  0
LINE
  8
0
 62
7
 10
-3.90056655E+01
 20
2.50941957E+01
 11
-3.90056655E+01
 21
2.29160227E+01
  0
LINE
  8
0
 62
7
 10
-3.90056655E+01
 20
1.32723707E+01
 11
-2.90056655E+01
 21
1.32723707E+01
  0
LINE
  8
0
 62
7
 10
-3.90056655E+01
 20
2.29160227E+01
 11
-2.90056655E+01
 21
2.29160227E+01
  0
LINE
  8
0
 62
7
 10
-5.17697646E+01
 20
1.56693243E+01
 11
-4.85056578E+01
 21
1.56693243E+01
  0
LINE
  8
0
 62
7
 10
-5.25056551E+01
 20
1.60941931E+01
 11
-5.17697595E+01
 21
1.56693235E+01
  0
LINE
  8
0
 62
7
 10
-5.25056574E+01
 20
2.00941973E+01
 11
-5.17697618E+01
 21
2.05190668E+01
  0
LINE
  8
0
 62
7
 10
-5.25056578E+01
 20
2.00941957E+01
 11
-5.25056578E+01
 21
1.60941957E+01
  0
LINE
  8
0
 62
7
 10
-5.17697646E+01
 20
1.68817610E+01
 11
-4.85056578E+01
 21
1.68817610E+01
  0
LINE
  8
0
 62
7
 10
-5.17697646E+01
 20
1.93066324E+01
 11
-4.85056578E+01
 21
1.93066324E+01
  0
LINE
  8
0
 62
7
 10
-5.17697646E+01
 20
2.05190672E+01
 11
-4.85056578E+01
 21
2.05190672E+01
  0
LINE
  8
0
 62
7
 10
-4.05056655E+01
 20
1.10941957E+01
 11
-2.75056655E+01
 21
1.10941957E+01
  0
LINE
  8
0
 62
7
 10
-4.77056624E+01
 20
1.30941977E+01
 11
-4.05056655E+01
 21
1.30941977E+01
  0
LINE
  8
0
 62
2
 10
-4.82056624E+01
 20
1.35941977E+01
 11
-4.20056655E+01
 21
1.35941977E+01
  0
LINE
  8
0
 62
7
 10
-4.77056656E+01
 20
1.30941955E+01
 11
-4.85056654E+01
 21
1.38941953E+01
  0
LINE
  8
0
 62
2
 10
-4.82056624E+01
 20
2.25941957E+01
 11
-4.20056655E+01
 21
2.25941957E+01
  0
LINE
  8
0
 62
7
 10
-4.05056655E+01
 20
2.50941957E+01
 11
-2.75056655E+01
 21
2.50941957E+01
  0
LINE
  8
0
 62
4
 10
-6.10993222E+01
 20
1.40527409E+01
 11
-6.07289800E+01
 21
1.46941925E+01
  0
LINE
  8
0
 62
4
 10
-6.39289908E+01
 20
1.46941928E+01
 11
-6.35586486E+01
 21
1.40527412E+01
  0
LINE
  8
0
 62
4
 10
-6.10993307E+01
 20
2.21356525E+01
 11
-6.07289884E+01
 21
2.14942009E+01
  0
LINE
  8
0
 62
4
 10
-6.39289796E+01
 20
2.14941902E+01
 11
-6.35586373E+01
 21
2.21356418E+01
  0
LINE
  8
0
 62
7
 10
-6.07289855E+01
 20
1.60941957E+01
 11
-5.25056578E+01
 21
1.60941957E+01
  0
LINE
  8
0
 62
4
 10
-6.35586440E+01
 20
1.40527433E+01
 11
-6.10993315E+01
 21
1.40527433E+01
  0
LINE
  8
0
 62
4
 10
-6.35586440E+01
 20
2.21356482E+01
 11
-6.10993315E+01
 21
2.21356482E+01
  0
LINE
  8
0
 62
4
 10
-6.35586440E+01
 20
1.60734705E+01
 11
-6.10993315E+01
 21
1.60734705E+01
  0
LINE
  8
0
 62
4
 10
-6.35586440E+01
 20
2.01149229E+01
 11
-6.10993315E+01
 21
2.01149229E+01
  0
LINE
  8
0
 62
7
 10
-6.07289855E+01
 20
2.00941957E+01
 11
-5.25056578E+01
 21
2.00941957E+01
  0
LINE
  8
0
 62
4
 10
-6.39289900E+01
 20
2.14941973E+01
 11
-6.39289900E+01
 21
1.46941961E+01
  0
LINE
  8
0
 62
4
 10
-6.07289855E+01
 20
2.14941973E+01
 11
-6.07289855E+01
 21
1.46941961E+01
  0
LINE
  8
0
 62
7
 10
-6.85056578E+01
 20
1.93941969E+01
 11
-6.85056578E+01
 21
1.67941965E+01
  0
LINE
  8
0
 62
7
 10
-6.85056677E+01
 20
1.67941943E+01
 11
-6.78056658E+01
 21
1.60941924E+01
  0
LINE
  8
0
 62
7
 10
-6.78056609E+01
 20
2.00941957E+01
 11
-6.78056609E+01
 21
1.60941957E+01
  0
LINE
  8
0
 62
7
 10
-5.35056578E+01
 20
2.00941957E+01
 11
-5.35056578E+01
 21
1.60941957E+01
  0
LINE
  8
0
 62
7
 10
-6.78056609E+01
 20
1.60941957E+01
 11
-6.39289900E+01
 21
1.60941957E+01
  0
LINE
  8
0
 62
7
 10
-6.78056714E+01
 20
2.00942023E+01
 11
-6.85056732E+01
 21
1.93942004E+01
  0
LINE
  8
0
 62
7
 10
-4.77056636E+01
 20
2.30941943E+01
 11
-4.85056634E+01
 21
2.22941944E+01
  0
LINE
  8
0
 62
7
 10
-4.20056655E+01
 20
2.30941957E+01
 11
-4.20056655E+01
 21
1.30941977E+01
  0
LINE
  8
0
 62
7
 10
-4.77056624E+01
 20
2.30941957E+01
 11
-4.77056624E+01
 21
1.30941977E+01
  0
LINE
  8
0
 62
7
 10
-4.05056655E+01
 20
2.50941957E+01
 11
-4.05056655E+01
 21
1.10941957E+01
  0
LINE
  8
0
 62
7
 10
-4.85056578E+01
 20
2.22941984E+01
 11
-4.85056578E+01
 21
1.38941950E+01
  0
LINE
  8
0
 62
7
 10
-2.75056655E+01
 20
2.50941957E+01
 11
-2.75056655E+01
 21
1.10941957E+01
  0
LINE
  8
0
 62
7
 10
-2.75056655E+01
 20
2.35941957E+01
 11
-2.00056655E+01
 21
2.35941957E+01
  0
LINE
  8
0
 62
7
 10
-2.75056655E+01
 20
1.25941957E+01
 11
-1.75056655E+01
 21
1.25941957E+01
  0
ARC
  8
0
 62
7
 10
4.61165632E+01
 20
1.80920958E+01
 40
4.62222719E+00
 50
1.87411939E+02
 51
2.31264823E+02
  0
LINE
  8
0
 62
7
 10
4.14943364E+01
 20
1.20920958E+01
 11
4.14943364E+01
 21
2.40920958E+01
  0
LINE
  8
0
 62
4
 10
2.49433453E+00
 20
2.50941957E+01
 11
4.83133362E+00
 21
2.50941957E+01
  0
LINE
  8
0
 62
4
 10
2.49433453E+00
 20
2.76941957E+01
 11
7.43133362E+00
 21
2.76941957E+01
  0
LINE
  8
0
 62
4
 10
-8.50566546E+00
 20
2.65941957E+01
 11
-8.50566546E+00
 21
3.30941957E+01
  0
LINE
  8
0
 62
4
 10
-1.75056655E+01
 20
2.65941957E+01
 11
-1.75056655E+01
 21
3.30941957E+01
  0
LINE
  8
0
 62
4
 10
-6.00566546E+00
 20
2.83941957E+01
 11
-5.05665460E-01
 21
2.83941957E+01
  0
LINE
  8
0
 62
4
 10
-6.00566546E+00
 20
2.43941957E+01
 11
-5.05665460E-01
 21
2.43941957E+01
  0
LINE
  8
0
 62
4
 10
-2.00056655E+01
 20
2.61941957E+01
 11
-2.00056655E+01
 21
2.30941957E+01
  0
LINE
  8
0
 62
4
 10
-6.00566546E+00
 20
2.61941957E+01
 11
-6.00566546E+00
 21
2.30941957E+01
  0
LINE
  8
0
 62
4
 10
-1.75056655E+01
 20
2.65941957E+01
 11
-8.50566546E+00
 21
2.65941957E+01
  0
LINE
  8
0
 62
4
 10
-8.50566546E+00
 20
2.61941957E+01
 11
-6.00566547E+00
 21
2.61941957E+01
  0
LINE
  8
0
 62
4
 10
-8.50566546E+00
 20
2.93941957E+01
 11
-6.00566547E+00
 21
2.93941957E+01
  0
LINE
  8
0
 62
4
 10
-2.00056655E+01
 20
2.93941957E+01
 11
-1.75056655E+01
 21
2.93941957E+01
  0
LINE
  8
0
 62
4
 10
-2.00056655E+01
 20
2.65941957E+01
 11
-1.75056655E+01
 21
2.65941957E+01
  0
LINE
  8
0
 62
4
 10
-2.00056655E+01
 20
2.61941957E+01
 11
-1.75056655E+01
 21
2.61941957E+01
  0
LINE
  8
0
 62
4
 10
-2.00056655E+01
 20
2.83941957E+01
 11
-2.45056655E+01
 21
2.83941957E+01
  0
LINE
  8
0
 62
4
 10
-8.50566546E+00
 20
2.65941957E+01
 11
-8.50566546E+00
 21
1.24441957E+01
  0
LINE
  8
0
 62
4
 10
-1.75056655E+01
 20
2.65941957E+01
 11
-1.75056655E+01
 21
1.24441957E+01
  0
LINE
  8
0
 62
4
 10
-8.50566546E+00
 20
2.65941957E+01
 11
-6.00566546E+00
 21
2.65941957E+01
  0
LINE
  8
0
 62
4
 10
-1.75056655E+01
 20
1.24441957E+01
 11
-8.50566546E+00
 21
1.24441957E+01
  0
LINE
  8
0
 62
4
 10
-2.55056655E+01
 20
2.73941957E+01
 11
-2.55056655E+01
 21
2.53941957E+01
  0
LINE
  8
0
 62
4
 10
-2.45056655E+01
 20
2.43941957E+01
 11
-2.00056655E+01
 21
2.43941957E+01
  0
LINE
  8
0
 62
4
 10
-2.45056655E+01
 20
2.83941957E+01
 11
-2.45056655E+01
 21
2.43941957E+01
  0
LINE
  8
0
 62
4
 10
-2.55056655E+01
 20
2.73941957E+01
 11
-2.45056655E+01
 21
2.83941957E+01
  0
LINE
  8
0
 62
4
 10
-2.55056655E+01
 20
2.53941957E+01
 11
-2.45056655E+01
 21
2.43941957E+01
  0
LINE
  8
0
 62
4
 10
-6.00566546E+00
 20
2.93941957E+01
 11
-6.00566546E+00
 21
2.65941957E+01
  0
LINE
  8
0
 62
4
 10
-2.00056655E+01
 20
2.93941957E+01
 11
-2.00056655E+01
 21
2.65941957E+01
  0
LINE
  8
0
 62
4
 10
-2.00056655E+01
 20
2.30941957E+01
 11
-1.75056655E+01
 21
2.30941957E+01
  0
LINE
  8
0
 62
4
 10
-8.50566546E+00
 20
2.30941957E+01
 11
-6.00566546E+00
 21
2.30941957E+01
  0
LINE
  8
0
 62
4
 10
-5.05665460E-01
 20
2.43941957E+01
 11
2.49433453E+00
 21
2.50941957E+01
  0
LINE
  8
0
 62
4
 10
-5.05665460E-01
 20
2.83941957E+01
 11
2.49433454E+00
 21
2.76941957E+01
  0
LINE
  8
0
 62
4
 10
-5.05665460E-01
 20
2.83941957E+01
 11
-5.05665460E-01
 21
2.43941957E+01
  0
LINE
  8
0
 62
4
 10
2.49433454E+00
 20
2.76941957E+01
 11
2.49433454E+00
 21
2.50941957E+01
  0
ARC
  8
0
 62
4
 10
-1.15073311E+01
 20
3.45925301E+01
 40
1.00166704E+00
 50
9.52762946E-02
 51
8.99047236E+01
  0
ARC
  8
0
 62
4
 10
-1.45048740E+01
 20
3.45934043E+01
 40
1.00079180E+00
 50
9.00000002E+01
 51
1.79954687E+02
  0
LINE
  8
0
 62
6
 10
-1.42356655E+01
 20
3.40941957E+01
 11
-1.42356655E+01
 21
3.30941957E+01
  0
LINE
  8
0
 62
6
 10
-1.17756655E+01
 20
3.40941957E+01
 11
-1.17756655E+01
 21
3.30941957E+01
  0
LINE
  8
0
 62
4
 10
-1.45056655E+01
 20
3.40941957E+01
 11
-1.45056655E+01
 21
3.30941957E+01
  0
LINE
  8
0
 62
4
 10
-1.15056655E+01
 20
3.40941957E+01
 11
-1.15056655E+01
 21
3.30941957E+01
  0
LINE
  8
0
 62
4
 10
-1.75056655E+01
 20
3.30941957E+01
 11
-8.50566546E+00
 21
3.30941957E+01
  0
LINE
  8
0
 62
4
 10
-1.55056655E+01
 20
3.40941957E+01
 11
-1.05056655E+01
 21
3.40941957E+01
  0
LINE
  8
0
 62
4
 10
-1.05056655E+01
 20
3.45941957E+01
 11
-1.05056655E+01
 21
3.40941957E+01
  0
LINE
  8
0
 62
4
 10
-1.55056655E+01
 20
3.45941957E+01
 11
-1.55056655E+01
 21
3.40941957E+01
  0
LINE
  8
0
 62
6
 10
7.43133362E+00
 20
2.76941957E+01
 11
4.83133362E+00
 21
2.50941957E+01
  0
LINE
  8
0
 62
4
 10
-1.45056655E+01
 20
3.55941957E+01
 11
-1.15056655E+01
 21
3.55941957E+01
  0
LINE
  8
0
 62
4
 10
1.64943364E+01
 20
2.53941957E+01
 11
1.74943364E+01
 21
2.43941957E+01
  0
LINE
  8
0
 62
4
 10
1.64943364E+01
 20
2.73941957E+01
 11
1.74943364E+01
 21
2.83941957E+01
  0
LINE
  8
0
 62
4
 10
3.59943364E+01
 20
2.83941957E+01
 11
4.14943364E+01
 21
2.83941957E+01
  0
LINE
  8
0
 62
4
 10
3.59943364E+01
 20
2.43941957E+01
 11
4.14943364E+01
 21
2.43941957E+01
  0
LINE
  8
0
 62
4
 10
2.19943364E+01
 20
2.61941957E+01
 11
2.19943364E+01
 21
2.30941957E+01
  0
LINE
  8
0
 62
4
 10
3.59943364E+01
 20
2.61941957E+01
 11
3.59943364E+01
 21
2.30941957E+01
  0
LINE
  8
0
 62
4
 10
2.44943364E+01
 20
2.65941957E+01
 11
3.34943364E+01
 21
2.65941957E+01
  0
LINE
  8
0
 62
4
 10
2.44943364E+01
 20
2.65941957E+01
 11
2.44943364E+01
 21
3.30941957E+01
  0
LINE
  8
0
 62
4
 10
3.34943364E+01
 20
2.65941957E+01
 11
3.34943364E+01
 21
3.30941957E+01
  0
LINE
  8
0
 62
4
 10
3.34943364E+01
 20
2.61941957E+01
 11
3.59943364E+01
 21
2.61941957E+01
  0
LINE
  8
0
 62
4
 10
3.34943364E+01
 20
2.93941957E+01
 11
3.59943364E+01
 21
2.93941957E+01
  0
LINE
  8
0
 62
4
 10
2.19943364E+01
 20
2.93941957E+01
 11
2.44943364E+01
 21
2.93941957E+01
  0
LINE
  8
0
 62
4
 10
2.19943364E+01
 20
2.65941957E+01
 11
2.44943364E+01
 21
2.65941957E+01
  0
LINE
  8
0
 62
4
 10
2.19943364E+01
 20
2.61941957E+01
 11
2.44943364E+01
 21
2.61941957E+01
  0
LINE
  8
0
 62
6
 10
2.77643364E+01
 20
3.40941957E+01
 11
2.77643364E+01
 21
3.30941957E+01
  0
LINE
  8
0
 62
6
 10
3.02243364E+01
 20
3.40941957E+01
 11
3.02243364E+01
 21
3.30941957E+01
  0
LINE
  8
0
 62
4
 10
2.74943364E+01
 20
3.40941957E+01
 11
2.74943364E+01
 21
3.30941957E+01
  0
LINE
  8
0
 62
4
 10
3.04943364E+01
 20
3.40941957E+01
 11
3.04943364E+01
 21
3.30941957E+01
  0
LINE
  8
0
 62
4
 10
2.19943364E+01
 20
2.83941957E+01
 11
1.74943364E+01
 21
2.83941957E+01
  0
LINE
  8
0
 62
4
 10
3.34943364E+01
 20
2.65941957E+01
 11
3.34943364E+01
 21
1.24441957E+01
  0
LINE
  8
0
 62
4
 10
2.44943364E+01
 20
2.65941957E+01
 11
2.44943364E+01
 21
1.24441957E+01
  0
LINE
  8
0
 62
4
 10
2.44943364E+01
 20
3.30941957E+01
 11
3.34943364E+01
 21
3.30941957E+01
  0
LINE
  8
0
 62
4
 10
3.34943364E+01
 20
2.65941957E+01
 11
3.59943364E+01
 21
2.65941957E+01
  0
LINE
  8
0
 62
4
 10
2.44943364E+01
 20
1.24441957E+01
 11
3.34943364E+01
 21
1.24441957E+01
  0
LINE
  8
0
 62
4
 10
1.74943364E+01
 20
2.43941957E+01
 11
2.19943364E+01
 21
2.43941957E+01
  0
LINE
  8
0
 62
4
 10
2.64943364E+01
 20
3.40941957E+01
 11
3.14943364E+01
 21
3.40941957E+01
  0
LINE
  8
0
 62
4
 10
2.74943364E+01
 20
3.55941957E+01
 11
3.04943364E+01
 21
3.55941957E+01
  0
LINE
  8
0
 62
4
 10
3.14943364E+01
 20
3.45941957E+01
 11
3.14943364E+01
 21
3.40941957E+01
  0
LINE
  8
0
 62
4
 10
2.64943364E+01
 20
3.45941957E+01
 11
2.64943364E+01
 21
3.40941957E+01
  0
LINE
  8
0
 62
4
 10
1.74943364E+01
 20
2.83941957E+01
 11
1.74943364E+01
 21
2.43941957E+01
  0
LINE
  8
0
 62
4
 10
3.59943364E+01
 20
2.93941957E+01
 11
3.59943364E+01
 21
2.65941957E+01
  0
LINE
  8
0
 62
4
 10
2.19943364E+01
 20
2.93941957E+01
 11
2.19943364E+01
 21
2.65941957E+01
  0
LINE
  8
0
 62
4
 10
2.19943364E+01
 20
2.30941957E+01
 11
2.44943364E+01
 21
2.30941957E+01
  0
LINE
  8
0
 62
4
 10
3.34943364E+01
 20
2.30941957E+01
 11
3.59943364E+01
 21
2.30941957E+01
  0
ARC
  8
0
 62
4
 10
2.74951279E+01
 20
3.45934043E+01
 40
1.00079180E+00
 50
9.00000002E+01
 51
1.79954687E+02
  0
ARC
  8
0
 62
4
 10
3.04926708E+01
 20
3.45925301E+01
 40
1.00166704E+00
 50
9.52762946E-02
 51
8.99047236E+01
  0
LINE
  8
0
 62
4
 10
4.44943364E+01
 20
2.76941957E+01
 11
4.94313355E+01
 21
2.76941957E+01
  0
LINE
  8
0
 62
4
 10
4.44943364E+01
 20
2.50941957E+01
 11
4.68313355E+01
 21
2.50941957E+01
  0
LINE
  8
0
 62
4
 10
4.14943364E+01
 20
2.43941957E+01
 11
4.44943364E+01
 21
2.50941957E+01
  0
LINE
  8
0
 62
4
 10
4.14943364E+01
 20
2.83941957E+01
 11
4.44943364E+01
 21
2.76941957E+01
  0
LINE
  8
0
 62
4
 10
4.14943364E+01
 20
2.83941957E+01
 11
4.14943364E+01
 21
2.43941957E+01
  0
LINE
  8
0
 62
4
 10
4.44943364E+01
 20
2.76941957E+01
 11
4.44943364E+01
 21
2.50941957E+01
  0
LINE
  8
0
 62
6
 10
4.94313355E+01
 20
2.76941957E+01
 11
4.68313355E+01
 21
2.50941957E+01
  0
LINE
  8
0
 62
4
 10
1.64943364E+01
 20
2.73941957E+01
 11
1.64943364E+01
 21
2.53941957E+01
  0
LINE
  8
0
 62
4
 10
-1.00005658E+02
 20
3.03941957E+01
 11
-9.70056578E+01
 21
3.03941957E+01
  0
LINE
  8
0
 62
7
 10
-1.02115658E+02
 20
2.40941957E+01
 11
-9.49056578E+01
 21
2.40941957E+01
  0
ARC
  8
0
 62
4
 10
-1.00013285E+02
 20
3.46018225E+01
 40
9.92402587E-01
 50
8.95596718E+01
 51
1.80440329E+02
  0
ARC
  8
0
 62
4
 10
-9.70057874E+01
 20
3.45940662E+01
 40
1.00012957E+00
 50
7.42247612E-03
 51
9.00000002E+01
  0
ARC
  8
0
 62
4
 10
-1.02013283E+02
 20
3.23018209E+01
 40
7.92411497E-01
 50
8.94486475E+01
 51
1.80551352E+02
  0
ARC
  8
0
 62
4
 10
-9.50057962E+01
 20
3.22940574E+01
 40
8.00138358E-01
 50
9.90662024E-03
 51
9.00000002E+01
  0
ARC
  8
0
 62
4
 10
-1.01513283E+02
 20
3.18018209E+01
 40
4.92433852E-01
 50
8.91127567E+01
 51
1.80887243E+02
  0
ARC
  8
0
 62
4
 10
-9.55058180E+01
 20
3.17940356E+01
 40
5.00160181E-01
 50
1.83465799E-02
 51
9.00000002E+01
  0
LINE
  8
0
 62
4
 10
-1.00005658E+02
 20
3.15941957E+01
 11
-1.00005658E+02
 21
3.03941957E+01
  0
LINE
  8
0
 62
6
 10
-9.97356578E+01
 20
3.15941957E+01
 11
-9.97356578E+01
 21
3.01241957E+01
  0
LINE
  8
0
 62
6
 10
-9.72756578E+01
 20
3.15941957E+01
 11
-9.72756578E+01
 21
3.01241957E+01
  0
LINE
  8
0
 62
4
 10
-9.70056578E+01
 20
3.15941957E+01
 11
-9.70056578E+01
 21
3.03941957E+01
  0
LINE
  8
0
 62
4
 10
-9.70056578E+01
 20
3.55941957E+01
 11
-1.00005658E+02
 21
3.55941957E+01
  0
LINE
  8
0
 62
4
 10
-9.60056578E+01
 20
3.45941957E+01
 11
-9.60056578E+01
 21
3.40941957E+01
  0
LINE
  8
0
 62
4
 10
-1.01005658E+02
 20
3.45941957E+01
 11
-1.01005658E+02
 21
3.40941957E+01
  0
LINE
  8
0
 62
6
 10
-9.72756578E+01
 20
3.40941957E+01
 11
-9.72756578E+01
 21
3.30941957E+01
  0
LINE
  8
0
 62
6
 10
-9.97356578E+01
 20
3.40941957E+01
 11
-9.97356578E+01
 21
3.30941957E+01
  0
LINE
  8
0
 62
4
 10
-1.00005658E+02
 20
3.40941957E+01
 11
-1.00005658E+02
 21
3.30941957E+01
  0
LINE
  8
0
 62
4
 10
-9.70056578E+01
 20
3.40941957E+01
 11
-9.70056578E+01
 21
3.30941957E+01
  0
LINE
  8
0
 62
4
 10
-1.03663550E+02
 20
2.85847896E+01
 11
-1.04405658E+02
 21
2.90241957E+01
  0
LINE
  8
0
 62
4
 10
-1.03577807E+02
 20
2.94656285E+01
 11
-1.03605658E+02
 21
2.94841957E+01
  0
LINE
  8
0
 62
4
 10
-9.50056578E+01
 20
3.17941957E+01
 11
-9.51556578E+01
 21
3.17941957E+01
  0
LINE
  8
0
 62
4
 10
-9.51556578E+01
 20
3.17941957E+01
 11
-9.51556578E+01
 21
2.65941957E+01
  0
LINE
  8
0
 62
4
 10
-1.02805658E+02
 20
2.90241957E+01
 11
-1.03102368E+02
 21
2.91890346E+01
  0
LINE
  8
0
 62
4
 10
-1.03605658E+02
 20
3.13941957E+01
 11
-1.03605658E+02
 21
2.94841957E+01
  0
LINE
  8
0
 62
4
 10
-1.03605658E+02
 20
3.13941957E+01
 11
-1.04405658E+02
 21
3.13941957E+01
  0
LINE
  8
0
 62
4
 10
-1.04405658E+02
 20
3.13941957E+01
 11
-1.04405658E+02
 21
2.90241957E+01
  0
LINE
  8
0
 62
4
 10
-1.02805658E+02
 20
2.80941957E+01
 11
-1.03187273E+02
 21
2.83168044E+01
  0
LINE
  8
0
 62
4
 10
-1.02005658E+02
 20
2.58941957E+01
 11
-1.02805658E+02
 21
2.58941957E+01
  0
LINE
  8
0
 62
4
 10
-9.42056578E+01
 20
2.65941957E+01
 11
-9.50056578E+01
 21
2.65941957E+01
  0
LINE
  8
0
 62
4
 10
-9.64456578E+01
 20
3.22941957E+01
 11
-9.65056578E+01
 21
3.15941957E+01
  0
LINE
  8
0
 62
4
 10
-1.00565658E+02
 20
3.22941957E+01
 11
-1.00505658E+02
 21
3.15941957E+01
  0
LINE
  8
0
 62
4
 10
-9.42056578E+01
 20
3.22941957E+01
 11
-9.42056578E+01
 21
2.65941957E+01
  0
LINE
  8
0
 62
4
 10
-1.02805658E+02
 20
3.22941957E+01
 11
-1.02805658E+02
 21
2.58941957E+01
  0
LINE
  8
0
 62
4
 10
-9.55056578E+01
 20
3.22941957E+01
 11
-1.01505658E+02
 21
3.22941957E+01
  0
LINE
  8
0
 62
4
 10
-9.65056578E+01
 20
3.15941957E+01
 11
-1.00505658E+02
 21
3.15941957E+01
  0
LINE
  8
0
 62
4
 10
-9.50056578E+01
 20
3.30941957E+01
 11
-1.02005658E+02
 21
3.30941957E+01
  0
LINE
  8
0
 62
4
 10
-9.60056578E+01
 20
3.40941957E+01
 11
-1.01005658E+02
 21
3.40941957E+01
  0
LINE
  8
0
 62
4
 10
-9.50056578E+01
 20
3.17941957E+01
 11
-9.50056578E+01
 21
2.65941957E+01
  0
LINE
  8
0
 62
4
 10
-1.02005658E+02
 20
3.17941957E+01
 11
-1.02005658E+02
 21
2.58941957E+01
  0
LINE
  8
0
 62
4
 10
-9.64556578E+01
 20
2.83941957E+01
 11
-9.64556578E+01
 21
2.50941957E+01
  0
LINE
  8
0
 62
4
 10
-9.52556578E+01
 20
2.65941957E+01
 11
-9.64556578E+01
 21
2.65941957E+01
  0
LINE
  8
0
 62
4
 10
-9.52556578E+01
 20
2.61941957E+01
 11
-9.64556578E+01
 21
2.61941957E+01
  0
LINE
  8
0
 62
4
 10
-9.52556578E+01
 20
2.93941957E+01
 11
-1.01755658E+02
 21
2.93941957E+01
  0
LINE
  8
0
 62
4
 10
-9.75056578E+01
 20
2.86941957E+01
 11
-9.95056578E+01
 21
2.86941957E+01
  0
LINE
  8
0
 62
4
 10
-9.95056578E+01
 20
2.86941957E+01
 11
-9.95056578E+01
 21
2.83941957E+01
  0
LINE
  8
0
 62
4
 10
-9.75056578E+01
 20
2.86941957E+01
 11
-9.75056578E+01
 21
2.83941957E+01
  0
LINE
  8
0
 62
4
 10
-9.64556578E+01
 20
2.83941957E+01
 11
-1.00555658E+02
 21
2.83941957E+01
  0
LINE
  8
0
 62
4
 10
-1.00555658E+02
 20
2.83941957E+01
 11
-1.00555658E+02
 21
2.50941957E+01
  0
LINE
  8
0
 62
4
 10
-9.52556578E+01
 20
3.00941957E+01
 11
-1.01755658E+02
 21
3.00941957E+01
  0
LINE
  8
0
 62
4
 10
-9.52556578E+01
 20
3.00941957E+01
 11
-9.52556578E+01
 21
2.65941957E+01
  0
LINE
  8
0
 62
4
 10
-1.03335658E+02
 20
2.52441957E+01
 11
-1.03484952E+02
 21
2.52587284E+01
  0
LINE
  8
0
 62
4
 10
-1.02855205E+02
 20
3.17281502E+01
 11
-1.03352853E+02
 21
3.17765923E+01
  0
LINE
  8
0
 62
4
 10
-1.00005658E+02
 20
3.03941957E+01
 11
-9.97056578E+01
 21
3.00941957E+01
  0
LINE
  8
0
 62
4
 10
-9.70056578E+01
 20
3.03941957E+01
 11
-9.73056578E+01
 21
3.00941957E+01
  0
LINE
  8
0
 62
4
 10
-9.95556578E+01
 20
2.73941957E+01
 11
-9.95556578E+01
 21
2.53941957E+01
  0
LINE
  8
0
 62
4
 10
-9.74556578E+01
 20
2.73941957E+01
 11
-9.74556578E+01
 21
2.53941957E+01
  0
LINE
  8
0
 62
4
 10
-9.74556578E+01
 20
2.73941957E+01
 11
-9.95556578E+01
 21
2.73941957E+01
  0
LINE
  8
0
 62
4
 10
-9.74556578E+01
 20
2.53941957E+01
 11
-9.95556578E+01
 21
2.53941957E+01
  0
LINE
  8
0
 62
4
 10
-1.00555658E+02
 20
2.83941957E+01
 11
-9.95556578E+01
 21
2.73941957E+01
  0
LINE
  8
0
 62
4
 10
-9.98556578E+01
 20
2.50941957E+01
 11
-9.95556578E+01
 21
2.53941957E+01
  0
LINE
  8
0
 62
4
 10
-9.74556578E+01
 20
2.53941957E+01
 11
-9.71556578E+01
 21
2.50941957E+01
  0
LINE
  8
0
 62
4
 10
-9.74556578E+01
 20
2.73941957E+01
 11
-9.64556578E+01
 21
2.83941957E+01
  0
LINE
  8
0
 62
4
 10
-1.03352853E+02
 20
3.17765923E+01
 11
-1.04058259E+02
 21
2.45299260E+01
  0
LINE
  8
0
 62
4
 10
-1.02855205E+02
 20
3.17281502E+01
 11
-1.03513826E+02
 21
2.49621107E+01
  0
LINE
  8
0
 62
4
 10
-1.03335658E+02
 20
2.52441957E+01
 11
-1.03351903E+02
 21
2.50773119E+01
  0
LINE
  8
0
 62
4
 10
-9.50056578E+01
 20
2.65941957E+01
 11
-9.45883863E+01
 21
2.50941957E+01
  0
LINE
  8
0
 62
4
 10
-9.51556578E+01
 20
2.65941957E+01
 11
-9.47396020E+01
 21
2.50941957E+01
  0
LINE
  8
0
 62
4
 10
-1.01755658E+02
 20
3.00941957E+01
 11
-1.01755658E+02
 21
2.50941957E+01
  0
LINE
  8
0
 62
4
 10
-9.52556578E+01
 20
2.61941957E+01
 11
-9.52556578E+01
 21
2.50941957E+01
  0
LINE
  8
0
  6
CENTER
 62
2
 10
-1.06505658E+02
 20
1.80941957E+01
 11
-9.05056578E+01
 21
1.80941957E+01
  0
LINE
  8
0
 62
4
 10
-9.50056578E+01
 20
1.60734705E+01
 11
-9.50056578E+01
 21
2.01149229E+01
  0
LINE
  8
0
  6
CENTER
 62
2
 10
-9.85056578E+01
 20
3.66938858E+01
 11
-9.85056578E+01
 21
1.00941967E+01
  0
LINE
  8
0
 62
4
 10
-1.02005662E+02
 20
1.60734752E+01
 11
-9.85056568E+01
 21
1.40527462E+01
  0
LINE
  8
0
 62
4
 10
-1.02005658E+02
 20
2.01149229E+01
 11
-1.02005658E+02
 21
1.60734705E+01
  0
LINE
  8
0
 62
4
 10
-9.85056601E+01
 20
1.40527377E+01
 11
-9.50056614E+01
 21
1.60734629E+01
  0
LINE
  8
0
 62
4
 10
-9.85056576E+01
 20
2.21356340E+01
 11
-1.02005656E+02
 21
2.01149088E+01
  0
LINE
  8
0
 62
4
 10
-9.50056568E+01
 20
2.01149239E+01
 11
-9.85056621E+01
 21
2.21356529E+01
  0
LINE
  8
0
 62
7
 10
-1.03327481E+02
 20
2.50941957E+01
 11
-9.36838347E+01
 21
2.50941957E+01
  0
LINE
  8
0
 62
7
 10
-1.03327481E+02
 20
1.10941957E+01
 11
-9.36838347E+01
 21
1.10941957E+01
  0
LINE
  8
0
 62
7
 10
-9.15056578E+01
 20
2.29160227E+01
 11
-9.15056578E+01
 21
1.32723707E+01
  0
LINE
  8
0
 62
7
 10
-1.05505658E+02
 20
2.29160227E+01
 11
-1.05505658E+02
 21
1.32723707E+01
  0
CIRCLE
  8
0
 62
2
 10
-9.85056578E+01
 20
1.80941957E+01
 40
1.65000000E+00
  0
CIRCLE
  8
0
 62
7
 10
-9.85056578E+01
 20
1.80941957E+01
 40
2.00000000E+00
  0
CIRCLE
  8
0
 62
4
 10
-9.85056578E+01
 20
1.80941957E+01
 40
3.50000000E+00
  0
ARC
  8
0
 62
7
 10
-9.85056578E+01
 20
1.80941957E+01
 40
8.50000000E+00
 50
3.45603235E+01
 51
5.54396790E+01
  0
ARC
  8
0
 62
7
 10
-9.85056578E+01
 20
1.80941957E+01
 40
8.50000000E+00
 50
1.24560316E+02
 51
1.45439685E+02
  0
ARC
  8
0
 62
7
 10
-9.85056578E+01
 20
1.80941957E+01
 40
8.50000000E+00
 50
2.14560315E+02
 51
2.35439684E+02
  0
ARC
  8
0
 62
7
 10
-9.85056578E+01
 20
1.80941957E+01
 40
8.50000000E+00
 50
3.04560321E+02
 51
3.25439676E+02
  0
CIRCLE
  8
0
 62
7
 10
-9.85056578E+01
 20
1.80941957E+01
 40
5.00000000E+00
  0
CIRCLE
  8
0
 62
2
 10
-9.85056578E+01
 20
1.80941957E+01
 40
4.40000010E+00
  0
CIRCLE
  8
0
 62
7
 10
-9.85056578E+01
 20
1.80941957E+01
 40
7.00000000E+00
  0
LINE
  8
0
 62
7
 10
9.33801156E+01
 20
2.50941957E+01
 11
9.38961715E+01
 21
2.50941957E+01
  0
LINE
  8
0
 62
7
 10
1.00396171E+02
 20
2.50941957E+01
 11
1.01967997E+02
 21
2.50941957E+01
  0
ARC
  8
0
 62
7
 10
9.71461715E+01
 20
1.80941957E+01
 40
8.50000000E+00
 50
3.04560322E+02
 51
3.25439678E+02
  0
ARC
  8
0
 62
7
 10
9.71461715E+01
 20
1.80941957E+01
 40
8.50000000E+00
 50
2.14560322E+02
 51
2.35439678E+02
  0
ARC
  8
0
 62
7
 10
9.71461715E+01
 20
1.80941957E+01
 40
8.50000000E+00
 50
1.24560322E+02
 51
1.45439678E+02
  0
ARC
  8
0
 62
7
 10
9.71461715E+01
 20
1.80941957E+01
 40
8.50000000E+00
 50
3.45603218E+01
 51
4.92131269E+01
  0
LINE
  8
0
 62
7
 10
1.04146171E+02
 20
1.32723703E+01
 11
1.04146171E+02
 21
2.29160211E+01
  0
LINE
  8
0
 62
7
 10
9.01461715E+01
 20
1.32723703E+01
 11
9.01461715E+01
 21
2.29160211E+01
  0
LINE
  8
0
 62
7
 10
9.23243461E+01
 20
1.10941957E+01
 11
1.01967997E+02
 21
1.10941957E+01
  0
LINE
  8
0
 62
7
 10
9.23243461E+01
 20
2.50941957E+01
 11
9.32289000E+01
 21
2.50941957E+01
  0
ARC
  8
0
 62
7
 10
9.71461715E+01
 20
1.80941957E+01
 40
7.00000000E+00
 50
3.01002715E+02
 51
3.28997257E+02
  0
ARC
  8
0
 62
7
 10
9.71461715E+01
 20
1.80941957E+01
 40
7.00000000E+00
 50
2.11002719E+02
 51
2.38997285E+02
  0
LINE
  8
0
 62
7
 10
1.03146171E+02
 20
2.16997484E+01
 11
1.03146171E+02
 21
1.44886469E+01
  0
LINE
  8
0
 62
4
 10
9.61461715E+01
 20
2.40941957E+01
 11
9.81461715E+01
 21
2.40941957E+01
  0
ARC
  8
0
 62
4
 10
9.86537982E+01
 20
3.46018225E+01
 40
9.92402587E-01
 50
3.59559672E+02
 51
9.04403286E+01
  0
ARC
  8
0
 62
4
 10
9.56463011E+01
 20
3.45940662E+01
 40
1.00012957E+00
 50
9.00000002E+01
 51
1.79992578E+02
  0
ARC
  8
0
 62
4
 10
1.00653797E+02
 20
3.23018209E+01
 40
7.92411497E-01
 50
3.59448647E+02
 51
9.05513523E+01
  0
ARC
  8
0
 62
4
 10
9.36463098E+01
 20
3.22940574E+01
 40
8.00138358E-01
 50
9.00000002E+01
 51
1.79990093E+02
  0
ARC
  8
0
 62
4
 10
1.00153797E+02
 20
3.18018209E+01
 40
4.92433852E-01
 50
3.59112757E+02
 51
9.08872431E+01
  0
ARC
  8
0
 62
4
 10
9.41463317E+01
 20
3.17940356E+01
 40
5.00160181E-01
 50
9.00000002E+01
 51
1.79981654E+02
  0
LINE
  8
0
 62
4
 10
9.84461715E+01
 20
2.50941957E+01
 11
9.91961715E+01
 21
2.43941957E+01
  0
LINE
  8
0
 62
4
 10
9.58461715E+01
 20
2.50941957E+01
 11
9.50961715E+01
 21
2.43941957E+01
  0
LINE
  8
0
 62
4
 10
9.84461715E+01
 20
2.76941957E+01
 11
9.91961715E+01
 21
2.83941957E+01
  0
LINE
  8
0
 62
4
 10
9.50961715E+01
 20
2.83941957E+01
 11
9.58461715E+01
 21
2.76941957E+01
  0
LINE
  8
0
 62
4
 10
9.58461715E+01
 20
2.76941957E+01
 11
9.58461715E+01
 21
2.50941957E+01
  0
LINE
  8
0
 62
4
 10
9.84461715E+01
 20
2.76941957E+01
 11
9.84461715E+01
 21
2.50941957E+01
  0
LINE
  8
0
 62
4
 10
9.58461715E+01
 20
2.76941957E+01
 11
9.84461715E+01
 21
2.76941957E+01
  0
LINE
  8
0
 62
4
 10
9.58461715E+01
 20
2.50941957E+01
 11
9.84461715E+01
 21
2.50941957E+01
  0
LINE
  8
0
 62
4
 10
9.86461715E+01
 20
3.15941957E+01
 11
9.86461715E+01
 21
3.03941957E+01
  0
LINE
  8
0
 62
6
 10
9.83761715E+01
 20
3.15941957E+01
 11
9.83761715E+01
 21
3.01241957E+01
  0
LINE
  8
0
 62
6
 10
9.59161715E+01
 20
3.15941957E+01
 11
9.59161715E+01
 21
3.01241957E+01
  0
LINE
  8
0
 62
4
 10
9.56461715E+01
 20
3.15941957E+01
 11
9.56461715E+01
 21
3.03941957E+01
  0
LINE
  8
0
 62
4
 10
9.56461715E+01
 20
3.55941957E+01
 11
9.86461715E+01
 21
3.55941957E+01
  0
LINE
  8
0
 62
4
 10
9.46461715E+01
 20
3.45941957E+01
 11
9.46461715E+01
 21
3.40941957E+01
  0
LINE
  8
0
 62
4
 10
9.96461715E+01
 20
3.45941957E+01
 11
9.96461715E+01
 21
3.40941957E+01
  0
LINE
  8
0
 62
6
 10
9.59161715E+01
 20
3.40941957E+01
 11
9.59161715E+01
 21
3.30941957E+01
  0
LINE
  8
0
 62
6
 10
9.83761715E+01
 20
3.40941957E+01
 11
9.83761715E+01
 21
3.30941957E+01
  0
LINE
  8
0
 62
4
 10
9.86461715E+01
 20
3.40941957E+01
 11
9.86461715E+01
 21
3.30941957E+01
  0
LINE
  8
0
 62
4
 10
9.56461715E+01
 20
3.40941957E+01
 11
9.56461715E+01
 21
3.30941957E+01
  0
LINE
  8
0
 62
4
 10
1.02304063E+02
 20
2.85847896E+01
 11
1.03046171E+02
 21
2.90241957E+01
  0
LINE
  8
0
 62
4
 10
1.02218321E+02
 20
2.94656285E+01
 11
1.02246171E+02
 21
2.94841957E+01
  0
LINE
  8
0
 62
4
 10
9.36461715E+01
 20
3.17941957E+01
 11
9.37961715E+01
 21
3.17941957E+01
  0
LINE
  8
0
 62
4
 10
9.37961715E+01
 20
3.17941957E+01
 11
9.37961715E+01
 21
2.65941957E+01
  0
LINE
  8
0
 62
4
 10
1.01446171E+02
 20
2.90241957E+01
 11
1.01742882E+02
 21
2.91890346E+01
  0
LINE
  8
0
 62
4
 10
1.02246171E+02
 20
3.13941957E+01
 11
1.02246171E+02
 21
2.94841957E+01
  0
LINE
  8
0
 62
4
 10
1.02246171E+02
 20
3.13941957E+01
 11
1.03046171E+02
 21
3.13941957E+01
  0
LINE
  8
0
 62
4
 10
1.03046171E+02
 20
3.13941957E+01
 11
1.03046171E+02
 21
2.90241957E+01
  0
LINE
  8
0
 62
4
 10
1.01446171E+02
 20
2.80941957E+01
 11
1.01827786E+02
 21
2.83168044E+01
  0
LINE
  8
0
 62
4
 10
1.00646171E+02
 20
2.58941957E+01
 11
1.01446171E+02
 21
2.58941957E+01
  0
LINE
  8
0
 62
4
 10
9.28461715E+01
 20
2.65941957E+01
 11
9.36461715E+01
 21
2.65941957E+01
  0
LINE
  8
0
 62
4
 10
9.50861715E+01
 20
3.22941957E+01
 11
9.51461715E+01
 21
3.15941957E+01
  0
LINE
  8
0
 62
4
 10
9.92061715E+01
 20
3.22941957E+01
 11
9.91461715E+01
 21
3.15941957E+01
  0
LINE
  8
0
 62
4
 10
9.28461715E+01
 20
3.22941957E+01
 11
9.28461715E+01
 21
2.65941957E+01
  0
LINE
  8
0
 62
4
 10
1.01446171E+02
 20
3.22941957E+01
 11
1.01446171E+02
 21
2.58941957E+01
  0
LINE
  8
0
 62
4
 10
9.41461715E+01
 20
3.22941957E+01
 11
1.00146171E+02
 21
3.22941957E+01
  0
LINE
  8
0
 62
4
 10
9.51461715E+01
 20
3.15941957E+01
 11
9.91461715E+01
 21
3.15941957E+01
  0
LINE
  8
0
 62
4
 10
9.36461715E+01
 20
3.30941957E+01
 11
1.00646171E+02
 21
3.30941957E+01
  0
LINE
  8
0
 62
4
 10
9.46461715E+01
 20
3.40941957E+01
 11
9.96461715E+01
 21
3.40941957E+01
  0
LINE
  8
0
 62
4
 10
9.36461715E+01
 20
3.17941957E+01
 11
9.36461715E+01
 21
2.65941957E+01
  0
LINE
  8
0
 62
4
 10
1.00646171E+02
 20
3.17941957E+01
 11
1.00646171E+02
 21
2.58941957E+01
  0
LINE
  8
0
 62
4
 10
9.50961715E+01
 20
2.83941957E+01
 11
9.50961715E+01
 21
2.43941957E+01
  0
LINE
  8
0
 62
4
 10
9.38961715E+01
 20
2.65941957E+01
 11
9.50961715E+01
 21
2.65941957E+01
  0
LINE
  8
0
 62
4
 10
9.38961715E+01
 20
2.61941957E+01
 11
9.50961715E+01
 21
2.61941957E+01
  0
LINE
  8
0
 62
4
 10
9.38961715E+01
 20
2.93941957E+01
 11
1.00396171E+02
 21
2.93941957E+01
  0
LINE
  8
0
 62
4
 10
9.61461715E+01
 20
2.86941957E+01
 11
9.81461715E+01
 21
2.86941957E+01
  0
LINE
  8
0
 62
4
 10
9.81461715E+01
 20
2.86941957E+01
 11
9.81461715E+01
 21
2.83941957E+01
  0
LINE
  8
0
 62
4
 10
9.61461715E+01
 20
2.86941957E+01
 11
9.61461715E+01
 21
2.83941957E+01
  0
LINE
  8
0
 62
4
 10
9.50961715E+01
 20
2.83941957E+01
 11
9.91961715E+01
 21
2.83941957E+01
  0
LINE
  8
0
 62
4
 10
9.91961715E+01
 20
2.83941957E+01
 11
9.91961715E+01
 21
2.43941957E+01
  0
LINE
  8
0
 62
4
 10
9.50961715E+01
 20
2.43941957E+01
 11
9.91961715E+01
 21
2.43941957E+01
  0
LINE
  8
0
 62
4
 10
9.38961715E+01
 20
3.00941957E+01
 11
1.00396171E+02
 21
3.00941957E+01
  0
LINE
  8
0
 62
4
 10
9.38961715E+01
 20
3.00941957E+01
 11
9.38961715E+01
 21
2.65941957E+01
  0
CIRCLE
  8
0
 62
4
 10
9.71461715E+01
 20
2.63941957E+01
 40
1.30000000E+00
  0
LINE
  8
0
 62
4
 10
1.01976171E+02
 20
2.52441957E+01
 11
1.02125466E+02
 21
2.52587284E+01
  0
LINE
  8
0
 62
4
 10
1.01495719E+02
 20
3.17281502E+01
 11
1.01993366E+02
 21
3.17765923E+01
  0
LINE
  8
0
 62
4
 10
9.86461715E+01
 20
3.03941957E+01
 11
9.83461715E+01
 21
3.00941957E+01
  0
LINE
  8
0
 62
4
 10
9.56461715E+01
 20
3.03941957E+01
 11
9.59461715E+01
 21
3.00941957E+01
  0
LINE
  8
0
 62
4
 10
1.01993366E+02
 20
3.17765923E+01
 11
1.02942968E+02
 21
2.20212904E+01
  0
LINE
  8
0
 62
4
 10
1.01495719E+02
 20
3.17281502E+01
 11
1.02369146E+02
 21
2.27553866E+01
  0
LINE
  8
0
 62
4
 10
1.01976171E+02
 20
2.52441957E+01
 11
1.02200766E+02
 21
2.29369280E+01
  0
LINE
  8
0
 62
4
 10
9.36461715E+01
 20
2.65941957E+01
 11
9.28115569E+01
 21
2.35939385E+01
  0
LINE
  8
0
 62
4
 10
9.37961715E+01
 20
2.65941957E+01
 11
9.30047010E+01
 21
2.37407187E+01
  0
LINE
  8
0
 62
4
 10
1.00396171E+02
 20
3.00941957E+01
 11
1.00396171E+02
 21
2.40941957E+01
  0
LINE
  8
0
 62
4
 10
9.61461715E+01
 20
2.43941957E+01
 11
9.61461715E+01
 21
2.40941957E+01
  0
LINE
  8
0
 62
4
 10
9.81461715E+01
 20
2.43941957E+01
 11
9.81461715E+01
 21
2.40941957E+01
  0
LINE
  8
0
 62
4
 10
9.38961715E+01
 20
2.61941957E+01
 11
9.38961715E+01
 21
2.40941957E+01
  0
LINE
  8
0
  6
CENTER
 62
2
 10
8.94943364E+01
 20
1.80941957E+01
 11
1.04912849E+02
 21
1.80941957E+01
  0
LINE
  8
0
  6
CENTER
 62
2
 10
9.71461715E+01
 20
3.70374922E+01
 11
9.71461715E+01
 21
1.05419657E+01
  0
LINE
  8
0
 62
7
 10
9.35406188E+01
 20
1.20941957E+01
 11
1.00751724E+02
 21
1.20941957E+01
  0
LINE
  8
0
 62
7
 10
9.35406188E+01
 20
2.40941957E+01
 11
1.00751724E+02
 21
2.40941957E+01
  0
LINE
  8
0
 62
7
 10
9.11461715E+01
 20
2.16997484E+01
 11
9.11461715E+01
 21
1.44886469E+01
  0
LINE
  8
0
 62
7
 10
9.87461700E+01
 20
2.40941957E+01
 11
9.87461700E+01
 21
1.20941957E+01
  0
LINE
  8
0
 62
7
 10
9.55461730E+01
 20
2.40941957E+01
 11
9.55461730E+01
 21
1.20941957E+01
  0
ARC
  8
0
 62
7
 10
9.71461715E+01
 20
1.80941957E+01
 40
6.00000000E+00
 50
1.05465989E+02
 51
2.54533966E+02
  0
ARC
  8
0
 62
7
 10
9.71461715E+01
 20
1.80941957E+01
 40
7.00000000E+00
 50
1.21002716E+02
 51
1.48997281E+02
  0
ARC
  8
0
 62
7
 10
9.71461715E+01
 20
1.80941957E+01
 40
7.00000000E+00
 50
3.10027434E+01
 51
5.89972848E+01
  0
ARC
  8
0
 62
7
 10
9.71461715E+01
 20
1.80941957E+01
 40
6.00000000E+00
 50
2.85466012E+02
 51
7.45339843E+01
  0
LINE
  8
0
  6
PHANTOM
 10
1.24826032E+01
 20
3.46585819E+01
 11
1.24826032E+01
 21
6.66881727E+01
  0
TEXT
  8
0
 62
7
 10
-5.34746865E+00
 20
4.88441957E+01
 40
1.50000000E+00
  1
PBDALS10-7
 41
1.00000000E+00
  7
MONOTXT
  0
ARC
  8
0
 62
2
 10
4.59943362E+01
 20
5.30941957E+01
 40
2.50000000E+00
 50
3.13322515E+01
 51
1.45175521E+02
  0
ARC
  8
0
 62
7
 10
4.59943362E+01
 20
5.30941957E+01
 40
2.00000000E+00
 50
4.05416019E+01
 51
1.39350385E+02
  0
LINE
  8
0
 62
7
 10
4.32243354E+01
 20
4.94865441E+01
 11
4.32243354E+01
 21
4.70920958E+01
  0
LINE
  8
0
 62
7
 10
4.32243356E+01
 20
5.66976476E+01
 11
4.32243356E+01
 21
5.90920958E+01
  0
LINE
  8
0
 62
7
 10
4.14943364E+01
 20
5.90920958E+01
 11
4.14943364E+01
 21
5.50941957E+01
  0
ARC
  8
0
 62
7
 10
4.61165632E+01
 20
5.30920958E+01
 40
4.62222719E+00
 50
2.04288106E+02
 51
2.31264823E+02
  0
LINE
  8
0
 62
7
 10
4.14943364E+01
 20
5.10941957E+01
 11
4.14943364E+01
 21
4.70920958E+01
  0
LINE
  8
0
 62
7
 10
3.34891908E+01
 20
4.75941957E+01
 11
4.14943364E+01
 21
4.75941957E+01
  0
LINE
  8
0
 62
7
 10
3.34891908E+01
 20
5.85941957E+01
 11
4.14943364E+01
 21
5.85941957E+01
  0
LINE
  8
0
 62
7
 10
-8.50566546E+00
 20
4.75941957E+01
 11
2.44891908E+01
 21
4.75941957E+01
  0
LINE
  8
0
 62
7
 10
-8.50566546E+00
 20
5.85941957E+01
 11
2.44891908E+01
 21
5.85941957E+01
  0
LINE
  8
0
 62
4
 10
2.69891908E+01
 20
5.81941957E+01
 11
3.09891908E+01
 21
5.81941957E+01
  0
LINE
  8
0
 62
4
 10
2.69891908E+01
 20
5.79413907E+01
 11
2.69891908E+01
 21
5.89586747E+01
  0
LINE
  8
0
 62
4
 10
3.09891908E+01
 20
5.89586747E+01
 11
3.09891908E+01
 21
5.79413907E+01
  0
LINE
  8
0
 62
4
 10
2.44891908E+01
 20
5.89586747E+01
 11
3.34891908E+01
 21
5.89586747E+01
  0
LINE
  8
0
 62
4
 10
2.44891908E+01
 20
5.79413907E+01
 11
3.34891908E+01
 21
5.79413907E+01
  0
LINE
  8
0
 62
4
 10
2.44891908E+01
 20
4.74441957E+01
 11
3.34891908E+01
 21
4.74441957E+01
  0
LINE
  8
0
 62
4
 10
2.44891908E+01
 20
4.87941957E+01
 11
3.34891908E+01
 21
4.87941957E+01
  0
LINE
  8
0
 62
4
 10
3.00991908E+01
 20
5.19941957E+01
 11
3.00491908E+01
 21
5.20341957E+01
  0
LINE
  8
0
 62
4
 10
3.59891908E+01
 20
5.10941957E+01
 11
4.14891908E+01
 21
5.10941957E+01
  0
LINE
  8
0
 62
4
 10
4.44891908E+01
 20
5.17941957E+01
 11
4.68261899E+01
 21
5.17941957E+01
  0
LINE
  8
0
 62
4
 10
4.14891908E+01
 20
5.10941957E+01
 11
4.44891908E+01
 21
5.17941957E+01
  0
LINE
  8
0
 62
4
 10
3.34891908E+01
 20
4.98441957E+01
 11
3.59891908E+01
 21
4.98441957E+01
  0
LINE
  8
0
 62
4
 10
1.64891908E+01
 20
5.20941957E+01
 11
1.74891908E+01
 21
5.10941957E+01
  0
LINE
  8
0
 62
4
 10
2.19891908E+01
 20
4.98441957E+01
 11
2.44891908E+01
 21
4.98441957E+01
  0
LINE
  8
0
 62
4
 10
1.74891908E+01
 20
5.10941957E+01
 11
2.19891908E+01
 21
5.10941957E+01
  0
LINE
  8
0
 62
4
 10
2.44891908E+01
 20
5.73942324E+01
 11
3.34891908E+01
 21
5.73942324E+01
  0
LINE
  8
0
 62
4
 10
4.44891908E+01
 20
5.43941957E+01
 11
4.94261899E+01
 21
5.43941957E+01
  0
LINE
  8
0
 62
4
 10
3.59891908E+01
 20
5.50941957E+01
 11
4.14891908E+01
 21
5.50941957E+01
  0
LINE
  8
0
 62
4
 10
3.34891908E+01
 20
5.63441957E+01
 11
3.59891908E+01
 21
5.63441957E+01
  0
LINE
  8
0
 62
4
 10
4.14891908E+01
 20
5.50941957E+01
 11
4.44891908E+01
 21
5.43941957E+01
  0
LINE
  8
0
 62
4
 10
2.19891908E+01
 20
5.63441957E+01
 11
2.44891908E+01
 21
5.63441957E+01
  0
LINE
  8
0
 62
4
 10
1.64891908E+01
 20
5.40941957E+01
 11
1.74891908E+01
 21
5.50941957E+01
  0
LINE
  8
0
 62
4
 10
1.74891908E+01
 20
5.50941957E+01
 11
2.19891908E+01
 21
5.50941957E+01
  0
LINE
  8
0
 62
4
 10
1.74891908E+01
 20
5.50941957E+01
 11
1.74891908E+01
 21
5.10941957E+01
  0
LINE
  8
0
 62
4
 10
1.64891908E+01
 20
5.40941957E+01
 11
1.64891908E+01
 21
5.20941957E+01
  0
LINE
  8
0
 62
4
 10
2.19891908E+01
 20
4.98441957E+01
 11
2.19891908E+01
 21
5.63441957E+01
  0
LINE
  8
0
 62
4
 10
2.44891908E+01
 20
4.74441957E+01
 11
2.44891908E+01
 21
5.89586747E+01
  0
LINE
  8
0
 62
4
 10
3.59891908E+01
 20
4.98441957E+01
 11
3.59891908E+01
 21
5.63441957E+01
  0
LINE
  8
0
 62
4
 10
4.14891908E+01
 20
5.50941957E+01
 11
4.14891908E+01
 21
5.10941957E+01
  0
LINE
  8
0
 62
4
 10
4.44891908E+01
 20
5.43941957E+01
 11
4.44891908E+01
 21
5.17941957E+01
  0
LINE
  8
0
 62
6
 10
4.94261899E+01
 20
5.43941957E+01
 11
4.68261899E+01
 21
5.17941957E+01
  0
LINE
  8
0
 62
4
 10
3.34891908E+01
 20
4.74441957E+01
 11
3.34891908E+01
 21
5.89586747E+01
  0
CIRCLE
  8
0
 62
4
 10
2.89883156E+01
 20
5.30917372E+01
 40
2.50000000E+00
  0
LINE
  8
0
 62
4
 10
2.99991908E+01
 20
5.20941957E+01
 11
2.79291908E+01
 21
5.41541957E+01
  0
LINE
  8
0
 62
4
 10
2.79291908E+01
 20
5.20341957E+01
 11
3.00491908E+01
 21
5.41541957E+01
  0
LINE
  8
0
 62
4
 10
-2.45056655E+01
 20
5.10941957E+01
 11
-2.00056655E+01
 21
5.10941957E+01
  0
LINE
  8
0
 62
4
 10
-2.00056655E+01
 20
4.98441957E+01
 11
-1.75056655E+01
 21
4.98441957E+01
  0
LINE
  8
0
 62
4
 10
-2.55056655E+01
 20
5.20941957E+01
 11
-2.45056655E+01
 21
5.10941957E+01
  0
LINE
  8
0
 62
4
 10
-2.45056655E+01
 20
5.50941957E+01
 11
-2.00056655E+01
 21
5.50941957E+01
  0
LINE
  8
0
 62
4
 10
-2.55056655E+01
 20
5.40941957E+01
 11
-2.45056655E+01
 21
5.50941957E+01
  0
LINE
  8
0
 62
4
 10
-2.00056655E+01
 20
5.63441957E+01
 11
-1.75056655E+01
 21
5.63441957E+01
  0
LINE
  8
0
 62
4
 10
-2.45056655E+01
 20
5.50941957E+01
 11
-2.45056655E+01
 21
5.10941957E+01
  0
LINE
  8
0
 62
4
 10
-2.55056655E+01
 20
5.40941957E+01
 11
-2.55056655E+01
 21
5.20941957E+01
  0
LINE
  8
0
 62
4
 10
-2.00056655E+01
 20
4.98441957E+01
 11
-2.00056655E+01
 21
5.63441957E+01
  0
LINE
  8
0
 62
4
 10
-1.75056655E+01
 20
4.74441957E+01
 11
-1.75056655E+01
 21
5.89586747E+01
  0
LINE
  8
0
 62
4
 10
-8.50566546E+00
 20
4.98441957E+01
 11
-6.00566546E+00
 21
4.98441957E+01
  0
LINE
  8
0
 62
4
 10
-5.05665460E-01
 20
5.10941957E+01
 11
2.49433453E+00
 21
5.17941957E+01
  0
LINE
  8
0
 62
4
 10
2.49433453E+00
 20
5.17941957E+01
 11
4.83133362E+00
 21
5.17941957E+01
  0
LINE
  8
0
 62
4
 10
-6.00566546E+00
 20
5.10941957E+01
 11
-5.05665460E-01
 21
5.10941957E+01
  0
LINE
  8
0
 62
4
 10
-5.05665460E-01
 20
5.50941957E+01
 11
2.49433454E+00
 21
5.43941957E+01
  0
LINE
  8
0
 62
4
 10
-8.50566546E+00
 20
5.63441957E+01
 11
-6.00566546E+00
 21
5.63441957E+01
  0
LINE
  8
0
 62
4
 10
-6.00566546E+00
 20
5.50941957E+01
 11
-5.05665460E-01
 21
5.50941957E+01
  0
LINE
  8
0
 62
4
 10
-6.00566546E+00
 20
4.98441957E+01
 11
-6.00566546E+00
 21
5.63441957E+01
  0
LINE
  8
0
 62
4
 10
-5.05665460E-01
 20
5.50941957E+01
 11
-5.05665460E-01
 21
5.10941957E+01
  0
LINE
  8
0
 62
4
 10
2.49433453E+00
 20
5.43941957E+01
 11
7.43133362E+00
 21
5.43941957E+01
  0
LINE
  8
0
 62
4
 10
2.49433454E+00
 20
5.43941957E+01
 11
2.49433454E+00
 21
5.17941957E+01
  0
LINE
  8
0
 62
6
 10
7.43133362E+00
 20
5.43941957E+01
 11
4.83133362E+00
 21
5.17941957E+01
  0
LINE
  8
0
 62
4
 10
-8.50566546E+00
 20
4.74441957E+01
 11
-8.50566546E+00
 21
5.89586747E+01
  0
LINE
  8
0
 62
4
 10
-1.10056655E+01
 20
5.89586747E+01
 11
-1.10056655E+01
 21
5.79413907E+01
  0
LINE
  8
0
 62
4
 10
-1.18956655E+01
 20
5.19941957E+01
 11
-1.19456655E+01
 21
5.20341957E+01
  0
LINE
  8
0
 62
4
 10
-1.50056655E+01
 20
5.79413907E+01
 11
-1.50056655E+01
 21
5.89586747E+01
  0
LINE
  8
0
 62
4
 10
-1.75056654E+01
 20
5.89586747E+01
 11
-8.50566544E+00
 21
5.89586747E+01
  0
LINE
  8
0
 62
4
 10
-1.50056655E+01
 20
5.81941957E+01
 11
-1.10056655E+01
 21
5.81941957E+01
  0
CIRCLE
  8
0
 62
4
 10
-1.30065407E+01
 20
5.30917372E+01
 40
2.50000000E+00
  0
LINE
  8
0
 62
4
 10
-1.19956655E+01
 20
5.20941957E+01
 11
-1.40656655E+01
 21
5.41541957E+01
  0
LINE
  8
0
 62
4
 10
-1.40656655E+01
 20
5.20341957E+01
 11
-1.19456655E+01
 21
5.41541957E+01
  0
LINE
  8
0
 62
4
 10
-1.75056655E+01
 20
4.74441957E+01
 11
-8.50566546E+00
 21
4.74441957E+01
  0
LINE
  8
0
 62
4
 10
-1.75056655E+01
 20
4.87941957E+01
 11
-8.50566546E+00
 21
4.87941957E+01
  0
LINE
  8
0
 62
4
 10
-1.75056655E+01
 20
5.73942324E+01
 11
-8.50566546E+00
 21
5.73942324E+01
  0
LINE
  8
0
 62
4
 10
-1.75056654E+01
 20
5.79413907E+01
 11
-8.50566544E+00
 21
5.79413907E+01
  0
LINE
  8
0
 62
7
 10
-2.75056655E+01
 20
4.75941957E+01
 11
-1.75056655E+01
 21
4.75941957E+01
  0
LINE
  8
0
 62
7
 10
-2.75056655E+01
 20
5.85941957E+01
 11
-1.75056655E+01
 21
5.85941957E+01
  0
LINE
  8
0
 62
7
 10
-2.75056655E+01
 20
6.00941957E+01
 11
-2.75056655E+01
 21
4.60941957E+01
  0
LINE
  8
0
 62
7
 10
-4.85056578E+01
 20
5.72941984E+01
 11
-4.85056578E+01
 21
4.88941950E+01
  0
LINE
  8
0
 62
7
 10
-4.05056655E+01
 20
6.00941957E+01
 11
-4.05056655E+01
 21
4.60941957E+01
  0
LINE
  8
0
 62
7
 10
-4.77056624E+01
 20
5.80941957E+01
 11
-4.77056624E+01
 21
4.80941977E+01
  0
LINE
  8
0
 62
7
 10
-4.20056655E+01
 20
5.80941957E+01
 11
-4.20056655E+01
 21
4.80941977E+01
  0
LINE
  8
0
 62
7
 10
-4.77056636E+01
 20
5.80941943E+01
 11
-4.85056634E+01
 21
5.72941944E+01
  0
LINE
  8
0
 62
7
 10
-6.78056714E+01
 20
5.50942023E+01
 11
-6.85056732E+01
 21
5.43942004E+01
  0
LINE
  8
0
 62
2
 10
-6.83056609E+01
 20
5.45941957E+01
 11
-6.39289900E+01
 21
5.45941957E+01
  0
LINE
  8
0
 62
7
 10
-6.78056609E+01
 20
5.10941957E+01
 11
-6.39289900E+01
 21
5.10941957E+01
  0
LINE
  8
0
 62
7
 10
-5.35056578E+01
 20
5.50941957E+01
 11
-5.35056578E+01
 21
5.10941957E+01
  0
LINE
  8
0
 62
7
 10
-6.78056609E+01
 20
5.50941957E+01
 11
-6.78056609E+01
 21
5.10941957E+01
  0
LINE
  8
0
 62
7
 10
-6.85056677E+01
 20
5.17941943E+01
 11
-6.78056658E+01
 21
5.10941924E+01
  0
LINE
  8
0
 62
2
 10
-6.83056609E+01
 20
5.15941957E+01
 11
-6.39289900E+01
 21
5.15941957E+01
  0
LINE
  8
0
 62
7
 10
-6.85056578E+01
 20
5.43941969E+01
 11
-6.85056578E+01
 21
5.17941965E+01
  0
LINE
  8
0
  6
CENTER
 62
2
 10
-7.05056578E+01
 20
5.30941957E+01
 11
6.67575854E+01
 21
5.30941957E+01
  0
LINE
  8
0
 62
2
 10
-6.07289855E+01
 20
5.45941957E+01
 11
-5.35056578E+01
 21
5.45941957E+01
  0
LINE
  8
0
 62
7
 10
-6.07289855E+01
 20
5.50941957E+01
 11
-5.25056578E+01
 21
5.50941957E+01
  0
LINE
  8
0
 62
2
 10
-6.07289855E+01
 20
5.15941957E+01
 11
-5.35056578E+01
 21
5.15941957E+01
  0
LINE
  8
0
 62
7
 10
-6.07289855E+01
 20
5.10941957E+01
 11
-5.25056578E+01
 21
5.10941957E+01
  0
LINE
  8
0
 62
7
 10
-4.05056655E+01
 20
6.00941957E+01
 11
-2.75056655E+01
 21
6.00941957E+01
  0
LINE
  8
0
 62
2
 10
-4.82056624E+01
 20
5.75941957E+01
 11
-4.20056655E+01
 21
5.75941957E+01
  0
LINE
  8
0
 62
7
 10
-4.77056656E+01
 20
4.80941955E+01
 11
-4.85056654E+01
 21
4.88941953E+01
  0
LINE
  8
0
 62
2
 10
-4.82056624E+01
 20
4.85941977E+01
 11
-4.20056655E+01
 21
4.85941977E+01
  0
LINE
  8
0
 62
7
 10
-4.77056624E+01
 20
4.80941977E+01
 11
-4.05056655E+01
 21
4.80941977E+01
  0
LINE
  8
0
 62
7
 10
-4.05056655E+01
 20
4.60941957E+01
 11
-2.75056655E+01
 21
4.60941957E+01
  0
LINE
  8
0
 62
7
 10
-5.17697646E+01
 20
5.55190672E+01
 11
-4.85056578E+01
 21
5.55190672E+01
  0
LINE
  8
0
 62
7
 10
-5.17697646E+01
 20
5.43066324E+01
 11
-4.85056578E+01
 21
5.43066324E+01
  0
LINE
  8
0
 62
7
 10
-5.17697646E+01
 20
5.18817610E+01
 11
-4.85056578E+01
 21
5.18817610E+01
  0
LINE
  8
0
 62
7
 10
-5.25056578E+01
 20
5.50941957E+01
 11
-5.25056578E+01
 21
5.10941957E+01
  0
LINE
  8
0
 62
7
 10
-5.25056574E+01
 20
5.50941973E+01
 11
-5.17697618E+01
 21
5.55190668E+01
  0
LINE
  8
0
 62
7
 10
-5.25056551E+01
 20
5.10941931E+01
 11
-5.17697595E+01
 21
5.06693235E+01
  0
LINE
  8
0
 62
7
 10
-5.17697646E+01
 20
5.06693243E+01
 11
-4.85056578E+01
 21
5.06693243E+01
  0
LINE
  8
0
 62
7
 10
-3.90056655E+01
 20
5.79160227E+01
 11
-2.90056655E+01
 21
5.79160227E+01
  0
LINE
  8
0
 62
7
 10
-3.90056655E+01
 20
4.82723707E+01
 11
-2.90056655E+01
 21
4.82723707E+01
  0
LINE
  8
0
 62
7
 10
-3.90056655E+01
 20
6.00941957E+01
 11
-3.90056655E+01
 21
5.79160227E+01
  0
LINE
  8
0
 62
7
 10
-3.90056655E+01
 20
4.82723707E+01
 11
-3.90056655E+01
 21
4.60941957E+01
  0
LINE
  8
0
 62
7
 10
-2.90056655E+01
 20
6.00941957E+01
 11
-2.90056655E+01
 21
5.79160227E+01
  0
LINE
  8
0
 62
7
 10
-2.90056655E+01
 20
4.82723707E+01
 11
-2.90056655E+01
 21
4.60941957E+01
  0
LINE
  8
0
 62
7
 10
-6.78056609E+01
 20
5.50941957E+01
 11
-6.39289900E+01
 21
5.50941957E+01
  0
LINE
  8
0
 62
7
 10
-4.77056624E+01
 20
5.80941957E+01
 11
-4.05056655E+01
 21
5.80941957E+01
  0
LINE
  8
0
  6
CENTER
 62
2
 10
-3.20056540E+01
 20
4.96807646E+01
 11
-3.20056540E+01
 21
5.71033758E+01
  0
LINE
  8
0
  6
CENTER
 62
2
 10
4.59943362E+01
 20
4.96368669E+01
 11
4.59943362E+01
 21
5.66791605E+01
  0
LINE
  8
0
  6
CENTER
 62
2
 10
5.84943364E+01
 20
6.26342215E+01
 11
5.84943364E+01
 21
4.47299319E+01
  0
LINE
  8
0
 62
7
 10
6.34943364E+01
 20
5.90920958E+01
 11
6.34943364E+01
 21
5.46920942E+01
  0
LINE
  8
0
 62
7
 10
5.04943364E+01
 20
5.46920942E+01
 11
6.34943364E+01
 21
5.46920942E+01
  0
LINE
  8
0
 62
7
 10
5.04943364E+01
 20
5.14920973E+01
 11
6.34943364E+01
 21
5.14920973E+01
  0
LINE
  8
0
 62
7
 10
6.17643369E+01
 20
5.90920958E+01
 11
6.17643369E+01
 21
5.66976484E+01
  0
LINE
  8
0
 62
7
 10
4.32243355E+01
 20
5.66976484E+01
 11
6.17643379E+01
 21
5.66976484E+01
  0
LINE
  8
0
 62
7
 10
4.14943364E+01
 20
5.90920958E+01
 11
6.34943364E+01
 21
5.90920958E+01
  0
LINE
  8
0
 62
7
 10
4.14943364E+01
 20
4.70920958E+01
 11
6.34943364E+01
 21
4.70920958E+01
  0
LINE
  8
0
 62
7
 10
4.32243355E+01
 20
4.94865450E+01
 11
6.17643379E+01
 21
4.94865450E+01
  0
LINE
  8
0
 62
7
 10
5.04943364E+01
 20
5.46920942E+01
 11
5.04943364E+01
 21
5.14920973E+01
  0
LINE
  8
0
 62
7
 10
6.17643369E+01
 20
4.94865450E+01
 11
6.17643369E+01
 21
4.70920958E+01
  0
LINE
  8
0
 62
7
 10
6.34943364E+01
 20
5.14920973E+01
 11
6.34943364E+01
 21
4.70920958E+01
  0
ARC
  8
0
 62
7
 10
-5.11389281E+01
 20
5.30941957E+01
 40
1.36672843E+00
 50
1.17487955E+02
 51
2.42512041E+02
  0
ARC
  8
0
 62
7
 10
-3.20056655E+01
 20
5.30941957E+01
 40
8.50000000E+00
 50
1.45439685E+02
 51
2.14560325E+02
  0
ARC
  8
0
 62
7
 10
-3.60056655E+01
 20
5.30941957E+01
 40
8.50000000E+00
 50
3.25439676E+02
 51
3.45603235E+01
  0
ARC
  8
0
 62
7
 10
-5.18880126E+01
 20
5.49128508E+01
 40
6.17644012E-01
 50
1.61038020E+02
 51
2.81038023E+02
  0
ARC
  8
0
 62
7
 10
-5.18880126E+01
 20
5.12755426E+01
 40
6.17644012E-01
 50
7.89619728E+01
 51
1.98961976E+02
  0
CIRCLE
  8
0
 62
7
 10
-3.20056540E+01
 20
5.30941957E+01
 40
2.00000000E+00
  0
CIRCLE
  8
0
 62
2
 10
-3.20056540E+01
 20
5.30941957E+01
 40
2.50000000E+00
  0
ARC
  8
0
 62
7
 10
4.59943362E+01
 20
5.30941957E+01
 40
2.00000000E+00
 50
2.20649614E+02
 51
3.56085991E+02
  0
ARC
  8
0
 62
2
 10
4.59943362E+01
 20
5.30941957E+01
 40
2.50000000E+00
 50
2.14824478E+02
 51
7.91642791E+00
  0
ARC
  8
0
 62
7
 10
5.88721097E+01
 20
5.30920958E+01
 40
4.62222719E+00
 50
3.08735172E+02
 51
3.39747796E+02
  0
ARC
  8
0
 62
7
 10
5.88721097E+01
 20
5.30920958E+01
 40
4.62222719E+00
 50
2.02522041E+01
 51
5.12648283E+01
  0
ARC
  8
0
 62
7
 10
4.61165632E+01
 20
5.30920958E+01
 40
4.62222719E+00
 50
1.28735173E+02
 51
1.55660214E+02
  0
LINE
  8
0
 62
4
 10
-6.07289855E+01
 20
4.95941957E+01
 11
-6.07289855E+01
 21
5.65941957E+01
  0
LINE
  8
0
 62
4
 10
-6.39289900E+01
 20
4.95941957E+01
 11
-6.39289900E+01
 21
5.65941957E+01
  0
LINE
  8
0
 62
4
 10
-6.35586458E+01
 20
5.30941957E+01
 11
-6.10993297E+01
 21
5.30941957E+01
  0
LINE
  8
0
 62
4
 10
-6.39289900E+01
 20
5.65941957E+01
 11
-6.07289855E+01
 21
5.65941957E+01
  0
LINE
  8
0
 62
4
 10
-6.39289900E+01
 20
4.95941957E+01
 11
-6.07289855E+01
 21
4.95941957E+01
  0
ARC
  8
0
 62
4
 10
-5.96091518E+01
 20
5.48441957E+01
 40
4.31983828E+00
 50
1.56102120E+02
 51
2.03897880E+02
  0
ARC
  8
0
 62
4
 10
-6.50488237E+01
 20
5.48441957E+01
 40
4.31983828E+00
 50
3.36102120E+02
 51
2.38978800E+01
  0
ARC
  8
0
 62
4
 10
-5.96091518E+01
 20
5.13441957E+01
 40
4.31983828E+00
 50
1.56102120E+02
 51
2.03897880E+02
  0
ARC
  8
0
 62
4
 10
-6.50488237E+01
 20
5.13441957E+01
 40
4.31983828E+00
 50
3.36102120E+02
 51
2.38978800E+01
  0
LINE
  8
0
 62
4
 10
-7.28160120E+01
 20
-3.95654895E+01
 11
-7.28160120E+01
 21
-4.10654895E+01
  0
LINE
  8
0
 62
4
 10
-8.08160120E+01
 20
-3.95654895E+01
 11
-7.28160120E+01
 21
-3.95654895E+01
  0
LINE
  8
0
 62
4
 10
-8.08160120E+01
 20
-3.45654895E+01
 11
-7.28160120E+01
 21
-3.45654895E+01
  0
LINE
  8
0
 62
4
 10
-7.28160120E+01
 20
-3.30654895E+01
 11
-7.28160120E+01
 21
-3.45654895E+01
  0
LINE
  8
0
  6
CENTER
 62
6
 10
-6.88160120E+01
 20
-3.39867902E+01
 11
-6.88160120E+01
 21
-4.02937755E+01
  0
LINE
  8
0
 62
4
 10
-7.28160120E+01
 20
-4.10654895E+01
 11
-6.78160120E+01
 21
-4.10654895E+01
  0
LINE
  8
0
 62
4
 10
-7.28160120E+01
 20
-3.30654895E+01
 11
-6.78160120E+01
 21
-3.30654895E+01
  0
CIRCLE
  8
0
 62
4
 10
-6.88160120E+01
 20
-3.70654895E+01
 40
1.10000000E+00
  0
CIRCLE
  8
0
 62
4
 10
-6.88160120E+01
 20
-3.70654895E+01
 40
1.59999943E+00
  0
LINE
  8
0
 62
4
 10
-8.58160120E+01
 20
-4.35654895E+01
 11
-8.08160120E+01
 21
-4.35654895E+01
  0
LINE
  8
0
 62
4
 10
-8.08160120E+01
 20
-3.08354895E+01
 11
-8.08160120E+01
 21
-4.35654895E+01
  0
LINE
  8
0
 62
4
 10
-8.58160120E+01
 20
-3.08354895E+01
 11
-8.58160120E+01
 21
-4.35654895E+01
  0
LINE
  8
0
 62
4
 10
-8.58160120E+01
 20
-3.27354895E+01
 11
-8.08160120E+01
 21
-3.27354895E+01
  0
LINE
  8
0
 62
4
 10
-8.58160120E+01
 20
-3.08354895E+01
 11
-8.08160120E+01
 21
-3.08354895E+01
  0
LINE
  8
0
 62
4
 10
-8.58160120E+01
 20
-3.11954895E+01
 11
-8.08160120E+01
 21
-3.11954895E+01
  0
LINE
  8
0
  6
CENTER
 62
6
 10
-8.77993214E+01
 20
-3.70654895E+01
 11
-6.19585109E+01
 21
-3.70654895E+01
  0
ARC
  8
0
 62
4
 10
-6.78160120E+01
 20
-3.70654895E+01
 40
4.00000000E+00
 50
2.70000000E+02
 51
9.00000002E+01
  0
LINE
  8
0
  6
CENTER
 62
6
 10
-3.61131858E+01
 20
-3.70654895E+01
 11
-1.73131011E+01
 21
-3.70654895E+01
  0
LINE
  8
0
 62
4
 10
-2.04325910E+01
 20
-4.10654895E+01
 11
-2.00325910E+01
 21
-4.10654895E+01
  0
LINE
  8
0
  6
CENTER
 62
6
 10
-2.65325910E+01
 20
-3.10844001E+01
 11
-2.65325910E+01
 21
-4.64764274E+01
  0
LINE
  8
0
 62
4
 10
-3.34325910E+01
 20
-3.54654895E+01
 11
-3.34325910E+01
 21
-3.86654895E+01
  0
LINE
  8
0
 62
4
 10
-3.34325910E+01
 20
-3.54654895E+01
 11
-3.39325910E+01
 21
-3.59654895E+01
  0
LINE
  8
0
 62
4
 10
-3.39325910E+01
 20
-3.59654895E+01
 11
-3.39325910E+01
 21
-3.81654895E+01
  0
LINE
  8
0
 62
4
 10
-3.34325910E+01
 20
-3.86654895E+01
 11
-3.39325910E+01
 21
-3.81654895E+01
  0
LINE
  8
0
 62
4
 10
-3.34325910E+01
 20
-3.86654895E+01
 11
-2.04325910E+01
 21
-3.86654895E+01
  0
LINE
  8
0
 62
4
 10
-3.34325910E+01
 20
-3.54654895E+01
 11
-2.04325910E+01
 21
-3.54654895E+01
  0
ARC
  8
0
 62
4
 10
-2.65353260E+01
 20
-3.70654794E+01
 40
7.00087420E+00
 50
1.47744798E+02
 51
1.66788784E+02
  0
ARC
  8
0
 62
4
 10
-2.65323357E+01
 20
-3.70604095E+01
 40
7.00469417E+00
 50
1.93246650E+02
 51
3.30552688E+02
  0
ARC
  8
0
 62
4
 10
-2.65427892E+01
 20
-3.71014374E+01
 40
6.99693101E+00
 50
3.38502920E+02
 51
3.52080472E+02
  0
ARC
  8
0
 62
4
 10
-2.65353240E+01
 20
-3.70705290E+01
 40
7.49903105E+00
 50
3.30128328E+02
 51
3.52375597E+02
  0
LINE
  8
0
 62
4
 10
-2.00325910E+01
 20
-3.80654895E+01
 11
-1.89325910E+01
 21
-3.80654895E+01
  0
LINE
  8
0
 62
4
 10
-1.89325910E+01
 20
-3.60654895E+01
 11
-1.89325910E+01
 21
-3.80654895E+01
  0
LINE
  8
0
 62
4
 10
-2.00325910E+01
 20
-3.60654895E+01
 11
-1.89325910E+01
 21
-3.60654895E+01
  0
ARC
  8
0
 62
4
 10
-2.65322735E+01
 20
-3.70594145E+01
 40
7.49587013E+00
 50
7.61965181E+00
 51
2.98764230E+01
  0
LINE
  8
0
 62
4
 10
-2.04325910E+01
 20
-3.30654895E+01
 11
-2.00325910E+01
 21
-3.30654895E+01
  0
ARC
  8
0
 62
4
 10
-1.97337348E+01
 20
-3.28522186E+01
 40
5.05997495E-01
 50
1.35170308E+02
 51
2.04928438E+02
  0
ARC
  8
0
 62
4
 10
-1.97329970E+01
 20
-3.28492237E+01
 40
9.99382529E-01
 50
1.35237547E+02
 51
2.25570897E+02
  0
ARC
  8
0
 62
4
 10
-2.65402835E+01
 20
-3.70288837E+01
 40
6.99435861E+00
 50
7.91701914E+00
 51
2.14995887E+01
  0
LINE
  8
0
 62
4
 10
-2.00325910E+01
 20
-3.30654895E+01
 11
-2.00325910E+01
 21
-4.10654895E+01
  0
LINE
  8
0
 62
4
 10
-2.04425910E+01
 20
-3.21454895E+01
 11
-1.91425910E+01
 21
-3.08354895E+01
  0
LINE
  8
0
 62
4
 10
-1.91425910E+01
 20
-3.08354895E+01
 11
-1.87925910E+01
 21
-3.11954895E+01
  0
LINE
  8
0
 62
4
 10
-2.00925910E+01
 20
-3.24954895E+01
 11
-1.87925910E+01
 21
-3.11954895E+01
  0
ARC
  8
0
 62
4
 10
-2.65332981E+01
 20
-3.70596208E+01
 40
7.50010334E+00
 50
1.48272703E+02
 51
3.27716530E+02
  0
ARC
  8
0
 62
4
 10
-3.33301640E+01
 20
-3.28547057E+01
 40
9.94784285E-01
 50
3.28431721E+02
 51
4.54741939E+01
  0
ARC
  8
0
 62
4
 10
-3.33308944E+01
 20
-3.28487657E+01
 40
4.96104207E-01
 50
3.27477101E+02
 51
4.54060996E+01
  0
LINE
  8
0
 62
4
 10
-3.39325910E+01
 20
-3.08354895E+01
 11
-3.42825910E+01
 21
-3.11954895E+01
  0
LINE
  8
0
 62
4
 10
-3.39325910E+01
 20
-3.08354895E+01
 11
-3.26325910E+01
 21
-3.21454895E+01
  0
LINE
  8
0
 62
4
 10
-3.42825910E+01
 20
-3.11954895E+01
 11
-3.29825910E+01
 21
-3.24954895E+01
  0
LINE
  8
0
 62
4
 10
-2.04325910E+01
 20
-3.30654895E+01
 11
-2.04325910E+01
 21
-4.10654895E+01
  0
LINE
  8
0
  6
CENTER
 62
6
 10
6.97642961E+01
 20
-3.43716428E+01
 11
6.97642961E+01
 21
-7.63716428E+01
  0
LINE
  8
0
  6
CENTER
 62
6
 10
8.48642961E+01
 20
-6.83716428E+01
 11
8.48642961E+01
 21
-7.63716428E+01
  0
LINE
  8
0
  6
CENTER
 62
6
 10
5.46642961E+01
 20
-6.83716428E+01
 11
5.46642961E+01
 21
-7.63716428E+01
  0
LINE
  8
0
 62
4
 10
7.97642961E+01
 20
-7.13716428E+01
 11
8.97642961E+01
 21
-7.13716428E+01
  0
LINE
  8
0
 62
4
 10
7.13142961E+01
 20
-5.63716428E+01
 11
7.57642961E+01
 21
-5.63716428E+01
  0
LINE
  8
0
  6
CENTER
 62
6
 10
6.52142961E+01
 20
-4.43716428E+01
 11
7.43142961E+01
 21
-4.43716428E+01
  0
LINE
  8
0
 62
4
 10
6.82142961E+01
 20
-3.73716428E+01
 11
7.13142961E+01
 21
-3.73716428E+01
  0
LINE
  8
0
 62
4
 10
8.97642961E+01
 20
-7.13716428E+01
 11
8.97642961E+01
 21
-7.33716428E+01
  0
LINE
  8
0
 62
4
 10
7.87642961E+01
 20
-6.83716428E+01
 11
7.87642961E+01
 21
-7.03716428E+01
  0
LINE
  8
0
 62
4
 10
7.57642961E+01
 20
-5.63716428E+01
 11
7.57642961E+01
 21
-6.53716428E+01
  0
LINE
  8
0
 62
4
 10
7.13142961E+01
 20
-3.73716428E+01
 11
7.13142961E+01
 21
-5.63716428E+01
  0
LINE
  8
0
 62
4
 10
7.67642961E+01
 20
-6.83716428E+01
 11
7.67642961E+01
 21
-7.03716428E+01
  0
LINE
  8
0
 62
4
 10
7.97642961E+01
 20
-7.33716428E+01
 11
8.97642961E+01
 21
-7.33716428E+01
  0
LINE
  8
0
 62
4
 10
6.37642961E+01
 20
-6.53716428E+01
 11
7.57642961E+01
 21
-6.53716428E+01
  0
LINE
  8
0
 62
4
 10
6.37642961E+01
 20
-6.73716428E+01
 11
7.57642961E+01
 21
-6.73716428E+01
  0
LINE
  8
0
 62
4
 10
6.82142961E+01
 20
-3.73716428E+01
 11
6.82142961E+01
 21
-5.63716428E+01
  0
LINE
  8
0
 62
4
 10
6.82142961E+01
 20
-5.63716428E+01
 11
6.37642961E+01
 21
-5.63716428E+01
  0
LINE
  8
0
 62
4
 10
6.37642961E+01
 20
-5.63716428E+01
 11
6.37642961E+01
 21
-6.53716428E+01
  0
LINE
  8
0
 62
4
 10
6.07642961E+01
 20
-6.83716428E+01
 11
6.07642961E+01
 21
-7.03716428E+01
  0
LINE
  8
0
 62
4
 10
5.97642961E+01
 20
-7.13716428E+01
 11
4.97642961E+01
 21
-7.13716428E+01
  0
LINE
  8
0
 62
4
 10
4.97642961E+01
 20
-7.13716428E+01
 11
4.97642961E+01
 21
-7.33716428E+01
  0
LINE
  8
0
 62
4
 10
5.97642961E+01
 20
-7.33716428E+01
 11
4.97642961E+01
 21
-7.33716428E+01
  0
LINE
  8
0
 62
4
 10
6.27642961E+01
 20
-6.83716428E+01
 11
6.27642961E+01
 21
-7.03716428E+01
  0
LINE
  8
0
 62
4
 10
6.56642961E+01
 20
-7.33716428E+01
 11
7.38642961E+01
 21
-7.33716428E+01
  0
LINE
  8
0
 62
4
 10
6.56642961E+01
 20
-6.73716428E+01
 11
6.56642961E+01
 21
-7.33716428E+01
  0
LINE
  8
0
 62
4
 10
7.38642961E+01
 20
-6.73716428E+01
 11
7.38642961E+01
 21
-7.33716428E+01
  0
LINE
  8
0
 62
4
 10
6.56642961E+01
 20
-6.83716428E+01
 11
7.38642961E+01
 21
-6.83716428E+01
  0
LINE
  8
0
 62
4
 10
6.82142961E+01
 20
-3.89816428E+01
 11
7.13142961E+01
 21
-3.89816428E+01
  0
ARC
  8
0
 62
4
 10
5.97642961E+01
 20
-7.03716428E+01
 40
3.00000000E+00
 50
2.70000000E+02
 51
0.00000000E+00
  0
ARC
  8
0
 62
4
 10
5.97642961E+01
 20
-7.03716428E+01
 40
1.00000000E+00
 50
2.70000000E+02
 51
0.00000000E+00
  0
ARC
  8
0
 62
4
 10
6.37642961E+01
 20
-6.83716428E+01
 40
1.00000000E+00
 50
9.00000002E+01
 51
1.80000000E+02
  0
ARC
  8
0
 62
4
 10
7.97642961E+01
 20
-7.03716428E+01
 40
1.00000000E+00
 50
1.80000000E+02
 51
2.70000000E+02
  0
ARC
  8
0
 62
4
 10
6.37642961E+01
 20
-6.83716428E+01
 40
3.00000000E+00
 50
9.00000002E+01
 51
1.80000000E+02
  0
ARC
  8
0
 62
4
 10
7.57642961E+01
 20
-6.83716428E+01
 40
1.00000000E+00
 50
0.00000000E+00
 51
9.00000002E+01
  0
ARC
  8
0
 62
4
 10
7.57642961E+01
 20
-6.83716428E+01
 40
3.00000000E+00
 50
0.00000000E+00
 51
9.00000002E+01
  0
ARC
  8
0
 62
4
 10
7.97642961E+01
 20
-7.03716428E+01
 40
3.00000000E+00
 50
1.80000000E+02
 51
2.70000000E+02
  0
LINE
  8
0
  6
CENTER
 62
6
 10
2.27642961E+01
 20
-6.83666426E+01
 11
2.27642961E+01
 21
-7.63666426E+01
  0
LINE
  8
0
  6
CENTER
 62
6
 10
3.47642961E+01
 20
-6.83666426E+01
 11
3.47642961E+01
 21
-7.63666426E+01
  0
LINE
  8
0
  6
CENTER
 62
6
 10
2.87642961E+01
 20
-3.43666426E+01
 11
2.87642961E+01
 21
-7.63666426E+01
  0
LINE
  8
0
  6
CENTER
 62
6
 10
1.97642961E+01
 20
-4.43666426E+01
 11
3.77642961E+01
 21
-4.43666426E+01
  0
LINE
  8
0
 62
4
 10
2.27642961E+01
 20
-5.63666426E+01
 11
3.47642961E+01
 21
-5.63666426E+01
  0
LINE
  8
0
 62
4
 10
1.77642961E+01
 20
-6.53666426E+01
 11
3.97642961E+01
 21
-6.53666426E+01
  0
LINE
  8
0
 62
4
 10
1.77642961E+01
 20
-7.33666426E+01
 11
3.97642961E+01
 21
-7.33666426E+01
  0
LINE
  8
0
 62
4
 10
3.97642961E+01
 20
-6.53666426E+01
 11
3.97642961E+01
 21
-7.33666426E+01
  0
LINE
  8
0
 62
4
 10
3.47642961E+01
 20
-3.89766426E+01
 11
3.47642961E+01
 21
-6.53666426E+01
  0
LINE
  8
0
 62
4
 10
3.26642961E+01
 20
-7.13666426E+01
 11
3.26642961E+01
 21
-7.33666426E+01
  0
LINE
  8
0
 62
4
 10
3.68642961E+01
 20
-7.13666426E+01
 11
3.68642961E+01
 21
-7.33666426E+01
  0
LINE
  8
0
 62
4
 10
1.77642961E+01
 20
-7.13666426E+01
 11
3.97642961E+01
 21
-7.13666426E+01
  0
LINE
  8
0
 62
4
 10
2.27642961E+01
 20
-3.89766426E+01
 11
2.27642961E+01
 21
-6.53666426E+01
  0
LINE
  8
0
 62
4
 10
1.77642961E+01
 20
-6.53666426E+01
 11
1.77642961E+01
 21
-7.33666426E+01
  0
LINE
  8
0
 62
4
 10
2.06642961E+01
 20
-7.13666426E+01
 11
2.06642961E+01
 21
-7.33666426E+01
  0
LINE
  8
0
 62
4
 10
2.48642961E+01
 20
-7.13666426E+01
 11
2.48642961E+01
 21
-7.33666426E+01
  0
CIRCLE
  8
0
 62
4
 10
2.87642961E+01
 20
-4.43666426E+01
 40
1.64999962E+00
  0
ARC
  8
0
 62
4
 10
2.87642961E+01
 20
-4.93666445E+01
 40
1.19980057E+01
 50
5.99945013E+01
 51
1.20005499E+02
  0
LINE
  8
0
 62
4
 10
4.97642961E+01
 20
-3.37164848E+00
 11
4.97642961E+01
 21
-6.27164848E+00
  0
LINE
  8
0
 62
4
 10
6.07642961E+01
 20
-3.37164848E+00
 11
6.07642961E+01
 21
-2.53716485E+01
  0
LINE
  8
0
 62
4
 10
6.37642961E+01
 20
-8.37164848E+00
 11
6.37642961E+01
 21
-2.03716485E+01
  0
LINE
  8
0
  6
CENTER
 62
6
 10
6.97642961E+01
 20
-2.66410813E+00
 11
6.97642961E+01
 21
-2.62890869E+01
  0
LINE
  8
0
 62
4
 10
7.57642961E+01
 20
-8.37164848E+00
 11
7.57642961E+01
 21
-2.03716485E+01
  0
LINE
  8
0
 62
4
 10
7.87642961E+01
 20
-3.37164848E+00
 11
7.87642961E+01
 21
-2.53716485E+01
  0
LINE
  8
0
 62
4
 10
8.97642961E+01
 20
-3.37164848E+00
 11
8.97642961E+01
 21
-6.27164848E+00
  0
LINE
  8
0
  6
CENTER
 62
6
 10
9.27642961E+01
 20
-1.43716485E+01
 11
4.67642961E+01
 21
-1.43716485E+01
  0
LINE
  8
0
 62
4
 10
7.57642961E+01
 20
-2.03716485E+01
 11
6.37642961E+01
 21
-2.03716485E+01
  0
LINE
  8
0
 62
4
 10
8.97642961E+01
 20
-2.53716485E+01
 11
4.97642961E+01
 21
-2.53716485E+01
  0
LINE
  8
0
 62
4
 10
7.57642961E+01
 20
-8.37164848E+00
 11
6.37642961E+01
 21
-8.37164848E+00
  0
LINE
  8
0
 62
4
 10
8.97642961E+01
 20
-3.37164848E+00
 11
4.97642961E+01
 21
-3.37164848E+00
  0
LINE
  8
0
 62
4
 10
8.97642961E+01
 20
-6.27164848E+00
 11
8.48642961E+01
 21
-6.27164848E+00
  0
LINE
  8
0
 62
4
 10
8.97642961E+01
 20
-1.04716485E+01
 11
8.48642961E+01
 21
-1.04716485E+01
  0
LINE
  8
0
 62
4
 10
8.97642961E+01
 20
-1.82716485E+01
 11
8.48642961E+01
 21
-1.82716485E+01
  0
LINE
  8
0
 62
4
 10
8.97642961E+01
 20
-2.24716485E+01
 11
8.48642961E+01
 21
-2.24716485E+01
  0
LINE
  8
0
 62
4
 10
7.13142961E+01
 20
-8.37164848E+00
 11
7.13142961E+01
 21
-2.03716485E+01
  0
LINE
  8
0
 62
4
 10
6.82142961E+01
 20
-8.37164848E+00
 11
6.82142961E+01
 21
-2.03716485E+01
  0
LINE
  8
0
  6
CENTER
 62
6
 10
9.27642961E+01
 20
-8.37164848E+00
 11
7.97642961E+01
 21
-8.37164848E+00
  0
LINE
  8
0
  6
CENTER
 62
6
 10
9.27642961E+01
 20
-2.03716485E+01
 11
7.97642961E+01
 21
-2.03716485E+01
  0
LINE
  8
0
 62
4
 10
5.46642961E+01
 20
-6.27164848E+00
 11
4.97642961E+01
 21
-6.27164848E+00
  0
LINE
  8
0
 62
4
 10
5.46642961E+01
 20
-1.04716485E+01
 11
4.97642961E+01
 21
-1.04716485E+01
  0
LINE
  8
0
 62
4
 10
5.46642961E+01
 20
-1.82716485E+01
 11
4.97642961E+01
 21
-1.82716485E+01
  0
LINE
  8
0
 62
4
 10
5.46642961E+01
 20
-2.24716485E+01
 11
4.97642961E+01
 21
-2.24716485E+01
  0
LINE
  8
0
 62
4
 10
8.97642961E+01
 20
-1.06316485E+01
 11
8.97642961E+01
 21
-1.82716485E+01
  0
LINE
  8
0
 62
4
 10
8.97642961E+01
 20
-2.24716485E+01
 11
8.97642961E+01
 21
-2.53716485E+01
  0
LINE
  8
0
 62
4
 10
4.97642961E+01
 20
-1.04716485E+01
 11
4.97642961E+01
 21
-1.82716485E+01
  0
LINE
  8
0
 62
4
 10
4.97642961E+01
 20
-2.24716485E+01
 11
4.97642961E+01
 21
-2.53716485E+01
  0
LINE
  8
0
  6
CENTER
 62
6
 10
8.48642961E+01
 20
-2.48096876E+00
 11
8.48642961E+01
 21
-2.62890869E+01
  0
LINE
  8
0
  6
CENTER
 62
6
 10
5.46642961E+01
 20
-2.66410813E+00
 11
5.46642961E+01
 21
-2.62890869E+01
  0
LINE
  8
0
  6
CENTER
 62
6
 10
5.97642961E+01
 20
-8.37164848E+00
 11
4.67642961E+01
 21
-8.37164848E+00
  0
LINE
  8
0
  6
CENTER
 62
6
 10
5.97642961E+01
 20
-2.03716485E+01
 11
4.67642961E+01
 21
-2.03716485E+01
  0
ARC
  8
0
 62
4
 10
8.48642961E+01
 20
-2.03716485E+01
 40
2.10000000E+00
 50
9.00000002E+01
 51
2.70000000E+02
  0
ARC
  8
0
 62
4
 10
5.46642961E+01
 20
-2.03716485E+01
 40
2.10000000E+00
 50
2.70000000E+02
 51
9.00000002E+01
  0
ARC
  8
0
 62
4
 10
5.46642961E+01
 20
-8.37164848E+00
 40
2.10000000E+00
 50
2.70000000E+02
 51
9.00000002E+01
  0
ARC
  8
0
 62
4
 10
8.48642961E+01
 20
-8.37164848E+00
 40
2.10000000E+00
 50
9.00000002E+01
 51
2.70000000E+02
  0
TEXT
  8
0
 62
7
 10
-1.03849994E+02
 20
-8.24000031E+01
 40
3.20000005E+00
  1
5
 41
1.00000000E+00
  7
MONOTXT
  0
TEXT
  8
0
 62
7
 10
-1.07049994E+02
 20
-8.84000031E+01
 40
3.20000005E+00
  1
-40
 41
1.00000000E+00
  7
MONOTXT
  0
TEXT
  8
0
 62
7
 10
-9.58499939E+01
 20
-8.24000031E+01
 40
3.20000005E+00
  1
10
 41
1.00000000E+00
  7
MONOTXT
  0
TEXT
  8
0
 62
7
 10
-9.74499940E+01
 20
-8.84000031E+01
 40
3.20000005E+00
  1
-35
 41
1.00000000E+00
  7
MONOTXT
  0
TEXT
  8
0
 62
7
 10
-8.62499939E+01
 20
-8.24000031E+01
 40
3.20000005E+00
  1
15
 41
1.00000000E+00
  7
MONOTXT
  0
TEXT
  8
0
 62
7
 10
-8.78499940E+01
 20
-8.84000031E+01
 40
3.20000005E+00
  1
-30
 41
1.00000000E+00
  7
MONOTXT
  0
TEXT
  8
0
 62
7
 10
-7.82499940E+01
 20
-8.84000031E+01
 40
3.20000005E+00
  1
-15
 41
1.00000000E+00
  7
MONOTXT
  0
TEXT
  8
0
 62
7
 10
-6.54499939E+01
 20
-8.84000031E+01
 40
3.20000005E+00
  1
0
 41
1.00000000E+00
  7
MONOTXT
  0
TEXT
  8
0
 62
7
 10
-5.74499939E+01
 20
-8.84000031E+01
 40
3.20000005E+00
  1
15
 41
1.00000000E+00
  7
MONOTXT
  0
LINE
  8
0
 62
7
 10
-1.33399994E+02
 20
-8.98000031E+01
 11
-4.97999939E+01
 21
-8.98000031E+01
  0
LINE
  8
0
 62
7
 10
-1.33399994E+02
 20
-8.98000031E+01
 11
-1.33399994E+02
 21
-7.78000031E+01
  0
LINE
  8
0
 62
7
 10
-1.33399994E+02
 20
-8.38000031E+01
 11
-4.97999939E+01
 21
-8.38000031E+01
  0
LINE
  8
0
 62
7
 10
-1.07399994E+02
 20
-8.98000031E+01
 11
-1.07399994E+02
 21
-7.78000031E+01
  0
LINE
  8
0
 62
7
 10
-9.77999939E+01
 20
-8.98000031E+01
 11
-9.77999939E+01
 21
-7.78000031E+01
  0
LINE
  8
0
 62
7
 10
-1.33399994E+02
 20
-7.78000031E+01
 11
-4.97999939E+01
 21
-7.78000031E+01
  0
TEXT
  8
0
 62
7
 10
-1.03849994E+02
 20
-8.24000031E+01
 40
3.20000005E+00
  1
5
 41
1.00000000E+00
  7
MONOTXT
  0
LINE
  8
0
 62
7
 10
-8.81999939E+01
 20
-8.98000031E+01
 11
-8.81999939E+01
 21
-7.78000031E+01
  0
TEXT
  8
0
 62
7
 10
-9.58499939E+01
 20
-8.24000031E+01
 40
3.20000005E+00
  1
10
 41
1.00000000E+00
  7
MONOTXT
  0
LINE
  8
0
 62
7
 10
-7.85999939E+01
 20
-8.98000031E+01
 11
-7.85999939E+01
 21
-7.78000031E+01
  0
TEXT
  8
0
 62
7
 10
-8.62499939E+01
 20
-8.24000031E+01
 40
3.20000005E+00
  1
15
 41
1.00000000E+00
  7
MONOTXT
  0
LINE
  8
0
 62
7
 10
-6.89999939E+01
 20
-8.98000031E+01
 11
-6.89999939E+01
 21
-7.78000031E+01
  0
TEXT
  8
0
 62
7
 10
-7.66499939E+01
 20
-8.24000031E+01
 40
3.20000005E+00
  1
30
 41
1.00000000E+00
  7
MONOTXT
  0
LINE
  8
0
 62
7
 10
-5.93999939E+01
 20
-8.98000031E+01
 11
-5.93999939E+01
 21
-7.78000031E+01
  0
TEXT
  8
0
 62
7
 10
-6.70499939E+01
 20
-8.24000031E+01
 40
3.20000005E+00
  1
45
 41
1.00000000E+00
  7
MONOTXT
  0
LINE
  8
0
 62
7
 10
-4.97999939E+01
 20
-8.98000031E+01
 11
-4.97999939E+01
 21
-7.78000031E+01
  0
TEXT
  8
0
 62
7
 10
-5.74499939E+01
 20
-8.24000031E+01
 40
3.20000005E+00
  1
60
 41
1.00000000E+00
  7
MONOTXT
  0
TEXT
  8
0
 62
7
 10
-1.29649994E+02
 20
-8.24000031E+01
 40
3.20000005E+00
  1
STROKE
 41
1.00000000E+00
  7
MONOTXT
  0
TEXT
  8
0
 62
7
 10
-1.31249994E+02
 20
-8.84000031E+01
 40
3.20000005E+00
  1
STRETCH
 41
1.00000000E+00
  7
MONOTXT
  0
TEXT
  8
0
 62
7
 10
-6.09181865E+01
 20
-7.53948700E+01
 40
3.20000005E+00
  1
(mm)
 41
1.00000000E+00
  7
MONOTXT
  0
TEXT
  8
0
 62
7
 10
-1.10943412E+02
 20
-7.53948700E+01
 40
3.20000005E+00
  1
STRETCH LIST
 41
1.05263158E+00
  7
MONOTXT
  0
TEXT
  8
0
 10
-6.58120611E+00
 20
6.93163783E+01
 40
3.20000005E+00
  1
STRETCH LINE
 41
1.05263158E+00
  7
MONOTXT
  0
LINE
  8
0
 62
7
 10
-1.38399994E+02
 20
9.45000000E+01
 11
1.38350006E+02
 21
9.45000000E+01
  0
LINE
  8
0
 62
7
 10
1.38350006E+02
 20
9.45000000E+01
 11
1.38350006E+02
 21
-9.48000031E+01
  0
LINE
  8
0
 62
7
 10
-1.38399994E+02
 20
-9.48000031E+01
 11
1.38350006E+02
 21
-9.48000031E+01
  0
LINE
  8
0
 62
7
 10
-1.38399994E+02
 20
9.45000000E+01
 11
-1.38399994E+02
 21
-9.48000031E+01
  0
LINE
  8
0
 62
7
 10
7.33500061E+01
 20
-8.48000031E+01
 11
1.38350006E+02
 21
-8.48000031E+01
  0
LINE
  8
0
 62
7
 10
-1.38399994E+02
 20
8.45000000E+01
 11
-7.33999939E+01
 21
8.45000000E+01
  0
LINE
  8
0
 62
7
 10
7.33500061E+01
 20
8.45000000E+01
 11
1.38350006E+02
 21
8.45000000E+01
  0
LINE
  8
0
 62
7
 10
7.33500061E+01
 20
-8.48000031E+01
 11
7.33500061E+01
 21
-9.48000031E+01
  0
LINE
  8
0
 62
7
 10
7.33500061E+01
 20
9.45000000E+01
 11
7.33500061E+01
 21
8.45000000E+01
  0
LINE
  8
0
 62
7
 10
-7.33999939E+01
 20
9.45000000E+01
 11
-7.33999939E+01
 21
8.45000000E+01
  0
TEXT
  8
0
 62
7
 10
7.72426624E+01
 20
-9.20500031E+01
 40
4.50000000E+00
  1
KOGANEI CORP.
 41
1.04838710E+00
  7
MONOTXT
  0
TEXT
  8
0
 62
7
 10
9.35071493E+01
 20
8.79000001E+01
 40
3.19999981E+00
  1
Ver. 1.0
 41
1.08108108E+00
  7
MONOTXT
  0
TEXT
  8
0
 62
7
 10
-1.31042850E+02
 20
8.79000001E+01
 40
3.19999981E+00
  1
NEW PEN CYLINDER
 41
1.08108108E+00
  7
MONOTXT
  0
TEXT
  8
0
 62
7
 10
-1.29085994E+02
 20
7.29000000E+01
 40
3.20000005E+00
  1
MODEL:PBDALS10*ST(45)-7-ZC230
 41
1.00000000E+00
  7
MONOTXT
  0
ENDSEC
  0
EOF
