  0
SECTION
  2
HEADER
  9
$ACADVER
  1
AC1003
  9
$EXTMIN
 10
-1.38399994E+02
 20
-9.48000031E+01
  9
$EXTMAX
 10
1.38350006E+02
 20
9.45000000E+01
  9
$LIMMIN
 10
-1.38400994E+02
 20
-9.48010031E+01
  9
$LIMMAX
 10
1.38351006E+02
 20
9.45010000E+01
  9
$SNAPUNIT
 10
1
 20
1
  9
$SNAPBASE
 10
0
 20
0
  9
$GRIDMODE
 70
0
  9
$GRIDUNIT
 10
0
 20
0
  9
$LTSCALE
 40
4.61250000E+00
  9
$TEXTSIZE
 40
3.2
  9
$DIMTAD
 70
0
  9
$LUNITS
 70
2
  9
$LUPREC
 70
4
  9
$FILLETRAD
 40
0
  9
$AUNITS
 70
0
  9
$AUPREC
 70
0
  0
ENDSEC
  0
SECTION
  2
TABLES
  0
TABLE
  2
LTYPE
 70
2
  0
LTYPE
  2
CONTINUOUS
 70
64
  3
Solid-Line
 72
65
 73
0
 40
0
  0
LTYPE
  2
DASHED
 70
64
  3
DASHED
 72
65
 73
2
 40
.75
 49
.5
 49
-.25
  0
LTYPE
  2
HIDDEN
 70
64
  3
HIDDEN
 72
65
 73
2
 40
.375
 49
.25
 49
-.125
  0
LTYPE
  2
CENTER
 70
64
  3
CENTER
 72
65
 73
4
 40
2
 49
1.25
 49
-.25
 49
.25
 49
-.25
  0
LTYPE
  2
PHANTOM
 70
64
  3
PHANTOM
 72
65
 73
6
 40
2.5
 49
1.25
 49
-.25
 49
.25
 49
-.25
 49
.25
 49
-.25
  0
ENDTAB
  0
TABLE
  2
LAYER
 70
1
  0
LAYER
  2
0
 70
0
 62
3
  6
CONTINUOUS
 0
ENDTAB
  0
TABLE
  2
STYLE
 70
2
  0
STYLE
  2
MONOTXT
 70
0
 40
0
 41
1
 50
0
 71
0
 42
.2
  3
monotxt
  0
STYLE
  2
BIGFONT
 70
0
 40
0
 41
1
 50
0
 71
0
 42
.2
  3
txt
  4
bigfont
  0
ENDTAB
  0
ENDSEC
  0
SECTION
  2
ENTITIES
  0
LINE
  8
0
  6
CENTER
 62
6
 10
1.07337084E-01
 20
6.38049128E+01
 11
1.07337084E-01
 21
3.63749128E+01
  0
LINE
  8
0
 62
6
 10
-1.12266292E+00
 20
5.97949128E+01
 11
-1.12266292E+00
 21
5.87949128E+01
  0
LINE
  8
0
 62
6
 10
1.33733708E+00
 20
5.97949128E+01
 11
1.33733708E+00
 21
5.87949128E+01
  0
LINE
  8
0
 62
4
 10
-1.39266292E+00
 20
5.97949128E+01
 11
-1.39266292E+00
 21
5.87949128E+01
  0
LINE
  8
0
 62
4
 10
1.60733708E+00
 20
5.97949128E+01
 11
1.60733708E+00
 21
5.87949128E+01
  0
LINE
  8
0
  6
PHANTOM
 10
2.11392684E+01
 20
6.46405416E+01
 11
2.11392684E+01
 21
4.80649106E+01
  0
LINE
  8
0
 62
2
 10
-5.50426788E+01
 20
4.21449137E+01
 11
-5.08159916E+01
 21
4.21449137E+01
  0
LINE
  8
0
 62
2
 10
-4.76159870E+01
 20
4.21449137E+01
 11
-4.03926593E+01
 21
4.21449137E+01
  0
TEXT
  8
0
 62
7
 10
-1.39638488E+01
 20
3.96949137E+01
 40
1.20000005E+00
  1
PBDALS10
 41
1.00000000E+00
  7
MONOTXT
  0
LINE
  8
0
  6
PHANTOM
 10
1.25326907E+01
 20
4.80649106E+01
 11
1.25326907E+01
 21
3.32131206E+01
  0
LINE
  8
0
  6
PHANTOM
 10
2.11392684E+01
 20
4.80649106E+01
 11
1.25326907E+01
 21
4.80649106E+01
  0
LINE
  8
0
 62
7
 10
4.60733708E+00
 20
3.82949137E+01
 11
2.26073368E+01
 21
3.82949137E+01
  0
LINE
  8
0
 62
7
 10
7.10733708E+00
 20
4.92949128E+01
 11
2.26073368E+01
 21
4.92949128E+01
  0
LINE
  8
0
 62
7
 10
3.16073368E+01
 20
3.82949137E+01
 11
3.96073368E+01
 21
3.82949137E+01
  0
LINE
  8
0
 62
7
 10
3.16073368E+01
 20
4.92949128E+01
 11
3.96073368E+01
 21
4.92949128E+01
  0
LINE
  8
0
 62
4
 10
4.51073368E+01
 20
4.50949137E+01
 11
4.51073368E+01
 21
4.92949128E+01
  0
LINE
  8
0
 62
4
 10
3.96073368E+01
 20
4.17949137E+01
 11
3.96073368E+01
 21
3.82949137E+01
  0
LINE
  8
0
 62
4
 10
3.96073368E+01
 20
4.17949137E+01
 11
4.26073368E+01
 21
4.24949137E+01
  0
LINE
  8
0
 62
4
 10
4.26073368E+01
 20
4.24949137E+01
 11
4.49443359E+01
 21
4.24949137E+01
  0
LINE
  8
0
 62
4
 10
3.41073368E+01
 20
4.17949137E+01
 11
3.96073368E+01
 21
4.17949137E+01
  0
LINE
  8
0
 62
4
 10
3.16073368E+01
 20
4.05449137E+01
 11
3.41073368E+01
 21
4.05449137E+01
  0
LINE
  8
0
 62
6
 10
4.75443359E+01
 20
4.50949137E+01
 11
4.49443359E+01
 21
4.24949137E+01
  0
LINE
  8
0
 62
4
 10
3.96073368E+01
 20
4.57949137E+01
 11
4.26073368E+01
 21
4.50949137E+01
  0
LINE
  8
0
 62
4
 10
3.41073368E+01
 20
4.57949137E+01
 11
3.96073368E+01
 21
4.57949137E+01
  0
LINE
  8
0
 62
4
 10
3.41073368E+01
 20
4.05449137E+01
 11
3.41073368E+01
 21
4.70449137E+01
  0
LINE
  8
0
 62
4
 10
3.96073368E+01
 20
4.57949137E+01
 11
3.96073368E+01
 21
4.17949137E+01
  0
LINE
  8
0
 62
4
 10
4.26073368E+01
 20
4.50949137E+01
 11
4.75443359E+01
 21
4.50949137E+01
  0
LINE
  8
0
 62
4
 10
4.26073368E+01
 20
4.50949137E+01
 11
4.26073368E+01
 21
4.24949137E+01
  0
LINE
  8
0
 62
4
 10
3.16073368E+01
 20
4.70449137E+01
 11
3.41073368E+01
 21
4.70449137E+01
  0
LINE
  8
0
 62
4
 10
3.16073368E+01
 20
3.81449137E+01
 11
3.16073368E+01
 21
4.96593926E+01
  0
LINE
  8
0
 62
4
 10
2.01073368E+01
 20
4.05449137E+01
 11
2.26073368E+01
 21
4.05449137E+01
  0
LINE
  8
0
 62
4
 10
1.56073368E+01
 20
4.17949137E+01
 11
2.01073368E+01
 21
4.17949137E+01
  0
LINE
  8
0
 62
4
 10
1.46073368E+01
 20
4.27949137E+01
 11
1.56073368E+01
 21
4.17949137E+01
  0
LINE
  8
0
 62
4
 10
2.01073368E+01
 20
4.70449137E+01
 11
2.26073368E+01
 21
4.70449137E+01
  0
LINE
  8
0
 62
4
 10
1.56073368E+01
 20
4.57949137E+01
 11
2.01073368E+01
 21
4.57949137E+01
  0
LINE
  8
0
 62
4
 10
1.46073368E+01
 20
4.47949137E+01
 11
1.56073368E+01
 21
4.57949137E+01
  0
LINE
  8
0
 62
4
 10
1.56073368E+01
 20
4.57949137E+01
 11
1.56073368E+01
 21
4.17949137E+01
  0
LINE
  8
0
 62
4
 10
1.46073368E+01
 20
4.47949137E+01
 11
1.46073368E+01
 21
4.27949137E+01
  0
LINE
  8
0
 62
4
 10
2.01073368E+01
 20
4.05449137E+01
 11
2.01073368E+01
 21
4.70449137E+01
  0
LINE
  8
0
 62
4
 10
2.26073368E+01
 20
3.81449137E+01
 11
2.26073368E+01
 21
4.96593926E+01
  0
LINE
  8
0
 62
4
 10
2.91073368E+01
 20
4.96593926E+01
 11
2.91073368E+01
 21
4.86421087E+01
  0
LINE
  8
0
 62
4
 10
2.82173368E+01
 20
4.26949137E+01
 11
2.81673368E+01
 21
4.27349137E+01
  0
LINE
  8
0
 62
4
 10
2.60473368E+01
 20
4.27349137E+01
 11
2.81673368E+01
 21
4.48549137E+01
  0
LINE
  8
0
 62
4
 10
2.81173368E+01
 20
4.27949137E+01
 11
2.60473368E+01
 21
4.48549137E+01
  0
LINE
  8
0
 62
4
 10
2.51073368E+01
 20
4.88949137E+01
 11
2.91073368E+01
 21
4.88949137E+01
  0
LINE
  8
0
 62
4
 10
2.51073368E+01
 20
4.86421087E+01
 11
2.51073368E+01
 21
4.96593926E+01
  0
LINE
  8
0
 62
4
 10
2.26073369E+01
 20
4.96593926E+01
 11
3.16073369E+01
 21
4.96593926E+01
  0
CIRCLE
  8
0
 62
4
 10
2.71064616E+01
 20
4.37924552E+01
 40
2.50000000E+00
  0
LINE
  8
0
 62
4
 10
2.26073368E+01
 20
3.81449137E+01
 11
3.16073368E+01
 21
3.81449137E+01
  0
LINE
  8
0
 62
4
 10
2.26073368E+01
 20
3.94949137E+01
 11
3.16073368E+01
 21
3.94949137E+01
  0
LINE
  8
0
 62
4
 10
2.26073368E+01
 20
4.80949504E+01
 11
3.16073368E+01
 21
4.80949504E+01
  0
LINE
  8
0
 62
4
 10
2.26073369E+01
 20
4.86421087E+01
 11
3.16073369E+01
 21
4.86421087E+01
  0
LINE
  8
0
  6
CENTER
 62
6
 10
2.71073368E+01
 20
5.10949137E+01
 11
2.71073368E+01
 21
3.56149137E+01
  0
LINE
  8
0
 62
4
 10
-4.39266293E+00
 20
3.81488601E+01
 11
4.60733707E+00
 21
3.81488601E+01
  0
LINE
  8
0
 62
4
 10
-4.39266292E+00
 20
3.81449128E+01
 11
4.60733708E+00
 21
3.81449128E+01
  0
LINE
  8
0
 62
4
 10
4.60733708E+00
 20
4.87949128E+01
 11
7.10733708E+00
 21
4.87949128E+01
  0
LINE
  8
0
 62
4
 10
-6.89266292E+00
 20
4.87949128E+01
 11
-4.39266292E+00
 21
4.87949128E+01
  0
LINE
  8
0
 62
6
 10
2.05443362E+01
 20
5.33949128E+01
 11
1.79443362E+01
 21
5.07949128E+01
  0
LINE
  8
0
 62
4
 10
1.56073371E+01
 20
5.33949128E+01
 11
1.56073371E+01
 21
5.07949128E+01
  0
LINE
  8
0
 62
4
 10
1.26073371E+01
 20
5.40949128E+01
 11
1.26073371E+01
 21
5.00949128E+01
  0
LINE
  8
0
 62
4
 10
1.26073371E+01
 20
5.40949128E+01
 11
1.56073371E+01
 21
5.33949128E+01
  0
LINE
  8
0
 62
4
 10
1.26073371E+01
 20
5.00949128E+01
 11
1.56073371E+01
 21
5.07949128E+01
  0
LINE
  8
0
 62
4
 10
1.56073371E+01
 20
5.07949128E+01
 11
1.79443362E+01
 21
5.07949128E+01
  0
LINE
  8
0
 62
4
 10
1.56073371E+01
 20
5.33949128E+01
 11
2.05443362E+01
 21
5.33949128E+01
  0
LINE
  8
0
 62
4
 10
-6.89266292E+00
 20
5.50949128E+01
 11
-6.89266292E+00
 21
5.22949128E+01
  0
LINE
  8
0
 62
4
 10
7.10733708E+00
 20
5.50949128E+01
 11
7.10733708E+00
 21
5.22949128E+01
  0
LINE
  8
0
 62
4
 10
-1.23926629E+01
 20
5.10949128E+01
 11
-1.13926629E+01
 21
5.00949128E+01
  0
LINE
  8
0
 62
4
 10
-1.23926629E+01
 20
5.30949128E+01
 11
-1.13926629E+01
 21
5.40949128E+01
  0
LINE
  8
0
 62
4
 10
-1.13926629E+01
 20
5.40949128E+01
 11
-1.13926629E+01
 21
5.00949128E+01
  0
LINE
  8
0
 62
4
 10
-1.13926629E+01
 20
5.00949128E+01
 11
-6.89266292E+00
 21
5.00949128E+01
  0
LINE
  8
0
 62
4
 10
-1.23926629E+01
 20
5.30949128E+01
 11
-1.23926629E+01
 21
5.10949128E+01
  0
LINE
  8
0
 62
4
 10
4.60733708E+00
 20
5.22949128E+01
 11
7.10733708E+00
 21
5.22949128E+01
  0
LINE
  8
0
 62
4
 10
-4.39266292E+00
 20
5.87949128E+01
 11
4.60733708E+00
 21
5.87949128E+01
  0
LINE
  8
0
 62
4
 10
-6.89266292E+00
 20
5.40949128E+01
 11
-1.13926629E+01
 21
5.40949128E+01
  0
LINE
  8
0
 62
4
 10
-6.89266293E+00
 20
5.18949128E+01
 11
-4.39266292E+00
 21
5.18949128E+01
  0
LINE
  8
0
 62
4
 10
-6.89266293E+00
 20
5.22949128E+01
 11
-4.39266292E+00
 21
5.22949128E+01
  0
LINE
  8
0
 62
4
 10
-6.89266293E+00
 20
5.50949128E+01
 11
-4.39266292E+00
 21
5.50949128E+01
  0
LINE
  8
0
 62
4
 10
4.60733708E+00
 20
5.50949128E+01
 11
7.10733707E+00
 21
5.50949128E+01
  0
LINE
  8
0
 62
4
 10
4.60733708E+00
 20
5.18949128E+01
 11
7.10733707E+00
 21
5.18949128E+01
  0
LINE
  8
0
 62
4
 10
4.60733708E+00
 20
5.22949128E+01
 11
4.60733708E+00
 21
5.87949128E+01
  0
LINE
  8
0
 62
4
 10
-4.39266292E+00
 20
5.22949128E+01
 11
-4.39266292E+00
 21
5.87949128E+01
  0
LINE
  8
0
 62
4
 10
-4.39266292E+00
 20
5.22949128E+01
 11
4.60733708E+00
 21
5.22949128E+01
  0
LINE
  8
0
 62
4
 10
7.10733708E+00
 20
5.00949128E+01
 11
1.26073371E+01
 21
5.00949128E+01
  0
LINE
  8
0
 62
4
 10
7.10733708E+00
 20
5.40949128E+01
 11
1.26073371E+01
 21
5.40949128E+01
  0
LINE
  8
0
 62
4
 10
-6.89266292E+00
 20
5.18949128E+01
 11
-6.89266292E+00
 21
4.87949128E+01
  0
LINE
  8
0
 62
4
 10
7.10733708E+00
 20
5.18949128E+01
 11
7.10733708E+00
 21
4.87949128E+01
  0
LINE
  8
0
 62
4
 10
4.60733708E+00
 20
5.22949128E+01
 11
4.60733708E+00
 21
3.81449128E+01
  0
LINE
  8
0
 62
4
 10
-4.39266292E+00
 20
5.22949128E+01
 11
-4.39266292E+00
 21
3.81449128E+01
  0
LINE
  8
0
 62
4
 10
2.26073369E+01
 20
3.81488601E+01
 11
3.16073369E+01
 21
3.81488601E+01
  0
LINE
  8
0
 62
7
 10
-1.43926629E+01
 20
3.82949137E+01
 11
-4.39266292E+00
 21
3.82949137E+01
  0
LINE
  8
0
 62
7
 10
-1.43926629E+01
 20
4.92949128E+01
 11
-6.89266292E+00
 21
4.92949128E+01
  0
LINE
  8
0
 62
7
 10
-1.43926629E+01
 20
5.07949139E+01
 11
-1.43926629E+01
 21
3.67949137E+01
  0
LINE
  8
0
 62
4
 10
3.96073368E+01
 20
4.92949128E+01
 11
3.96073368E+01
 21
4.57949137E+01
  0
LINE
  8
0
 62
4
 10
4.56073400E+01
 20
3.87949127E+01
 11
4.51073394E+01
 21
3.82949122E+01
  0
LINE
  8
0
 62
4
 10
4.51073399E+01
 20
4.92949135E+01
 11
4.56073404E+01
 21
4.87949130E+01
  0
LINE
  8
0
 62
4
 10
4.51073368E+01
 20
3.82949137E+01
 11
4.51073368E+01
 21
4.26579146E+01
  0
LINE
  8
0
 62
7
 10
-3.53926593E+01
 20
4.79949154E+01
 11
-3.53926593E+01
 21
3.95949120E+01
  0
LINE
  8
0
 62
4
 10
4.56073368E+01
 20
4.87949128E+01
 11
4.56073368E+01
 21
3.87949137E+01
  0
LINE
  8
0
 62
7
 10
-2.73926632E+01
 20
5.07949139E+01
 11
-2.73926632E+01
 21
3.67949137E+01
  0
LINE
  8
0
 62
4
 10
3.96073368E+01
 20
3.82949137E+01
 11
4.51073368E+01
 21
3.82949137E+01
  0
LINE
  8
0
 62
4
 10
3.96073368E+01
 20
4.92949128E+01
 11
4.51073368E+01
 21
4.92949128E+01
  0
LINE
  8
0
 62
7
 10
-3.45926639E+01
 20
4.87949128E+01
 11
-3.45926639E+01
 21
3.87949147E+01
  0
LINE
  8
0
  6
CENTER
 62
2
 10
-1.88926632E+01
 20
4.74004654E+01
 11
-1.88926632E+01
 21
4.01893620E+01
  0
LINE
  8
0
 62
7
 10
-2.88926632E+01
 20
4.87949128E+01
 11
-2.88926632E+01
 21
3.87949147E+01
  0
LINE
  8
0
 62
7
 10
-3.45926631E+01
 20
4.87949123E+01
 11
-3.53926628E+01
 21
4.79949125E+01
  0
LINE
  8
0
 62
7
 10
-5.46926715E+01
 20
4.57949210E+01
 11
-5.53926733E+01
 21
4.50949191E+01
  0
LINE
  8
0
 62
2
 10
-5.50426788E+01
 20
4.54449137E+01
 11
-5.08159916E+01
 21
4.54449137E+01
  0
LINE
  8
0
 62
7
 10
-5.46926624E+01
 20
4.17949137E+01
 11
-5.08159916E+01
 21
4.17949137E+01
  0
LINE
  8
0
 62
7
 10
-4.03926593E+01
 20
4.57949137E+01
 11
-4.03926593E+01
 21
4.17949137E+01
  0
LINE
  8
0
 62
7
 10
-5.46926624E+01
 20
4.57949137E+01
 11
-5.46926624E+01
 21
4.17949137E+01
  0
LINE
  8
0
 62
7
 10
-5.53926651E+01
 20
4.24949103E+01
 11
-5.46926632E+01
 21
4.17949085E+01
  0
LINE
  8
0
 62
7
 10
-5.53926593E+01
 20
4.50949139E+01
 11
-5.53926593E+01
 21
4.24949135E+01
  0
LINE
  8
0
  6
CENTER
 62
2
 10
-5.73926593E+01
 20
4.37949137E+01
 11
4.88783740E+01
 21
4.37949137E+01
  0
LINE
  8
0
 62
2
 10
-4.76159870E+01
 20
4.54449137E+01
 11
-4.03926593E+01
 21
4.54449137E+01
  0
LINE
  8
0
 62
4
 10
-4.76159870E+01
 20
4.71949143E+01
 11
-4.76159870E+01
 21
4.03949131E+01
  0
LINE
  8
0
 62
4
 10
-5.08159916E+01
 20
4.71949143E+01
 11
-5.08159916E+01
 21
4.03949131E+01
  0
LINE
  8
0
 62
7
 10
-4.76159870E+01
 20
4.57949137E+01
 11
-3.93926593E+01
 21
4.57949137E+01
  0
LINE
  8
0
 62
4
 10
-5.04456455E+01
 20
4.58156399E+01
 11
-4.79863330E+01
 21
4.58156399E+01
  0
LINE
  8
0
 62
4
 10
-5.04456455E+01
 20
4.17741875E+01
 11
-4.79863330E+01
 21
4.17741875E+01
  0
LINE
  8
0
 62
4
 10
-5.04456455E+01
 20
4.78363652E+01
 11
-4.79863330E+01
 21
4.78363652E+01
  0
LINE
  8
0
 62
4
 10
-5.04456455E+01
 20
3.97534613E+01
 11
-4.79863330E+01
 21
3.97534613E+01
  0
LINE
  8
0
 62
7
 10
-4.76159870E+01
 20
4.17949137E+01
 11
-3.93926593E+01
 21
4.17949137E+01
  0
LINE
  8
0
 62
4
 10
-5.08159803E+01
 20
4.71949096E+01
 11
-5.04456380E+01
 21
4.78363612E+01
  0
LINE
  8
0
 62
4
 10
-4.79863292E+01
 20
4.78363710E+01
 11
-4.76159870E+01
 21
4.71949194E+01
  0
LINE
  8
0
 62
4
 10
-5.08159894E+01
 20
4.03949113E+01
 11
-5.04456471E+01
 21
3.97534597E+01
  0
LINE
  8
0
 62
4
 10
-4.79863229E+01
 20
3.97534604E+01
 11
-4.76159807E+01
 21
4.03949120E+01
  0
LINE
  8
0
 62
4
 10
-3.39887439E+01
 20
4.97949128E+01
 11
-3.39887439E+01
 21
3.77949137E+01
  0
LINE
  8
0
 62
4
 10
-2.99887477E+01
 20
4.97949128E+01
 11
-2.99887477E+01
 21
3.77949137E+01
  0
LINE
  8
0
 62
7
 10
-2.99887477E+01
 20
4.87949128E+01
 11
-2.73926632E+01
 21
4.87949128E+01
  0
LINE
  8
0
 62
7
 10
-2.73926632E+01
 20
5.07949139E+01
 11
-1.43926629E+01
 21
5.07949139E+01
  0
LINE
  8
0
 62
2
 10
-2.99887477E+01
 20
4.82949128E+01
 11
-2.88926632E+01
 21
4.82949128E+01
  0
LINE
  8
0
 62
2
 10
-3.50926601E+01
 20
4.82949128E+01
 11
-3.39887439E+01
 21
4.82949128E+01
  0
LINE
  8
0
 62
7
 10
-3.45926626E+01
 20
3.87949127E+01
 11
-3.53926624E+01
 21
3.95949126E+01
  0
LINE
  8
0
 62
2
 10
-2.99887477E+01
 20
3.92949147E+01
 11
-2.88926632E+01
 21
3.92949147E+01
  0
LINE
  8
0
 62
7
 10
-2.99887477E+01
 20
3.87949147E+01
 11
-2.73926632E+01
 21
3.87949147E+01
  0
LINE
  8
0
 62
2
 10
-3.50926639E+01
 20
3.92949147E+01
 11
-3.39887439E+01
 21
3.92949147E+01
  0
LINE
  8
0
 62
7
 10
-3.45926639E+01
 20
3.87949147E+01
 11
-3.39887439E+01
 21
3.87949147E+01
  0
LINE
  8
0
 62
7
 10
-2.73926632E+01
 20
3.67949137E+01
 11
-1.43926629E+01
 21
3.67949137E+01
  0
LINE
  8
0
 62
7
 10
-3.86567623E+01
 20
4.62197852E+01
 11
-3.53926593E+01
 21
4.62197852E+01
  0
LINE
  8
0
 62
7
 10
-3.86567623E+01
 20
4.50073494E+01
 11
-3.53926593E+01
 21
4.50073494E+01
  0
LINE
  8
0
 62
7
 10
-3.86567623E+01
 20
4.25824780E+01
 11
-3.53926593E+01
 21
4.25824780E+01
  0
LINE
  8
0
 62
7
 10
-3.93926593E+01
 20
4.57949137E+01
 11
-3.93926593E+01
 21
4.17949137E+01
  0
LINE
  8
0
 62
7
 10
-3.93926577E+01
 20
4.57949148E+01
 11
-3.86567620E+01
 21
4.62197844E+01
  0
LINE
  8
0
 62
7
 10
-3.93926575E+01
 20
4.17949135E+01
 11
-3.86567602E+01
 21
4.13700430E+01
  0
LINE
  8
0
 62
7
 10
-3.86567623E+01
 20
4.13700423E+01
 11
-3.53926593E+01
 21
4.13700423E+01
  0
LINE
  8
0
 62
4
 10
-3.33887455E+01
 20
5.18778178E+01
 11
-3.05887462E+01
 21
5.18778178E+01
  0
LINE
  8
0
 62
4
 10
-3.33887416E+01
 20
4.78363656E+01
 11
-3.05887462E+01
 21
4.78363656E+01
  0
LINE
  8
0
 62
4
 10
-3.33887455E+01
 20
3.97534623E+01
 11
-3.05887462E+01
 21
3.97534623E+01
  0
LINE
  8
0
 62
4
 10
-3.33887455E+01
 20
3.57120108E+01
 11
-3.05887462E+01
 21
3.57120108E+01
  0
LINE
  8
0
 62
7
 10
-2.58926632E+01
 20
4.86167392E+01
 11
-1.58926632E+01
 21
4.86167392E+01
  0
LINE
  8
0
 62
7
 10
-2.58926632E+01
 20
3.89730887E+01
 11
-1.58926632E+01
 21
3.89730887E+01
  0
LINE
  8
0
 62
7
 10
-2.58926632E+01
 20
5.07949139E+01
 11
-2.58926632E+01
 21
4.86167392E+01
  0
LINE
  8
0
 62
7
 10
-2.58926632E+01
 20
3.89730887E+01
 11
-2.58926632E+01
 21
3.67949137E+01
  0
LINE
  8
0
 62
7
 10
-1.58926632E+01
 20
5.07949139E+01
 11
-1.58926632E+01
 21
4.86167392E+01
  0
LINE
  8
0
 62
7
 10
-1.58926632E+01
 20
3.89730887E+01
 11
-1.58926632E+01
 21
3.67949137E+01
  0
LINE
  8
0
 62
7
 10
-5.46926624E+01
 20
4.57949137E+01
 11
-5.08159916E+01
 21
4.57949137E+01
  0
LINE
  8
0
 62
7
 10
-3.45926639E+01
 20
4.87949128E+01
 11
-3.39887439E+01
 21
4.87949128E+01
  0
CIRCLE
  8
0
 62
2
 10
-1.88926632E+01
 20
4.37949137E+01
 40
2.50000000E+00
  0
CIRCLE
  8
0
 62
7
 10
-1.88926632E+01
 20
4.37949137E+01
 40
2.00000000E+00
  0
ARC
  8
0
 62
4
 10
-4.51179020E+01
 20
4.37949137E+01
 40
5.69808722E+00
 50
1.59229086E+02
 51
2.00770911E+02
  0
ARC
  8
0
 62
4
 10
-5.33140766E+01
 20
4.37949137E+01
 40
5.69808722E+00
 50
3.39229087E+02
 51
2.07709126E+01
  0
ARC
  8
0
 62
4
 10
-4.92525913E+01
 20
4.68260025E+01
 40
1.56340027E+00
 50
1.39739796E+02
 51
2.20260214E+02
  0
ARC
  8
0
 62
4
 10
-4.91793872E+01
 20
4.07638249E+01
 40
1.56340027E+00
 50
3.19739791E+02
 51
4.02602086E+01
  0
ARC
  8
0
 62
4
 10
-4.92525913E+01
 20
4.07638249E+01
 40
1.56340027E+00
 50
1.39739796E+02
 51
2.20260214E+02
  0
ARC
  8
0
 62
4
 10
-4.91793872E+01
 20
4.68260025E+01
 40
1.56340027E+00
 50
3.19739791E+02
 51
4.02602086E+01
  0
ARC
  8
0
 62
7
 10
-3.80259296E+01
 20
4.37949137E+01
 40
1.36672843E+00
 50
1.17487955E+02
 51
2.42512041E+02
  0
ARC
  8
0
 62
4
 10
-3.02859661E+01
 20
4.98570918E+01
 40
3.70277786E+00
 50
1.46925265E+02
 51
2.13074732E+02
  0
ARC
  8
0
 62
4
 10
-2.00776321E+01
 20
4.37949137E+01
 40
1.39111109E+01
 50
1.63110928E+02
 51
1.96889068E+02
  0
ARC
  8
0
 62
4
 10
-3.02859661E+01
 20
3.77327360E+01
 40
3.70277786E+00
 50
1.46925265E+02
 51
2.13074732E+02
  0
ARC
  8
0
 62
4
 10
-3.36915256E+01
 20
3.77327360E+01
 40
3.70277786E+00
 50
3.26925270E+02
 51
3.30747300E+01
  0
ARC
  8
0
 62
4
 10
-3.36915256E+01
 20
4.98570918E+01
 40
3.70277786E+00
 50
3.26925270E+02
 51
3.30747300E+01
  0
ARC
  8
0
 62
4
 10
-4.38998577E+01
 20
4.37949137E+01
 40
1.39111109E+01
 50
3.43110928E+02
 51
1.68890719E+01
  0
ARC
  8
0
 62
7
 10
-1.88926632E+01
 20
4.37949137E+01
 40
8.50000000E+00
 50
1.45439685E+02
 51
2.14560325E+02
  0
ARC
  8
0
 62
7
 10
-2.28926632E+01
 20
4.37949137E+01
 40
8.50000000E+00
 50
3.25439676E+02
 51
3.45603235E+01
  0
ARC
  8
0
 62
7
 10
-3.87750141E+01
 20
4.56135678E+01
 40
6.17644012E-01
 50
1.61038020E+02
 51
2.81038023E+02
  0
ARC
  8
0
 62
7
 10
-3.87750141E+01
 20
4.19762606E+01
 40
6.17644012E-01
 50
7.89619728E+01
 51
1.98961976E+02
  0
ARC
  8
0
 62
4
 10
1.60567143E+00
 20
6.02932471E+01
 40
1.00166704E+00
 50
9.52762946E-02
 51
8.99047236E+01
  0
ARC
  8
0
 62
4
 10
-1.39187143E+00
 20
6.02941213E+01
 40
1.00079180E+00
 50
9.00000002E+01
 51
1.79954687E+02
  0
LINE
  8
0
 62
4
 10
-1.39266292E+00
 20
6.12949128E+01
 11
1.60733708E+00
 21
6.12949128E+01
  0
LINE
  8
0
 62
4
 10
-2.39266292E+00
 20
5.97949128E+01
 11
2.60733708E+00
 21
5.97949128E+01
  0
LINE
  8
0
 62
4
 10
2.60733708E+00
 20
6.02949128E+01
 11
2.60733708E+00
 21
5.97949128E+01
  0
LINE
  8
0
 62
4
 10
-2.39266292E+00
 20
6.02949128E+01
 11
-2.39266292E+00
 21
5.97949128E+01
  0
LINE
  8
0
 62
4
 10
-7.81062994E+01
 20
4.27449137E+01
 11
-7.83062984E+01
 21
4.25449147E+01
  0
LINE
  8
0
 62
4
 10
-7.81062994E+01
 20
4.48449137E+01
 11
-7.83062984E+01
 21
4.50449128E+01
  0
LINE
  8
0
 62
4
 10
-7.81062994E+01
 20
4.27449137E+01
 11
-7.81062994E+01
 21
4.48449137E+01
  0
LINE
  8
0
 62
4
 10
-7.72062994E+01
 20
4.05449137E+01
 11
-7.72062994E+01
 21
4.17449137E+01
  0
LINE
  8
0
 62
4
 10
-7.72062994E+01
 20
4.05449137E+01
 11
-7.83062982E+01
 21
4.05449137E+01
  0
ARC
  8
0
 62
4
 10
-6.88064289E+01
 20
4.22950433E+01
 40
1.00012957E+00
 50
2.70000000E+02
 51
3.59992577E+02
  0
ARC
  8
0
 62
4
 10
-7.11064377E+01
 20
4.02950521E+01
 40
8.00138358E-01
 50
2.70000000E+02
 51
3.59990093E+02
  0
ARC
  8
0
 62
4
 10
-7.16064595E+01
 20
4.07950739E+01
 40
5.00160181E-01
 50
2.70000000E+02
 51
3.59981653E+02
  0
LINE
  8
0
 62
6
 10
-7.18062994E+01
 20
4.25649137E+01
 11
-7.32762994E+01
 21
4.25649137E+01
  0
LINE
  8
0
 62
4
 10
-7.18062994E+01
 20
4.22949137E+01
 11
-7.30062994E+01
 21
4.22949137E+01
  0
LINE
  8
0
 62
4
 10
-6.88062994E+01
 20
4.12949137E+01
 11
-6.93062994E+01
 21
4.12949137E+01
  0
LINE
  8
0
 62
6
 10
-6.93062994E+01
 20
4.25649137E+01
 11
-7.03062994E+01
 21
4.25649137E+01
  0
LINE
  8
0
 62
4
 10
-6.93062994E+01
 20
4.22949137E+01
 11
-7.03062994E+01
 21
4.22949137E+01
  0
LINE
  8
0
 62
4
 10
-7.16062994E+01
 20
4.02949137E+01
 11
-7.16062994E+01
 21
4.04449137E+01
  0
LINE
  8
0
 62
4
 10
-7.16062994E+01
 20
4.04449137E+01
 11
-7.68062994E+01
 21
4.04449137E+01
  0
LINE
  8
0
 62
4
 10
-7.68062994E+01
 20
3.94949137E+01
 11
-7.68062994E+01
 21
4.02949137E+01
  0
LINE
  8
0
 62
4
 10
-7.11062994E+01
 20
4.17349137E+01
 11
-7.18062994E+01
 21
4.17949137E+01
  0
LINE
  8
0
 62
4
 10
-7.11062994E+01
 20
3.94949137E+01
 11
-7.68062994E+01
 21
3.94949137E+01
  0
LINE
  8
0
 62
4
 10
-7.16062994E+01
 20
4.02949137E+01
 11
-7.68062994E+01
 21
4.02949137E+01
  0
LINE
  8
0
 62
4
 10
-7.68062994E+01
 20
4.05449137E+01
 11
-7.68062994E+01
 21
4.17449137E+01
  0
LINE
  8
0
 62
4
 10
-7.47062994E+01
 20
4.27949137E+01
 11
-7.50062994E+01
 21
4.27949137E+01
  0
LINE
  8
0
 62
4
 10
-7.33062994E+01
 20
4.05449137E+01
 11
-7.68062994E+01
 21
4.05449137E+01
  0
LINE
  8
0
 62
4
 10
-7.30062994E+01
 20
4.22949137E+01
 11
-7.33062994E+01
 21
4.25949137E+01
  0
LINE
  8
0
 62
4
 10
-7.60062994E+01
 20
4.27449137E+01
 11
-7.50062994E+01
 21
4.17449137E+01
  0
LINE
  8
0
 62
4
 10
-7.60062994E+01
 20
4.27449137E+01
 11
-7.81062994E+01
 21
4.27449137E+01
  0
LINE
  8
0
 62
4
 10
-7.68062994E+01
 20
4.02949137E+01
 11
-7.83062982E+01
 21
3.98776425E+01
  0
LINE
  8
0
 62
4
 10
-7.68062994E+01
 20
4.04449137E+01
 11
-7.83062982E+01
 21
4.00288582E+01
  0
LINE
  8
0
 62
4
 10
-7.50062994E+01
 20
4.17449137E+01
 11
-7.83062982E+01
 21
4.17449137E+01
  0
LINE
  8
0
 62
4
 10
-7.81562994E+01
 20
4.86249137E+01
 11
-7.83231822E+01
 21
4.86411584E+01
  0
LINE
  8
0
 62
4
 10
-7.81562994E+01
 20
4.86249137E+01
 11
-7.81417667E+01
 21
4.87742081E+01
  0
LINE
  8
0
 62
4
 10
-7.75062994E+01
 20
4.72949137E+01
 11
-7.75062994E+01
 21
4.80949137E+01
  0
LINE
  8
0
 62
4
 10
-6.78062994E+01
 20
4.22949137E+01
 11
-6.78062994E+01
 21
4.52949137E+01
  0
ARC
  8
0
 62
4
 10
-7.10986742E+01
 20
4.73025389E+01
 40
7.92411497E-01
 50
3.59448647E+02
 51
9.05513523E+01
  0
ARC
  8
0
 62
4
 10
-7.15986742E+01
 20
4.68025389E+01
 40
4.92433852E-01
 50
3.59112757E+02
 51
9.08872431E+01
  0
LINE
  8
0
 62
4
 10
-7.18062994E+01
 20
4.52949137E+01
 11
-7.30062994E+01
 21
4.52949137E+01
  0
LINE
  8
0
 62
6
 10
-7.18062994E+01
 20
4.50249137E+01
 11
-7.32762994E+01
 21
4.50249137E+01
  0
LINE
  8
0
 62
4
 10
-6.88062994E+01
 20
4.62949137E+01
 11
-6.93062994E+01
 21
4.62949137E+01
  0
LINE
  8
0
 62
6
 10
-6.93062994E+01
 20
4.50249137E+01
 11
-7.03062994E+01
 21
4.50249137E+01
  0
LINE
  8
0
 62
4
 10
-6.93062994E+01
 20
4.52949137E+01
 11
-7.03062994E+01
 21
4.52949137E+01
  0
LINE
  8
0
 62
4
 10
-7.48157055E+01
 20
4.89528055E+01
 11
-7.43762994E+01
 21
4.96949137E+01
  0
LINE
  8
0
 62
4
 10
-7.39348667E+01
 20
4.88670628E+01
 11
-7.39162994E+01
 21
4.88949137E+01
  0
LINE
  8
0
 62
4
 10
-7.43762994E+01
 20
4.80949137E+01
 11
-7.42114605E+01
 21
4.83916237E+01
  0
LINE
  8
0
 62
4
 10
-7.20062994E+01
 20
4.88949137E+01
 11
-7.39162994E+01
 21
4.88949137E+01
  0
LINE
  8
0
 62
4
 10
-7.20062994E+01
 20
4.88949137E+01
 11
-7.20062994E+01
 21
4.96949137E+01
  0
LINE
  8
0
 62
4
 10
-7.20062994E+01
 20
4.96949137E+01
 11
-7.43762994E+01
 21
4.96949137E+01
  0
LINE
  8
0
 62
4
 10
-7.53062994E+01
 20
4.80949137E+01
 11
-7.50836908E+01
 21
4.84765285E+01
  0
LINE
  8
0
 62
4
 10
-7.11062994E+01
 20
4.58549137E+01
 11
-7.18062994E+01
 21
4.57949137E+01
  0
LINE
  8
0
 62
4
 10
-7.47062994E+01
 20
4.47949137E+01
 11
-7.50062994E+01
 21
4.47949137E+01
  0
LINE
  8
0
 62
4
 10
-7.16723449E+01
 20
4.81444608E+01
 11
-7.16239028E+01
 21
4.86421087E+01
  0
LINE
  8
0
 62
4
 10
-7.30062994E+01
 20
4.52949137E+01
 11
-7.33062994E+01
 21
4.49949137E+01
  0
LINE
  8
0
 62
4
 10
-7.60062994E+01
 20
4.48449137E+01
 11
-7.50062994E+01
 21
4.58449137E+01
  0
LINE
  8
0
 62
4
 10
-7.60062994E+01
 20
4.48449137E+01
 11
-7.81062994E+01
 21
4.48449137E+01
  0
LINE
  8
0
 62
4
 10
-7.60062994E+01
 20
4.27449137E+01
 11
-7.60062994E+01
 21
4.48449137E+01
  0
LINE
  8
0
 62
4
 10
-7.16239028E+01
 20
4.86421087E+01
 11
-7.88705680E+01
 21
4.93475144E+01
  0
LINE
  8
0
 62
4
 10
-7.16723449E+01
 20
4.81444608E+01
 11
-7.84383834E+01
 21
4.88030813E+01
  0
LINE
  8
0
 62
4
 10
-7.33062994E+01
 20
4.70449137E+01
 11
-7.83062982E+01
 21
4.70449137E+01
  0
LINE
  8
0
 62
4
 10
-7.33062994E+01
 20
4.05449137E+01
 11
-7.33062994E+01
 21
4.70449137E+01
  0
LINE
  8
0
 62
4
 10
-7.50062994E+01
 20
4.58449137E+01
 11
-7.83062982E+01
 21
4.58449137E+01
  0
LINE
  8
0
 62
4
 10
-7.50062994E+01
 20
4.17449137E+01
 11
-7.50062994E+01
 21
4.58449137E+01
  0
LINE
  8
0
 62
4
 10
-7.47062994E+01
 20
4.27949137E+01
 11
-7.47062994E+01
 21
4.47949137E+01
  0
LINE
  8
0
 62
4
 10
-7.40062994E+01
 20
4.05449137E+01
 11
-7.40062994E+01
 21
4.70449137E+01
  0
LINE
  8
0
 62
4
 10
-7.16062994E+01
 20
4.72949137E+01
 11
-7.75062994E+01
 21
4.72949137E+01
  0
LINE
  8
0
 62
4
 10
-6.93062994E+01
 20
4.12949137E+01
 11
-6.93062994E+01
 21
4.62949137E+01
  0
LINE
  8
0
 62
4
 10
-7.03062994E+01
 20
4.02949137E+01
 11
-7.03062994E+01
 21
4.72949137E+01
  0
LINE
  8
0
 62
4
 10
-7.18062994E+01
 20
4.17949137E+01
 11
-7.18062994E+01
 21
4.57949137E+01
  0
LINE
  8
0
 62
4
 10
-7.11062994E+01
 20
4.07949137E+01
 11
-7.11062994E+01
 21
4.67949137E+01
  0
LINE
  8
0
 62
4
 10
-7.11062994E+01
 20
4.80949137E+01
 11
-7.75062994E+01
 21
4.80949137E+01
  0
ARC
  8
0
 62
4
 10
-6.87986726E+01
 20
4.53025404E+01
 40
9.92402587E-01
 50
3.59559672E+02
 51
9.04403286E+01
  0
LINE
  8
0
 62
4
 10
-8.42562984E+01
 20
5.30949128E+01
 11
-8.32562984E+01
 21
5.40949128E+01
  0
LINE
  8
0
 62
4
 10
-8.63562984E+01
 20
5.30949128E+01
 11
-8.73562984E+01
 21
5.40949128E+01
  0
LINE
  8
0
 62
4
 10
-8.63562984E+01
 20
5.30949128E+01
 11
-8.63562984E+01
 21
5.12716000E+01
  0
LINE
  8
0
 62
4
 10
-8.42562984E+01
 20
5.30949128E+01
 11
-8.63562984E+01
 21
5.30949128E+01
  0
LINE
  8
0
 62
4
 10
-8.42562984E+01
 20
5.30949128E+01
 11
-8.42562984E+01
 21
5.12715980E+01
  0
LINE
  8
0
 62
4
 10
-8.38062984E+01
 20
5.60949128E+01
 11
-8.41062984E+01
 21
5.57949128E+01
  0
LINE
  8
0
 62
4
 10
-8.68062984E+01
 20
5.60949128E+01
 11
-8.65062984E+01
 21
5.57949128E+01
  0
LINE
  8
0
 62
4
 10
-8.96558455E+01
 20
5.74288672E+01
 11
-9.01534934E+01
 21
5.74773093E+01
  0
LINE
  8
0
 62
4
 10
-9.01534934E+01
 20
5.74773093E+01
 11
-9.08588991E+01
 21
5.02306441E+01
  0
LINE
  8
0
 62
4
 10
-9.01362984E+01
 20
5.09449128E+01
 11
-9.02855928E+01
 21
5.09594454E+01
  0
LINE
  8
0
 62
4
 10
-8.96558455E+01
 20
5.74288672E+01
 11
-9.03144661E+01
 21
5.06628287E+01
  0
LINE
  8
0
 62
4
 10
-9.01362984E+01
 20
5.09449128E+01
 11
-9.01525431E+01
 21
5.07780299E+01
  0
LINE
  8
0
 62
4
 10
-8.18062984E+01
 20
5.22949128E+01
 11
-8.13890272E+01
 21
5.07949139E+01
  0
LINE
  8
0
 62
4
 10
-8.19562984E+01
 20
5.22949128E+01
 11
-8.15402429E+01
 21
5.07949139E+01
  0
LINE
  8
0
 62
4
 10
-8.85562984E+01
 20
5.57949128E+01
 11
-8.85562984E+01
 21
5.07949139E+01
  0
LINE
  8
0
 62
4
 10
-8.20562984E+01
 20
5.57949128E+01
 11
-8.20562984E+01
 21
5.22949128E+01
  0
LINE
  8
0
 62
4
 10
-8.20562984E+01
 20
5.57949128E+01
 11
-8.85562984E+01
 21
5.57949128E+01
  0
LINE
  8
0
 62
4
 10
-8.73562984E+01
 20
5.40949128E+01
 11
-8.73562984E+01
 21
5.07949139E+01
  0
LINE
  8
0
 62
4
 10
-8.32562984E+01
 20
5.40949128E+01
 11
-8.73562984E+01
 21
5.40949128E+01
  0
LINE
  8
0
 62
4
 10
-8.43062984E+01
 20
5.43949128E+01
 11
-8.43062984E+01
 21
5.40949128E+01
  0
LINE
  8
0
 62
4
 10
-8.63062984E+01
 20
5.43949128E+01
 11
-8.63062984E+01
 21
5.40949128E+01
  0
LINE
  8
0
 62
4
 10
-8.43062984E+01
 20
5.43949128E+01
 11
-8.63062984E+01
 21
5.43949128E+01
  0
LINE
  8
0
 62
4
 10
-8.20562984E+01
 20
5.50949128E+01
 11
-8.85562984E+01
 21
5.50949128E+01
  0
LINE
  8
0
 62
4
 10
-8.20562984E+01
 20
5.18949128E+01
 11
-8.32562984E+01
 21
5.18949128E+01
  0
LINE
  8
0
 62
4
 10
-8.20562984E+01
 20
5.22949128E+01
 11
-8.32562984E+01
 21
5.22949128E+01
  0
LINE
  8
0
 62
4
 10
-8.20562984E+01
 20
5.18949128E+01
 11
-8.20562984E+01
 21
5.07949139E+01
  0
LINE
  8
0
 62
4
 10
-8.32562984E+01
 20
5.40949128E+01
 11
-8.32562984E+01
 21
5.07949139E+01
  0
LINE
  8
0
 62
4
 10
-8.88062984E+01
 20
5.74949128E+01
 11
-8.88062984E+01
 21
5.15949128E+01
  0
LINE
  8
0
 62
4
 10
-8.18062984E+01
 20
5.74949128E+01
 11
-8.18062984E+01
 21
5.22949128E+01
  0
LINE
  8
0
 62
4
 10
-8.28062984E+01
 20
5.97949128E+01
 11
-8.78062984E+01
 21
5.97949128E+01
  0
LINE
  8
0
 62
4
 10
-8.18062984E+01
 20
5.87949128E+01
 11
-8.88062984E+01
 21
5.87949128E+01
  0
LINE
  8
0
 62
4
 10
-8.33062984E+01
 20
5.72949128E+01
 11
-8.73062984E+01
 21
5.72949128E+01
  0
LINE
  8
0
 62
4
 10
-8.23062984E+01
 20
5.79949128E+01
 11
-8.83062984E+01
 21
5.79949128E+01
  0
LINE
  8
0
 62
4
 10
-8.96062984E+01
 20
5.79949128E+01
 11
-8.96062984E+01
 21
5.15949128E+01
  0
LINE
  8
0
 62
4
 10
-8.10062984E+01
 20
5.79949128E+01
 11
-8.10062984E+01
 21
5.22949128E+01
  0
LINE
  8
0
 62
4
 10
-8.73662984E+01
 20
5.79949128E+01
 11
-8.73062984E+01
 21
5.72949128E+01
  0
LINE
  8
0
 62
4
 10
-8.32462984E+01
 20
5.79949128E+01
 11
-8.33062984E+01
 21
5.72949128E+01
  0
LINE
  8
0
 62
4
 10
-8.10062984E+01
 20
5.22949128E+01
 11
-8.18062984E+01
 21
5.22949128E+01
  0
LINE
  8
0
 62
4
 10
-8.88062984E+01
 20
5.15949128E+01
 11
-8.96062984E+01
 21
5.15949128E+01
  0
LINE
  8
0
 62
4
 10
-8.96062984E+01
 20
5.37949128E+01
 11
-8.99879132E+01
 21
5.40175214E+01
  0
LINE
  8
0
 62
4
 10
-9.12062984E+01
 20
5.70949128E+01
 11
-9.12062984E+01
 21
5.47249128E+01
  0
LINE
  8
0
 62
4
 10
-9.04062984E+01
 20
5.70949128E+01
 11
-9.12062984E+01
 21
5.70949128E+01
  0
LINE
  8
0
 62
4
 10
-9.04062984E+01
 20
5.70949128E+01
 11
-9.04062984E+01
 21
5.51849128E+01
  0
LINE
  8
0
 62
4
 10
-8.96062984E+01
 20
5.47249128E+01
 11
-8.99030084E+01
 21
5.48897516E+01
  0
LINE
  8
0
 62
4
 10
-8.19562984E+01
 20
5.74949128E+01
 11
-8.19562984E+01
 21
5.22949128E+01
  0
LINE
  8
0
 62
4
 10
-8.18062984E+01
 20
5.74949128E+01
 11
-8.19562984E+01
 21
5.74949128E+01
  0
LINE
  8
0
 62
4
 10
-9.03784475E+01
 20
5.51663455E+01
 11
-9.04062984E+01
 21
5.51849128E+01
  0
LINE
  8
0
 62
4
 10
-9.04641902E+01
 20
5.42855066E+01
 11
-9.12062984E+01
 21
5.47249128E+01
  0
LINE
  8
0
 62
4
 10
-8.38062984E+01
 20
5.97949128E+01
 11
-8.38062984E+01
 21
5.87949128E+01
  0
LINE
  8
0
 62
4
 10
-8.68062984E+01
 20
5.97949128E+01
 11
-8.68062984E+01
 21
5.87949128E+01
  0
LINE
  8
0
 62
6
 10
-8.65362984E+01
 20
5.97949128E+01
 11
-8.65362984E+01
 21
5.87949128E+01
  0
LINE
  8
0
 62
6
 10
-8.40762984E+01
 20
5.97949128E+01
 11
-8.40762984E+01
 21
5.87949128E+01
  0
LINE
  8
0
 62
4
 10
-8.78062984E+01
 20
6.02949128E+01
 11
-8.78062984E+01
 21
5.97949128E+01
  0
LINE
  8
0
 62
4
 10
-8.28062984E+01
 20
6.02949128E+01
 11
-8.28062984E+01
 21
5.97949128E+01
  0
LINE
  8
0
 62
4
 10
-8.38062984E+01
 20
6.12949128E+01
 11
-8.68062984E+01
 21
6.12949128E+01
  0
LINE
  8
0
 62
4
 10
-8.38062984E+01
 20
5.72949128E+01
 11
-8.38062984E+01
 21
5.60949128E+01
  0
LINE
  8
0
 62
6
 10
-8.40762984E+01
 20
5.72949128E+01
 11
-8.40762984E+01
 21
5.58249128E+01
  0
LINE
  8
0
 62
6
 10
-8.65362984E+01
 20
5.72949128E+01
 11
-8.65362984E+01
 21
5.58249128E+01
  0
LINE
  8
0
 62
4
 10
-8.68062984E+01
 20
5.72949128E+01
 11
-8.68062984E+01
 21
5.60949128E+01
  0
ARC
  8
0
 62
4
 10
-8.23064586E+01
 20
5.74947526E+01
 40
5.00160181E-01
 50
1.83465799E-02
 51
9.00000002E+01
  0
ARC
  8
0
 62
4
 10
-8.83139236E+01
 20
5.75025379E+01
 40
4.92433852E-01
 50
8.91127567E+01
 51
1.80887243E+02
  0
ARC
  8
0
 62
4
 10
-8.18064368E+01
 20
5.79947744E+01
 40
8.00138358E-01
 50
9.90662024E-03
 51
9.00000002E+01
  0
ARC
  8
0
 62
4
 10
-8.88139236E+01
 20
5.80025379E+01
 40
7.92411497E-01
 50
8.94486475E+01
 51
1.80551352E+02
  0
ARC
  8
0
 62
4
 10
-8.38064280E+01
 20
6.02947832E+01
 40
1.00012957E+00
 50
7.42247612E-03
 51
9.00000002E+01
  0
ARC
  8
0
 62
4
 10
-8.68139251E+01
 20
6.03025395E+01
 40
9.92402587E-01
 50
8.95596718E+01
 51
1.80440329E+02
  0
LINE
  8
0
 62
4
 10
-7.83062984E+01
 20
4.78363638E+01
 11
-7.83062984E+01
 21
3.97534615E+01
  0
LINE
  8
0
 62
7
 10
-7.83062984E+01
 20
3.97534615E+01
 11
-7.83062984E+01
 21
3.89730887E+01
  0
LINE
  8
0
 62
7
 10
-9.23062984E+01
 20
3.97534630E+01
 11
-9.23062984E+01
 21
3.89730887E+01
  0
LINE
  8
0
 62
4
 10
-9.23062984E+01
 20
4.78363665E+01
 11
-9.23062984E+01
 21
3.97534630E+01
  0
LINE
  8
0
  6
CENTER
 62
2
 10
-9.33062984E+01
 20
4.37949137E+01
 11
-6.69236880E+01
 21
4.37949137E+01
  0
LINE
  8
0
 62
4
 10
-8.18062984E+01
 20
4.17741875E+01
 11
-8.18062984E+01
 21
4.58156399E+01
  0
LINE
  8
0
  6
CENTER
 62
2
 10
-8.53062984E+01
 20
6.21589179E+01
 11
-8.53062984E+01
 21
3.57949137E+01
  0
LINE
  8
0
 62
4
 10
-8.88063018E+01
 20
4.17741926E+01
 11
-8.53062964E+01
 21
3.97534635E+01
  0
LINE
  8
0
 62
4
 10
-8.88062984E+01
 20
4.58156399E+01
 11
-8.88062984E+01
 21
4.17741875E+01
  0
LINE
  8
0
 62
4
 10
-8.53062994E+01
 20
3.97534573E+01
 11
-8.18063006E+01
 21
4.17741825E+01
  0
LINE
  8
0
 62
4
 10
-8.53062987E+01
 20
4.78363570E+01
 11
-8.88062975E+01
 21
4.58156317E+01
  0
LINE
  8
0
 62
4
 10
-8.18062964E+01
 20
4.58156412E+01
 11
-8.53063018E+01
 21
4.78363703E+01
  0
LINE
  8
0
 62
7
 10
-9.01281215E+01
 20
5.07949139E+01
 11
-8.71819393E+01
 21
5.07949139E+01
  0
LINE
  8
0
 62
7
 10
-9.01281215E+01
 20
3.67949137E+01
 11
-8.71819393E+01
 21
3.67949137E+01
  0
LINE
  8
0
 62
7
 10
-7.83062984E+01
 20
4.86167392E+01
 11
-7.83062984E+01
 21
4.78363638E+01
  0
LINE
  8
0
 62
7
 10
-9.23062984E+01
 20
4.86167392E+01
 11
-9.23062984E+01
 21
4.78363665E+01
  0
LINE
  8
0
 62
4
 10
-9.23063031E+01
 20
3.97534630E+01
 11
-8.53062990E+01
 21
3.57120087E+01
  0
LINE
  8
0
 62
4
 10
-8.53063031E+01
 20
5.18778185E+01
 11
-7.83062990E+01
 21
4.78363642E+01
  0
LINE
  8
0
 62
4
 10
-8.53062973E+01
 20
3.57120110E+01
 11
-7.83062999E+01
 21
3.97534615E+01
  0
LINE
  8
0
 62
4
 10
-9.23062973E+01
 20
4.78363665E+01
 11
-8.53062999E+01
 21
5.18778170E+01
  0
LINE
  8
0
 62
7
 10
-8.34306575E+01
 20
3.67949137E+01
 11
-8.04844753E+01
 21
3.67949137E+01
  0
LINE
  8
0
 62
7
 10
-8.34306575E+01
 20
5.07949139E+01
 11
-8.04844753E+01
 21
5.07949139E+01
  0
CIRCLE
  8
0
 62
2
 10
-8.53062984E+01
 20
4.37949137E+01
 40
1.65000000E+00
  0
CIRCLE
  8
0
 62
7
 10
-8.53062984E+01
 20
4.37949137E+01
 40
2.00000000E+00
  0
CIRCLE
  8
0
 62
4
 10
-8.53062984E+01
 20
4.37949137E+01
 40
3.50000000E+00
  0
ARC
  8
0
 62
7
 10
-8.53062984E+01
 20
4.37949137E+01
 40
8.50000000E+00
 50
3.45603235E+01
 51
5.54396790E+01
  0
ARC
  8
0
 62
7
 10
-8.53062984E+01
 20
4.37949137E+01
 40
8.50000000E+00
 50
1.24560316E+02
 51
1.45439685E+02
  0
ARC
  8
0
 62
7
 10
-8.53062984E+01
 20
4.37949137E+01
 40
8.50000000E+00
 50
2.14560315E+02
 51
2.35439684E+02
  0
ARC
  8
0
 62
7
 10
-8.53062984E+01
 20
4.37949137E+01
 40
8.50000000E+00
 50
3.04560321E+02
 51
3.25439676E+02
  0
CIRCLE
  8
0
 62
4
 10
-8.53062984E+01
 20
4.37949137E+01
 40
7.00000000E+00
  0
CIRCLE
  8
0
 62
7
 10
-8.53062984E+01
 20
4.37949137E+01
 40
5.00000000E+00
  0
CIRCLE
  8
0
 62
2
 10
-8.53062984E+01
 20
4.37949137E+01
 40
4.50000000E+00
  0
LINE
  8
0
 62
7
 10
8.36937016E+01
 20
4.05449137E+01
 11
8.36937016E+01
 21
4.00288581E+01
  0
LINE
  8
0
 62
7
 10
8.36937016E+01
 20
4.70449137E+01
 11
8.36937016E+01
 21
4.86167391E+01
  0
LINE
  8
0
 62
7
 10
9.39437016E+01
 20
5.07949137E+01
 11
9.55155270E+01
 21
5.07949137E+01
  0
LINE
  8
0
 62
7
 10
8.88180546E+01
 20
3.67949137E+01
 11
9.06937010E+01
 21
3.57120087E+01
  0
LINE
  8
0
 62
7
 10
9.06937027E+01
 20
3.57120110E+01
 11
9.25693451E+01
 21
3.67949137E+01
  0
ARC
  8
0
 62
7
 10
9.06937016E+01
 20
4.37949137E+01
 40
8.50000000E+00
 50
1.24560322E+02
 51
1.39213128E+02
  0
ARC
  8
0
 62
7
 10
9.06937016E+01
 20
4.37949137E+01
 40
8.50000000E+00
 50
3.45603218E+01
 51
4.92131269E+01
  0
ARC
  8
0
 62
7
 10
9.06937016E+01
 20
4.37949137E+01
 40
8.50000000E+00
 50
3.04560322E+02
 51
3.25439678E+02
  0
ARC
  8
0
 62
7
 10
9.06937016E+01
 20
4.37949137E+01
 40
8.50000000E+00
 50
2.14560322E+02
 51
2.35439678E+02
  0
LINE
  8
0
 62
7
 10
8.58718762E+01
 20
3.67949137E+01
 11
9.55155270E+01
 21
3.67949137E+01
  0
LINE
  8
0
 62
7
 10
8.58718762E+01
 20
5.07949137E+01
 11
8.74437016E+01
 21
5.07949137E+01
  0
LINE
  8
0
 62
7
 10
9.76937016E+01
 20
3.89730883E+01
 11
9.76937016E+01
 21
4.86167391E+01
  0
LINE
  8
0
 62
7
 10
8.36937016E+01
 20
3.89730883E+01
 11
8.36937016E+01
 21
3.98776425E+01
  0
LINE
  8
0
 62
4
 10
8.11437025E+01
 20
4.24949137E+01
 11
8.03937025E+01
 21
4.17449137E+01
  0
LINE
  8
0
 62
4
 10
7.83937025E+01
 20
4.22949137E+01
 11
7.86937025E+01
 21
4.25949137E+01
  0
LINE
  8
0
 62
4
 10
7.83937025E+01
 20
4.52949137E+01
 11
7.86937025E+01
 21
4.49949137E+01
  0
LINE
  8
0
 62
4
 10
7.70597481E+01
 20
4.81444608E+01
 11
7.70113060E+01
 21
4.86421087E+01
  0
LINE
  8
0
 62
4
 10
7.70113060E+01
 20
4.86421087E+01
 11
8.74619105E+01
 21
4.96593926E+01
  0
LINE
  8
0
 62
4
 10
7.70597481E+01
 20
4.81444608E+01
 11
9.06937016E+01
 21
4.94716188E+01
  0
LINE
  8
0
 62
4
 10
8.21937025E+01
 20
4.02949137E+01
 11
8.97093412E+01
 21
3.82042058E+01
  0
LINE
  8
0
 62
4
 10
8.21937025E+01
 20
4.04449137E+01
 11
8.92236641E+01
 21
3.84950093E+01
  0
LINE
  8
0
 62
4
 10
7.86937025E+01
 20
4.70449137E+01
 11
8.51937025E+01
 21
4.70449137E+01
  0
LINE
  8
0
 62
4
 10
7.86937025E+01
 20
4.05449137E+01
 11
8.21937025E+01
 21
4.05449137E+01
  0
LINE
  8
0
 62
4
 10
7.86937025E+01
 20
4.05449137E+01
 11
7.86937025E+01
 21
4.70449137E+01
  0
LINE
  8
0
 62
4
 10
8.03937025E+01
 20
4.17449137E+01
 11
8.03937025E+01
 21
4.58449137E+01
  0
LINE
  8
0
 62
4
 10
8.00937025E+01
 20
4.27949137E+01
 11
8.03937025E+01
 21
4.27949137E+01
  0
LINE
  8
0
 62
4
 10
8.00937025E+01
 20
4.47949137E+01
 11
8.03937025E+01
 21
4.47949137E+01
  0
LINE
  8
0
 62
4
 10
8.00937025E+01
 20
4.27949137E+01
 11
8.00937025E+01
 21
4.47949137E+01
  0
LINE
  8
0
 62
4
 10
7.93937025E+01
 20
4.05449137E+01
 11
7.93937025E+01
 21
4.70449137E+01
  0
LINE
  8
0
 62
4
 10
8.25937025E+01
 20
4.05449137E+01
 11
8.25937025E+01
 21
4.17449137E+01
  0
LINE
  8
0
 62
4
 10
8.21937025E+01
 20
4.05449137E+01
 11
8.21937025E+01
 21
4.17449137E+01
  0
LINE
  8
0
 62
4
 10
8.25937025E+01
 20
4.05449137E+01
 11
8.51937025E+01
 21
4.05449137E+01
  0
LINE
  8
0
 62
4
 10
8.03937025E+01
 20
4.17449137E+01
 11
8.43937025E+01
 21
4.17449137E+01
  0
LINE
  8
0
 62
4
 10
7.69937025E+01
 20
4.72949137E+01
 11
8.28937025E+01
 21
4.72949137E+01
  0
LINE
  8
0
 62
4
 10
7.69937025E+01
 20
4.02949137E+01
 11
8.21937025E+01
 21
4.02949137E+01
  0
LINE
  8
0
 62
4
 10
7.46937025E+01
 20
4.12949137E+01
 11
7.46937025E+01
 21
4.62949137E+01
  0
LINE
  8
0
 62
4
 10
7.56937025E+01
 20
4.02949137E+01
 11
7.56937025E+01
 21
4.72949137E+01
  0
LINE
  8
0
 62
4
 10
7.71937025E+01
 20
4.17949137E+01
 11
7.71937025E+01
 21
4.57949137E+01
  0
LINE
  8
0
 62
4
 10
7.64937025E+01
 20
4.07949137E+01
 11
7.64937025E+01
 21
4.67949137E+01
  0
LINE
  8
0
 62
4
 10
7.64937025E+01
 20
4.80949137E+01
 11
8.28937025E+01
 21
4.80949137E+01
  0
LINE
  8
0
 62
4
 10
7.64937025E+01
 20
3.94949137E+01
 11
8.21937025E+01
 21
3.94949137E+01
  0
LINE
  8
0
 62
4
 10
7.64937025E+01
 20
4.58549137E+01
 11
7.71937025E+01
 21
4.57949137E+01
  0
LINE
  8
0
 62
4
 10
7.64937025E+01
 20
4.17349137E+01
 11
7.71937025E+01
 21
4.17949137E+01
  0
LINE
  8
0
 62
4
 10
8.21937025E+01
 20
3.94949137E+01
 11
8.21937025E+01
 21
4.02949137E+01
  0
LINE
  8
0
 62
4
 10
8.28937025E+01
 20
4.72949137E+01
 11
8.28937025E+01
 21
4.80949137E+01
  0
LINE
  8
0
 62
4
 10
8.06937025E+01
 20
4.80949137E+01
 11
8.04710939E+01
 21
4.84765285E+01
  0
LINE
  8
0
 62
4
 10
7.73937025E+01
 20
4.96949137E+01
 11
7.97637025E+01
 21
4.96949137E+01
  0
LINE
  8
0
 62
4
 10
7.73937025E+01
 20
4.88949137E+01
 11
7.73937025E+01
 21
4.96949137E+01
  0
LINE
  8
0
 62
4
 10
7.73937025E+01
 20
4.88949137E+01
 11
7.93037025E+01
 21
4.88949137E+01
  0
LINE
  8
0
 62
4
 10
7.97637025E+01
 20
4.80949137E+01
 11
7.95988637E+01
 21
4.83916237E+01
  0
LINE
  8
0
 62
4
 10
7.69937025E+01
 20
4.04449137E+01
 11
8.21937025E+01
 21
4.04449137E+01
  0
LINE
  8
0
 62
4
 10
7.69937025E+01
 20
4.02949137E+01
 11
7.69937025E+01
 21
4.04449137E+01
  0
LINE
  8
0
 62
4
 10
7.93222698E+01
 20
4.88670628E+01
 11
7.93037025E+01
 21
4.88949137E+01
  0
LINE
  8
0
 62
4
 10
8.02031087E+01
 20
4.89528055E+01
 11
7.97637025E+01
 21
4.96949137E+01
  0
LINE
  8
0
 62
4
 10
7.46937025E+01
 20
4.22949137E+01
 11
7.56937025E+01
 21
4.22949137E+01
  0
LINE
  8
0
 62
4
 10
7.46937025E+01
 20
4.52949137E+01
 11
7.56937025E+01
 21
4.52949137E+01
  0
LINE
  8
0
 62
6
 10
7.46937025E+01
 20
4.50249137E+01
 11
7.56937025E+01
 21
4.50249137E+01
  0
LINE
  8
0
 62
6
 10
7.46937025E+01
 20
4.25649137E+01
 11
7.56937025E+01
 21
4.25649137E+01
  0
LINE
  8
0
 62
4
 10
7.41937025E+01
 20
4.62949137E+01
 11
7.46937025E+01
 21
4.62949137E+01
  0
LINE
  8
0
 62
4
 10
7.41937025E+01
 20
4.12949137E+01
 11
7.46937025E+01
 21
4.12949137E+01
  0
LINE
  8
0
 62
4
 10
7.31937025E+01
 20
4.22949137E+01
 11
7.31937025E+01
 21
4.52949137E+01
  0
LINE
  8
0
 62
4
 10
7.71937025E+01
 20
4.22949137E+01
 11
7.83937025E+01
 21
4.22949137E+01
  0
LINE
  8
0
 62
6
 10
7.71937025E+01
 20
4.25649137E+01
 11
7.86637025E+01
 21
4.25649137E+01
  0
LINE
  8
0
 62
6
 10
7.71937025E+01
 20
4.50249137E+01
 11
7.86637025E+01
 21
4.50249137E+01
  0
LINE
  8
0
 62
4
 10
7.71937025E+01
 20
4.52949137E+01
 11
7.83937025E+01
 21
4.52949137E+01
  0
ARC
  8
0
 62
4
 10
7.69938627E+01
 20
4.07950739E+01
 40
5.00160181E-01
 50
1.80018346E+02
 51
2.70000000E+02
  0
ARC
  8
0
 62
4
 10
7.69860774E+01
 20
4.68025389E+01
 40
4.92433852E-01
 50
8.91127567E+01
 51
1.80887243E+02
  0
ARC
  8
0
 62
4
 10
7.64938409E+01
 20
4.02950521E+01
 40
8.00138358E-01
 50
1.80009907E+02
 51
2.70000000E+02
  0
ARC
  8
0
 62
4
 10
7.64860774E+01
 20
4.73025389E+01
 40
7.92411497E-01
 50
8.94486475E+01
 51
1.80551352E+02
  0
ARC
  8
0
 62
4
 10
7.41938321E+01
 20
4.22950433E+01
 40
1.00012957E+00
 50
1.80007422E+02
 51
2.70000000E+02
  0
ARC
  8
0
 62
4
 10
7.41860758E+01
 20
4.53025404E+01
 40
9.92402587E-01
 50
8.95596718E+01
 51
1.80440329E+02
  0
LINE
  8
0
  6
CENTER
 62
2
 10
7.21356412E+01
 20
4.37949137E+01
 11
9.85145005E+01
 21
4.37949137E+01
  0
CIRCLE
  8
0
 62
4
 10
9.06937016E+01
 20
4.37949137E+01
 40
5.50000000E+00
  0
CIRCLE
  8
0
 62
6
 10
9.06937016E+01
 20
4.37949137E+01
 40
2.50000000E+00
  0
CIRCLE
  8
0
 62
4
 10
9.06937016E+01
 20
4.37949137E+01
 40
2.10000000E+00
  0
CIRCLE
  8
0
 62
4
 10
9.06937016E+01
 20
4.37949137E+01
 40
5.00000000E+00
  0
LINE
  8
0
 62
4
 10
8.56937025E+01
 20
4.10449137E+01
 11
8.51937025E+01
 21
4.05449137E+01
  0
LINE
  8
0
 62
4
 10
8.56937025E+01
 20
4.10449137E+01
 11
8.56937025E+01
 21
4.15036259E+01
  0
LINE
  8
0
 62
4
 10
8.56937025E+01
 20
4.65449137E+01
 11
8.51937025E+01
 21
4.70449137E+01
  0
LINE
  8
0
 62
4
 10
8.56937025E+01
 20
4.60862016E+01
 11
8.56937025E+01
 21
4.65449137E+01
  0
LINE
  8
0
 62
4
 10
8.43937025E+01
 20
4.17449137E+01
 11
8.43937025E+01
 21
4.58449137E+01
  0
LINE
  8
0
 62
4
 10
8.46937025E+01
 20
4.27949137E+01
 11
8.46937025E+01
 21
4.47949137E+01
  0
LINE
  8
0
 62
4
 10
8.36937025E+01
 20
4.50949137E+01
 11
8.43937025E+01
 21
4.58449137E+01
  0
LINE
  8
0
 62
4
 10
8.43937025E+01
 20
4.47949137E+01
 11
8.46937025E+01
 21
4.47949137E+01
  0
LINE
  8
0
 62
4
 10
8.36937025E+01
 20
4.24949137E+01
 11
8.43937025E+01
 21
4.17449137E+01
  0
CIRCLE
  8
0
 62
4
 10
8.23937025E+01
 20
4.37949137E+01
 40
1.30000000E+00
  0
LINE
  8
0
 62
4
 10
8.36937025E+01
 20
4.24949137E+01
 11
8.36937025E+01
 21
4.50949137E+01
  0
LINE
  8
0
 62
4
 10
8.43937025E+01
 20
4.27949137E+01
 11
8.46937025E+01
 21
4.27949137E+01
  0
LINE
  8
0
 62
4
 10
8.35437025E+01
 20
4.86249137E+01
 11
9.01608395E+01
 21
4.92690398E+01
  0
LINE
  8
0
 62
4
 10
8.35437025E+01
 20
4.86249137E+01
 11
8.35291699E+01
 21
4.87742081E+01
  0
LINE
  8
0
 62
4
 10
8.75103526E+01
 20
4.91617448E+01
 11
8.74619105E+01
 21
4.96593926E+01
  0
LINE
  8
0
 62
4
 10
8.10937025E+01
 20
4.50949137E+01
 11
8.03937025E+01
 21
4.58449137E+01
  0
LINE
  8
0
 62
4
 10
8.03937025E+01
 20
4.58449137E+01
 11
8.43937025E+01
 21
4.58449137E+01
  0
LINE
  8
0
 62
4
 10
8.36937025E+01
 20
4.50949137E+01
 11
8.10937025E+01
 21
4.50949137E+01
  0
LINE
  8
0
 62
4
 10
8.36937025E+01
 20
4.24949137E+01
 11
8.11437025E+01
 21
4.24949137E+01
  0
LINE
  8
0
 62
4
 10
8.10937025E+01
 20
4.50949137E+01
 11
8.10937025E+01
 21
4.24949137E+01
  0
ARC
  8
0
 62
4
 10
9.06937016E+01
 20
4.37949137E+01
 40
5.67670505E+00
 50
2.60014237E+02
 51
1.01119553E+02
  0
ARC
  8
0
 62
4
 10
9.22013283E+01
 20
6.03025404E+01
 40
9.92402587E-01
 50
3.59559672E+02
 51
9.04403286E+01
  0
ARC
  8
0
 62
4
 10
8.91938312E+01
 20
6.02947841E+01
 40
1.00012957E+00
 50
9.00000002E+01
 51
1.79992578E+02
  0
ARC
  8
0
 62
4
 10
9.42013268E+01
 20
5.80025389E+01
 40
7.92411497E-01
 50
3.59448647E+02
 51
9.05513523E+01
  0
ARC
  8
0
 62
4
 10
8.71938399E+01
 20
5.79947754E+01
 40
8.00138358E-01
 50
9.00000002E+01
 51
1.79990093E+02
  0
ARC
  8
0
 62
4
 10
9.37013268E+01
 20
5.75025389E+01
 40
4.92433852E-01
 50
3.59112757E+02
 51
9.08872431E+01
  0
ARC
  8
0
 62
4
 10
8.76938617E+01
 20
5.74947536E+01
 40
5.00160181E-01
 50
9.00000002E+01
 51
1.79981654E+02
  0
LINE
  8
0
 62
4
 10
9.19937016E+01
 20
5.07949137E+01
 11
9.27437016E+01
 21
5.00949137E+01
  0
LINE
  8
0
 62
4
 10
8.93937016E+01
 20
5.07949137E+01
 11
8.86437016E+01
 21
5.00949137E+01
  0
LINE
  8
0
 62
4
 10
9.19937016E+01
 20
5.33949137E+01
 11
9.27437016E+01
 21
5.40949137E+01
  0
LINE
  8
0
 62
4
 10
8.86437016E+01
 20
5.40949137E+01
 11
8.93937016E+01
 21
5.33949137E+01
  0
LINE
  8
0
 62
4
 10
8.93937016E+01
 20
5.33949137E+01
 11
8.93937016E+01
 21
5.07949137E+01
  0
LINE
  8
0
 62
4
 10
9.19937016E+01
 20
5.33949137E+01
 11
9.19937016E+01
 21
5.07949137E+01
  0
LINE
  8
0
 62
4
 10
8.93937016E+01
 20
5.33949137E+01
 11
9.19937016E+01
 21
5.33949137E+01
  0
LINE
  8
0
 62
4
 10
8.93937016E+01
 20
5.07949137E+01
 11
9.19937016E+01
 21
5.07949137E+01
  0
LINE
  8
0
 62
4
 10
9.21937016E+01
 20
5.72949137E+01
 11
9.21937016E+01
 21
5.60949137E+01
  0
LINE
  8
0
 62
6
 10
9.19237016E+01
 20
5.72949137E+01
 11
9.19237016E+01
 21
5.58249137E+01
  0
LINE
  8
0
 62
6
 10
8.94637016E+01
 20
5.72949137E+01
 11
8.94637016E+01
 21
5.58249137E+01
  0
LINE
  8
0
 62
4
 10
8.91937016E+01
 20
5.72949137E+01
 11
8.91937016E+01
 21
5.60949137E+01
  0
LINE
  8
0
 62
4
 10
8.91937016E+01
 20
6.12949137E+01
 11
9.21937016E+01
 21
6.12949137E+01
  0
LINE
  8
0
 62
4
 10
8.81937016E+01
 20
6.02949137E+01
 11
8.81937016E+01
 21
5.97949137E+01
  0
LINE
  8
0
 62
4
 10
9.31937016E+01
 20
6.02949137E+01
 11
9.31937016E+01
 21
5.97949137E+01
  0
LINE
  8
0
 62
6
 10
8.94637016E+01
 20
5.97949137E+01
 11
8.94637016E+01
 21
5.87949137E+01
  0
LINE
  8
0
 62
6
 10
9.19237016E+01
 20
5.97949137E+01
 11
9.19237016E+01
 21
5.87949137E+01
  0
LINE
  8
0
 62
4
 10
9.21937016E+01
 20
5.97949137E+01
 11
9.21937016E+01
 21
5.87949137E+01
  0
LINE
  8
0
 62
4
 10
8.91937016E+01
 20
5.97949137E+01
 11
8.91937016E+01
 21
5.87949137E+01
  0
LINE
  8
0
 62
4
 10
9.58515934E+01
 20
5.42855075E+01
 11
9.65937016E+01
 21
5.47249137E+01
  0
LINE
  8
0
 62
4
 10
9.57658507E+01
 20
5.51663464E+01
 11
9.57937016E+01
 21
5.51849137E+01
  0
LINE
  8
0
 62
4
 10
8.71937016E+01
 20
5.74949137E+01
 11
8.73437016E+01
 21
5.74949137E+01
  0
LINE
  8
0
 62
4
 10
8.73437016E+01
 20
5.74949137E+01
 11
8.73437016E+01
 21
5.22949137E+01
  0
LINE
  8
0
 62
4
 10
9.49937016E+01
 20
5.47249137E+01
 11
9.52904116E+01
 21
5.48897526E+01
  0
LINE
  8
0
 62
4
 10
9.57937016E+01
 20
5.70949137E+01
 11
9.57937016E+01
 21
5.51849137E+01
  0
LINE
  8
0
 62
4
 10
9.57937016E+01
 20
5.70949137E+01
 11
9.65937016E+01
 21
5.70949137E+01
  0
LINE
  8
0
 62
4
 10
9.65937016E+01
 20
5.70949137E+01
 11
9.65937016E+01
 21
5.47249137E+01
  0
LINE
  8
0
 62
4
 10
9.49937016E+01
 20
5.37949137E+01
 11
9.53753163E+01
 21
5.40175223E+01
  0
LINE
  8
0
 62
4
 10
9.41937016E+01
 20
5.15949137E+01
 11
9.49937016E+01
 21
5.15949137E+01
  0
LINE
  8
0
 62
4
 10
8.63937016E+01
 20
5.22949137E+01
 11
8.71937016E+01
 21
5.22949137E+01
  0
LINE
  8
0
 62
4
 10
8.86337016E+01
 20
5.79949137E+01
 11
8.86937016E+01
 21
5.72949137E+01
  0
LINE
  8
0
 62
4
 10
9.27537016E+01
 20
5.79949137E+01
 11
9.26937016E+01
 21
5.72949137E+01
  0
LINE
  8
0
 62
4
 10
8.63937016E+01
 20
5.79949137E+01
 11
8.63937016E+01
 21
5.22949137E+01
  0
LINE
  8
0
 62
4
 10
9.49937016E+01
 20
5.79949137E+01
 11
9.49937016E+01
 21
5.15949137E+01
  0
LINE
  8
0
 62
4
 10
8.76937016E+01
 20
5.79949137E+01
 11
9.36937016E+01
 21
5.79949137E+01
  0
LINE
  8
0
 62
4
 10
8.86937016E+01
 20
5.72949137E+01
 11
9.26937016E+01
 21
5.72949137E+01
  0
LINE
  8
0
 62
4
 10
8.71937016E+01
 20
5.87949137E+01
 11
9.41937016E+01
 21
5.87949137E+01
  0
LINE
  8
0
 62
4
 10
8.81937016E+01
 20
5.97949137E+01
 11
9.31937016E+01
 21
5.97949137E+01
  0
LINE
  8
0
 62
4
 10
8.71937016E+01
 20
5.74949137E+01
 11
8.71937016E+01
 21
5.22949137E+01
  0
LINE
  8
0
 62
4
 10
9.41937016E+01
 20
5.74949137E+01
 11
9.41937016E+01
 21
5.15949137E+01
  0
LINE
  8
0
 62
4
 10
8.86437016E+01
 20
5.40949137E+01
 11
8.86437016E+01
 21
5.00949137E+01
  0
LINE
  8
0
 62
4
 10
8.74437016E+01
 20
5.18949137E+01
 11
8.74437016E+01
 21
4.96576202E+01
  0
LINE
  8
0
 62
4
 10
8.74437016E+01
 20
5.22949137E+01
 11
8.86437016E+01
 21
5.22949137E+01
  0
LINE
  8
0
 62
4
 10
8.74437016E+01
 20
5.18949137E+01
 11
8.86437016E+01
 21
5.18949137E+01
  0
LINE
  8
0
 62
4
 10
8.74437016E+01
 20
5.50949137E+01
 11
9.39437016E+01
 21
5.50949137E+01
  0
LINE
  8
0
 62
4
 10
8.79437016E+01
 20
4.87949137E+01
 11
8.77083099E+01
 21
4.90303054E+01
  0
LINE
  8
0
 62
4
 10
9.34437016E+01
 20
4.87949137E+01
 11
9.39437016E+01
 21
4.92949137E+01
  0
LINE
  8
0
 62
4
 10
9.16937016E+01
 20
5.00949137E+01
 11
9.16937016E+01
 21
4.97949137E+01
  0
LINE
  8
0
 62
4
 10
8.96937016E+01
 20
5.00949137E+01
 11
8.96937016E+01
 21
4.97949137E+01
  0
LINE
  8
0
 62
4
 10
8.96937016E+01
 20
4.97949137E+01
 11
9.16937016E+01
 21
4.97949137E+01
  0
LINE
  8
0
 62
4
 10
8.96937016E+01
 20
5.43949137E+01
 11
9.16937016E+01
 21
5.43949137E+01
  0
LINE
  8
0
 62
4
 10
9.16937016E+01
 20
5.43949137E+01
 11
9.16937016E+01
 21
5.40949137E+01
  0
LINE
  8
0
 62
4
 10
8.96937016E+01
 20
5.43949137E+01
 11
8.96937016E+01
 21
5.40949137E+01
  0
LINE
  8
0
 62
4
 10
8.86437016E+01
 20
5.40949137E+01
 11
9.27437016E+01
 21
5.40949137E+01
  0
LINE
  8
0
 62
4
 10
9.27437016E+01
 20
5.40949137E+01
 11
9.27437016E+01
 21
5.00949137E+01
  0
LINE
  8
0
 62
4
 10
8.86437016E+01
 20
5.00949137E+01
 11
9.27437016E+01
 21
5.00949137E+01
  0
LINE
  8
0
 62
4
 10
8.74437016E+01
 20
5.57949137E+01
 11
9.39437016E+01
 21
5.57949137E+01
  0
LINE
  8
0
 62
4
 10
8.79437016E+01
 20
4.87949137E+01
 11
8.84024137E+01
 21
4.87949137E+01
  0
LINE
  8
0
 62
4
 10
8.74437016E+01
 20
5.57949137E+01
 11
8.74437016E+01
 21
5.22949137E+01
  0
LINE
  8
0
 62
4
 10
9.39437016E+01
 20
5.57949137E+01
 11
9.39437016E+01
 21
4.92949137E+01
  0
CIRCLE
  8
0
 62
4
 10
9.06937016E+01
 20
5.20949137E+01
 40
1.30000000E+00
  0
ARC
  8
0
 62
4
 10
9.06937016E+01
 20
4.37949137E+01
 40
5.65000000E+00
 50
2.07753944E+02
 51
2.41265568E+02
  0
LINE
  8
0
 62
4
 10
8.73437016E+01
 20
5.22949137E+01
 11
8.65891204E+01
 21
4.95744334E+01
  0
LINE
  8
0
 62
4
 10
8.71937016E+01
 20
5.22949137E+01
 11
8.64326794E+01
 21
4.95592051E+01
  0
LINE
  8
0
 62
4
 10
9.55237016E+01
 20
5.09449137E+01
 11
9.60316725E+01
 21
4.57265055E+01
  0
LINE
  8
0
 62
4
 10
9.50432487E+01
 20
5.74288681E+01
 11
9.63171221E+01
 21
4.43423094E+01
  0
LINE
  8
0
 62
4
 10
9.55237016E+01
 20
5.09449137E+01
 11
9.56729959E+01
 21
5.09594463E+01
  0
LINE
  8
0
 62
4
 10
9.60605327E+01
 20
4.69782637E+01
 11
9.65581805E+01
 21
4.70267058E+01
  0
LINE
  8
0
 62
4
 10
9.55408965E+01
 20
5.74773102E+01
 11
9.65581805E+01
 21
4.70267058E+01
  0
LINE
  8
0
 62
4
 10
9.50432487E+01
 20
5.74288681E+01
 11
9.55408965E+01
 21
5.74773102E+01
  0
LINE
  8
0
 62
4
 10
9.21937016E+01
 20
5.60949137E+01
 11
9.18937016E+01
 21
5.57949137E+01
  0
LINE
  8
0
 62
4
 10
8.91937016E+01
 20
5.60949137E+01
 11
8.94937016E+01
 21
5.57949137E+01
  0
LINE
  8
0
 62
4
 10
8.62459508E+01
 20
4.88879563E+01
 11
8.56158249E+01
 21
4.66227913E+01
  0
LINE
  8
0
 62
4
 10
8.64029509E+01
 20
4.89032390E+01
 11
8.56937025E+01
 21
4.63461966E+01
  0
LINE
  8
0
  6
CENTER
 62
2
 10
9.06937016E+01
 20
6.24987769E+01
 11
9.06937016E+01
 21
3.50487554E+01
  0
LINE
  8
0
  6
CENTER
 62
6
 10
-1.10988101E+02
 20
-6.31908558E+01
 11
-1.10988101E+02
 21
-3.12458132E+01
  0
LINE
  8
0
  6
CENTER
 62
6
 10
-1.25588101E+02
 20
-5.36358654E+01
 11
-1.25588101E+02
 21
-6.19073497E+01
  0
LINE
  8
0
  6
CENTER
 62
6
 10
-9.63881012E+01
 20
-5.36358654E+01
 11
-9.63881012E+01
 21
-6.19073497E+01
  0
LINE
  8
0
 62
4
 10
-1.31988101E+02
 20
-5.65104135E+01
 11
-1.19047942E+02
 21
-3.88910413E+01
  0
LINE
  8
0
 62
4
 10
-8.99881012E+01
 20
-5.65104135E+01
 11
-1.02928260E+02
 21
-3.88910413E+01
  0
ARC
  8
0
 62
4
 10
-1.10988101E+02
 20
-4.48104135E+01
 40
1.00000000E+01
 50
3.62946002E+01
 51
1.43705400E+02
  0
CIRCLE
  8
0
 62
4
 10
-1.10988101E+02
 20
-4.48104135E+01
 40
5.00000000E+00
  0
LINE
  8
0
 62
4
 10
-8.99881012E+01
 20
-5.88104135E+01
 11
-8.99881012E+01
 21
-5.65104135E+01
  0
LINE
  8
0
 62
4
 10
-1.31988101E+02
 20
-5.88104135E+01
 11
-1.31988101E+02
 21
-5.65104135E+01
  0
LINE
  8
0
  6
CENTER
 62
6
 10
-1.18725278E+02
 20
-4.48104135E+01
 11
-1.03037980E+02
 21
-4.48104135E+01
  0
LINE
  8
0
 62
4
 10
-1.31988101E+02
 20
-5.65104135E+01
 11
-8.99881012E+01
 21
-5.65104135E+01
  0
LINE
  8
0
 62
4
 10
-1.31988101E+02
 20
-5.88104135E+01
 11
-8.99881012E+01
 21
-5.88104135E+01
  0
ARC
  8
0
 62
4
 10
-7.17644468E+01
 20
-5.60340679E+01
 40
4.76345597E-01
 50
2.70000000E+02
 51
0.00000000E+00
  0
ARC
  8
0
 62
4
 10
-7.17644468E+01
 20
-5.60340679E+01
 40
2.77634560E+00
 50
2.70000000E+02
 51
0.00000000E+00
  0
LINE
  8
0
  6
CENTER
 62
6
 10
-7.53881012E+01
 20
-4.48104135E+01
 11
-6.57721221E+01
 21
-4.48104135E+01
  0
LINE
  8
0
 62
4
 10
-7.53881012E+01
 20
-5.88104135E+01
 11
-7.53881012E+01
 21
-5.65104135E+01
  0
LINE
  8
0
 62
4
 10
-8.05881012E+01
 20
-5.88104135E+01
 11
-8.05881012E+01
 21
-5.65104135E+01
  0
LINE
  8
0
  6
CENTER
 62
6
 10
-7.79881012E+01
 20
-6.19073497E+01
 11
-7.79881012E+01
 21
-5.36358654E+01
  0
LINE
  8
0
 62
4
 10
-8.39881012E+01
 20
-5.88104135E+01
 11
-8.39881012E+01
 21
-5.65104135E+01
  0
LINE
  8
0
 62
4
 10
-8.39881012E+01
 20
-5.65104135E+01
 11
-7.17644468E+01
 21
-5.65104135E+01
  0
LINE
  8
0
 62
4
 10
-7.12881012E+01
 20
-5.60340679E+01
 11
-7.12881012E+01
 21
-3.48104135E+01
  0
LINE
  8
0
 62
4
 10
-8.39881012E+01
 20
-5.88104135E+01
 11
-7.17644468E+01
 21
-5.88104135E+01
  0
LINE
  8
0
 62
4
 10
-7.12881012E+01
 20
-3.48104135E+01
 11
-6.89881012E+01
 21
-3.48104135E+01
  0
LINE
  8
0
 62
4
 10
-6.89881012E+01
 20
-5.60340679E+01
 11
-6.89881012E+01
 21
-3.48104135E+01
  0
LINE
  8
0
 62
4
 10
-1.31988101E+02
 20
-1.12004135E+01
 11
-1.31988101E+02
 21
-4.80041354E+00
  0
LINE
  8
0
 62
4
 10
-8.99881012E+01
 20
-1.12004135E+01
 11
-8.99881012E+01
 21
-4.80041354E+00
  0
LINE
  8
0
 62
4
 10
-1.25588101E+02
 20
-1.64004135E+01
 11
-1.31988101E+02
 21
-1.64004135E+01
  0
LINE
  8
0
 62
4
 10
-1.25588101E+02
 20
-1.12004135E+01
 11
-1.31988101E+02
 21
-1.12004135E+01
  0
LINE
  8
0
  6
CENTER
 62
6
 10
-1.25588101E+02
 20
-1.74302352E+01
 11
-1.25588101E+02
 21
-9.87180989E+00
  0
ARC
  8
0
 62
4
 10
-1.25588101E+02
 20
-1.38004135E+01
 40
2.60000000E+00
 50
2.70000000E+02
 51
9.00000002E+01
  0
LINE
  8
0
 62
4
 10
-9.63881012E+01
 20
-1.64004135E+01
 11
-8.99881012E+01
 21
-1.64004135E+01
  0
LINE
  8
0
 62
4
 10
-9.63881012E+01
 20
-1.12004135E+01
 11
-8.99881012E+01
 21
-1.12004135E+01
  0
LINE
  8
0
  6
CENTER
 62
6
 10
-9.63881012E+01
 20
-1.74302352E+01
 11
-9.63881012E+01
 21
-9.87180989E+00
  0
LINE
  8
0
  6
CENTER
 62
6
 10
-1.10988101E+02
 20
-2.09955301E+01
 11
-1.10988101E+02
 21
-3.45427899E+00
  0
ARC
  8
0
 62
4
 10
-9.63881012E+01
 20
-1.38004135E+01
 40
2.60000000E+00
 50
9.00000002E+01
 51
2.70000000E+02
  0
LINE
  8
0
  6
CENTER
 62
6
 10
-1.33129070E+02
 20
-1.38004135E+01
 11
-8.87768005E+01
 21
-1.38004135E+01
  0
LINE
  8
0
 62
4
 10
-1.31988101E+02
 20
-1.98004135E+01
 11
-8.99881012E+01
 21
-1.98004135E+01
  0
LINE
  8
0
 62
4
 10
-1.31988101E+02
 20
-4.80041351E+00
 11
-8.99881012E+01
 21
-4.80041351E+00
  0
LINE
  8
0
 62
4
 10
-1.31988101E+02
 20
-7.10041351E+00
 11
-8.99881012E+01
 21
-7.10041351E+00
  0
LINE
  8
0
 62
4
 10
-8.99881012E+01
 20
-1.98004135E+01
 11
-8.99881012E+01
 21
-1.64004135E+01
  0
LINE
  8
0
 62
4
 10
-1.31988101E+02
 20
-1.98004135E+01
 11
-1.31988101E+02
 21
-1.64004135E+01
  0
LINE
  8
0
  6
CENTER
 62
6
 10
-1.09881012E+01
 20
-5.92089860E+01
 11
-1.09881012E+01
 21
-3.08763111E+01
  0
LINE
  8
0
 62
4
 10
-3.19881012E+01
 20
-4.22104135E+01
 11
-3.19881012E+01
 21
-3.48104135E+01
  0
LINE
  8
0
 62
4
 10
1.00118988E+01
 20
-4.22104135E+01
 11
1.00118988E+01
 21
-3.48104135E+01
  0
CIRCLE
  8
0
 62
4
 10
-1.09881012E+01
 20
-4.48104135E+01
 40
5.00000000E+00
  0
LINE
  8
0
 62
4
 10
-2.55881012E+01
 20
-4.74104135E+01
 11
-3.19881012E+01
 21
-4.74104135E+01
  0
ARC
  8
0
 62
4
 10
-2.55881012E+01
 20
-4.48104135E+01
 40
2.60000000E+00
 50
2.70000000E+02
 51
9.00000002E+01
  0
LINE
  8
0
 62
4
 10
-2.55881012E+01
 20
-4.22104135E+01
 11
-3.19881012E+01
 21
-4.22104135E+01
  0
LINE
  8
0
  6
CENTER
 62
6
 10
-2.55881012E+01
 20
-4.83617938E+01
 11
-2.55881012E+01
 21
-4.12131596E+01
  0
ARC
  8
0
 62
4
 10
3.61189881E+00
 20
-4.48104135E+01
 40
2.60000000E+00
 50
9.00000002E+01
 51
2.70000000E+02
  0
LINE
  8
0
 62
4
 10
-3.19881012E+01
 20
-5.48104135E+01
 11
1.00118988E+01
 21
-5.48104135E+01
  0
LINE
  8
0
 62
4
 10
-3.19881012E+01
 20
-3.48104135E+01
 11
1.00118988E+01
 21
-3.48104135E+01
  0
LINE
  8
0
 62
4
 10
3.61189881E+00
 20
-4.74104135E+01
 11
1.00118988E+01
 21
-4.74104135E+01
  0
LINE
  8
0
 62
4
 10
3.61189881E+00
 20
-4.22104135E+01
 11
1.00118988E+01
 21
-4.22104135E+01
  0
LINE
  8
0
  6
CENTER
 62
6
 10
3.61189881E+00
 20
-4.83617938E+01
 11
3.61189881E+00
 21
-4.12131596E+01
  0
LINE
  8
0
 62
4
 10
1.00118988E+01
 20
-5.48104135E+01
 11
1.00118988E+01
 21
-4.74104135E+01
  0
LINE
  8
0
 62
4
 10
-3.19881012E+01
 20
-5.48104135E+01
 11
-3.19881012E+01
 21
-4.74104135E+01
  0
LINE
  8
0
  6
CENTER
 62
6
 10
-3.43993202E+01
 20
-4.48104135E+01
 11
1.17040860E+01
 21
-4.48104135E+01
  0
LINE
  8
0
 62
4
 10
2.23118988E+01
 20
-4.74104135E+01
 11
2.46118988E+01
 21
-4.74104135E+01
  0
LINE
  8
0
 62
4
 10
2.23118988E+01
 20
-4.22104135E+01
 11
2.46118988E+01
 21
-4.22104135E+01
  0
LINE
  8
0
  6
CENTER
 62
6
 10
2.61528561E+01
 20
-4.48104135E+01
 11
2.04759996E+01
 21
-4.48104135E+01
  0
LINE
  8
0
 62
4
 10
2.23118988E+01
 20
-5.48104135E+01
 11
2.46118988E+01
 21
-5.48104135E+01
  0
LINE
  8
0
 62
4
 10
2.23118988E+01
 20
-3.48104135E+01
 11
2.46118988E+01
 21
-3.48104135E+01
  0
LINE
  8
0
 62
4
 10
2.46118988E+01
 20
-5.48104135E+01
 11
2.46118988E+01
 21
-3.48104135E+01
  0
LINE
  8
0
 62
4
 10
2.23118988E+01
 20
-5.48104135E+01
 11
2.23118988E+01
 21
-3.48104135E+01
  0
LINE
  8
0
  6
CENTER
 62
6
 10
-1.09881012E+01
 20
-1.72924360E+01
 11
-1.09881012E+01
 21
-7.70230752E+00
  0
LINE
  8
0
  6
CENTER
 62
6
 10
3.61189881E+00
 20
-1.72924360E+01
 11
3.61189881E+00
 21
-7.70230752E+00
  0
LINE
  8
0
  6
CENTER
 62
6
 10
-2.55881012E+01
 20
-1.72924360E+01
 11
-2.55881012E+01
 21
-7.70230752E+00
  0
LINE
  8
0
 62
4
 10
-3.19881012E+01
 20
-1.12104135E+01
 11
1.00118988E+01
 21
-1.12104135E+01
  0
LINE
  8
0
 62
4
 10
-3.19881012E+01
 20
-1.35104135E+01
 11
1.00118988E+01
 21
-1.35104135E+01
  0
LINE
  8
0
 62
4
 10
-3.19881012E+01
 20
-1.35104135E+01
 11
-3.19881012E+01
 21
-1.12104135E+01
  0
LINE
  8
0
 62
4
 10
1.00118988E+01
 20
-1.35104135E+01
 11
1.00118988E+01
 21
-1.12104135E+01
  0
LINE
  8
0
 62
4
 10
7.74645555E+01
 20
-7.59137962E+00
 11
7.74578889E+01
 21
-1.95913778E+01
  0
LINE
  8
0
 62
4
 10
7.74645555E+01
 20
-7.59137962E+00
 11
8.64645541E+01
 21
-7.59637962E+00
  0
LINE
  8
0
 62
4
 10
7.74578889E+01
 20
-1.95913778E+01
 11
8.64578875E+01
 21
-1.95963778E+01
  0
LINE
  8
0
  6
CENTER
 62
6
 10
6.04612248E+01
 20
-1.35819342E+01
 11
8.84612205E+01
 21
-1.35974898E+01
  0
CIRCLE
  8
0
 62
4
 10
8.19612215E+01
 20
-1.35938787E+01
 40
2.10000000E+00
  0
LINE
  8
0
 62
4
 10
8.64645541E+01
 20
-7.59637962E+00
 11
8.64578875E+01
 21
-1.95963778E+01
  0
LINE
  8
0
  6
CENTER
 62
6
 10
8.19632270E+01
 20
-9.98387925E+00
 11
8.19592215E+01
 21
-1.71938781E+01
  0
LINE
  8
0
 62
4
 10
7.91892219E+01
 20
-1.71923392E+01
 11
8.47292211E+01
 21
-1.71954170E+01
  0
LINE
  8
0
 62
4
 10
7.91932275E+01
 20
-9.98234036E+00
 11
8.47332266E+01
 21
-9.98541814E+00
  0
LINE
  8
0
 62
4
 10
7.91945553E+01
 20
-7.59234073E+00
 11
7.91932275E+01
 21
-9.98234036E+00
  0
LINE
  8
0
 62
4
 10
8.47345544E+01
 20
-7.59541851E+00
 11
8.47332266E+01
 21
-9.98541814E+00
  0
LINE
  8
0
 62
4
 10
8.47292211E+01
 20
-1.71954170E+01
 11
8.47278877E+01
 21
-1.95954167E+01
  0
LINE
  8
0
 62
4
 10
7.91892219E+01
 20
-1.71923392E+01
 11
7.91878886E+01
 21
-1.95923389E+01
  0
CIRCLE
  8
0
 62
6
 10
8.19580596E+01
 20
-1.35855713E+01
 40
2.50000000E+00
  0
ARC
  8
0
 62
4
 10
8.20823008E+01
 20
-1.35889460E+01
 40
4.62107659E+00
 50
1.28696491E+02
 51
2.31239846E+02
  0
ARC
  8
0
 62
4
 10
8.18401477E+01
 20
-1.35888114E+01
 40
4.62107659E+00
 50
3.08696492E+02
 51
5.12398464E+01
  0
LINE
  8
0
  6
CENTER
 62
6
 10
1.06110451E+02
 20
-5.59137869E+00
 11
1.06110451E+02
 21
-2.15913787E+01
  0
LINE
  8
0
  6
CENTER
 62
6
 10
9.81104514E+01
 20
-1.35913787E+01
 11
1.14110451E+02
 21
-1.35913787E+01
  0
LINE
  8
0
 62
4
 10
1.00110451E+02
 20
-9.98137869E+00
 11
1.00110451E+02
 21
-1.71913787E+01
  0
LINE
  8
0
 62
4
 10
1.12110451E+02
 20
-9.98137869E+00
 11
1.12110451E+02
 21
-1.71913787E+01
  0
LINE
  8
0
 62
4
 10
1.02500451E+02
 20
-7.59137869E+00
 11
1.09710451E+02
 21
-7.59137869E+00
  0
LINE
  8
0
 62
4
 10
1.02500451E+02
 20
-1.95913787E+01
 11
1.09710451E+02
 21
-1.95913787E+01
  0
ARC
  8
0
 62
4
 10
1.06119110E+02
 20
-1.35977768E+01
 40
7.00128235E+00
 50
2.10882401E+02
 51
2.38878368E+02
  0
CIRCLE
  8
0
 62
4
 10
1.06104425E+02
 20
-1.35830730E+01
 40
6.00000000E+00
  0
ARC
  8
0
 62
4
 10
1.06103285E+02
 20
-1.35842127E+01
 40
7.00697432E+00
 50
3.00983855E+02
 51
3.29016145E+02
  0
ARC
  8
0
 62
4
 10
1.06119124E+02
 20
-1.35977530E+01
 40
6.99815420E+00
 50
3.11152468E+01
 51
5.91239836E+01
  0
ARC
  8
0
 62
4
 10
1.06103286E+02
 20
-1.35842130E+01
 40
6.99245864E+00
 50
1.21013880E+02
 51
1.48986120E+02
  0
LINE
  8
0
 62
4
 10
7.74730579E+01
 20
-4.55913787E+01
 11
7.74730579E+01
 21
-5.75913787E+01
  0
LINE
  8
0
  6
CENTER
 62
6
 10
6.04730579E+01
 20
-5.15913787E+01
 11
9.56730579E+01
 21
-5.15913787E+01
  0
LINE
  8
0
 62
4
 10
7.74730579E+01
 20
-4.55913787E+01
 11
8.64730579E+01
 21
-4.55913787E+01
  0
LINE
  8
0
 62
4
 10
7.74730579E+01
 20
-5.75913787E+01
 11
8.64730579E+01
 21
-5.75913787E+01
  0
LINE
  8
0
 62
4
 10
9.44730541E+01
 20
-5.57913804E+01
 11
9.44730541E+01
 21
-4.73913770E+01
  0
LINE
  8
0
 62
4
 10
9.36730586E+01
 20
-5.65913777E+01
 11
9.36730586E+01
 21
-4.65913796E+01
  0
LINE
  8
0
 62
4
 10
8.79730579E+01
 20
-5.65913777E+01
 11
8.79730579E+01
 21
-4.65913796E+01
  0
LINE
  8
0
 62
4
 10
9.36730578E+01
 20
-5.65913773E+01
 11
9.44730576E+01
 21
-5.57913775E+01
  0
LINE
  8
0
 62
4
 10
9.30691387E+01
 20
-5.75913777E+01
 11
9.30691387E+01
 21
-4.55913787E+01
  0
LINE
  8
0
 62
4
 10
8.90691425E+01
 20
-5.75913777E+01
 11
8.90691425E+01
 21
-4.55913787E+01
  0
LINE
  8
0
 62
4
 10
8.90691425E+01
 20
-5.65913777E+01
 11
8.64730579E+01
 21
-5.65913777E+01
  0
LINE
  8
0
 62
6
 10
8.90691425E+01
 20
-5.60913777E+01
 11
8.79730579E+01
 21
-5.60913777E+01
  0
LINE
  8
0
 62
6
 10
9.41730548E+01
 20
-5.60913777E+01
 11
9.30691387E+01
 21
-5.60913777E+01
  0
LINE
  8
0
 62
4
 10
9.36730574E+01
 20
-4.65913777E+01
 11
9.44730571E+01
 21
-4.73913775E+01
  0
LINE
  8
0
 62
6
 10
8.90691425E+01
 20
-4.70913796E+01
 11
8.79730579E+01
 21
-4.70913796E+01
  0
LINE
  8
0
 62
4
 10
8.90691425E+01
 20
-4.65913796E+01
 11
8.64730579E+01
 21
-4.65913796E+01
  0
LINE
  8
0
 62
6
 10
9.41730586E+01
 20
-4.70913796E+01
 11
9.30691387E+01
 21
-4.70913796E+01
  0
LINE
  8
0
 62
4
 10
9.36730586E+01
 20
-4.65913796E+01
 11
9.30691387E+01
 21
-4.65913796E+01
  0
LINE
  8
0
 62
4
 10
9.24691402E+01
 20
-5.96742828E+01
 11
8.96691410E+01
 21
-5.96742828E+01
  0
LINE
  8
0
 62
4
 10
9.24691364E+01
 20
-5.56328306E+01
 11
8.96691410E+01
 21
-5.56328306E+01
  0
LINE
  8
0
 62
4
 10
9.24691402E+01
 20
-4.75499272E+01
 11
8.96691410E+01
 21
-4.75499272E+01
  0
LINE
  8
0
 62
4
 10
9.24691402E+01
 20
-4.35084758E+01
 11
8.96691410E+01
 21
-4.35084758E+01
  0
LINE
  8
0
 62
4
 10
9.36730586E+01
 20
-5.65913777E+01
 11
9.30691387E+01
 21
-5.65913777E+01
  0
ARC
  8
0
 62
4
 10
8.93663608E+01
 20
-5.76535568E+01
 40
3.70277786E+00
 50
3.26925265E+02
 51
3.30747316E+01
  0
ARC
  8
0
 62
4
 10
7.91580268E+01
 20
-5.15913787E+01
 40
1.39111109E+01
 50
3.43110928E+02
 51
1.68890684E+01
  0
ARC
  8
0
 62
4
 10
8.93663608E+01
 20
-4.55292010E+01
 40
3.70277786E+00
 50
3.26925265E+02
 51
3.30747316E+01
  0
ARC
  8
0
 62
4
 10
9.27719203E+01
 20
-4.55292010E+01
 40
3.70277786E+00
 50
1.46925270E+02
 51
2.13074730E+02
  0
ARC
  8
0
 62
4
 10
9.27719203E+01
 20
-5.76535568E+01
 40
3.70277786E+00
 50
1.46925270E+02
 51
2.13074730E+02
  0
ARC
  8
0
 62
4
 10
1.02980252E+02
 20
-5.15913787E+01
 40
1.39111109E+01
 50
1.63110928E+02
 51
1.96889072E+02
  0
CIRCLE
  8
0
 62
4
 10
8.19730579E+01
 20
-5.15913787E+01
 40
2.10000000E+00
  0
LINE
  8
0
 62
4
 10
8.64730579E+01
 20
-4.55913787E+01
 11
8.64730579E+01
 21
-5.75913787E+01
  0
LINE
  8
0
  6
CENTER
 62
6
 10
8.19730579E+01
 20
-4.79813787E+01
 11
8.19730579E+01
 21
-5.51913787E+01
  0
LINE
  8
0
 62
4
 10
7.92030579E+01
 20
-4.55913787E+01
 11
7.92030579E+01
 21
-4.79813787E+01
  0
LINE
  8
0
 62
4
 10
8.47430579E+01
 20
-4.55913787E+01
 11
8.47430579E+01
 21
-4.79813787E+01
  0
LINE
  8
0
 62
4
 10
7.92030579E+01
 20
-4.79813787E+01
 11
8.47430579E+01
 21
-4.79813787E+01
  0
LINE
  8
0
 62
4
 10
7.92030579E+01
 20
-5.51913787E+01
 11
7.92030579E+01
 21
-5.75913787E+01
  0
LINE
  8
0
 62
4
 10
7.92030579E+01
 20
-5.51913787E+01
 11
8.47430579E+01
 21
-5.51913787E+01
  0
LINE
  8
0
 62
4
 10
8.47430579E+01
 20
-5.51913787E+01
 11
8.47430579E+01
 21
-5.75913787E+01
  0
CIRCLE
  8
0
 62
6
 10
8.19649500E+01
 20
-5.15830730E+01
 40
2.50000000E+00
  0
ARC
  8
0
 62
4
 10
8.20941345E+01
 20
-5.15863787E+01
 40
4.62107659E+00
 50
1.28728323E+02
 51
2.31271678E+02
  0
ARC
  8
0
 62
4
 10
8.18519813E+01
 20
-5.15863787E+01
 40
4.62107659E+00
 50
3.08728322E+02
 51
5.12716774E+01
  0
LINE
  8
0
  6
CENTER
 62
6
 10
1.06100451E+02
 20
-4.24366385E+01
 11
1.06100451E+02
 21
-6.09482266E+01
  0
LINE
  8
0
 62
4
 10
1.06100453E+02
 20
-5.96742814E+01
 11
1.13100450E+02
 21
-5.56328309E+01
  0
LINE
  8
0
 62
4
 10
9.91004468E+01
 20
-5.56328294E+01
 11
1.06100451E+02
 21
-5.96742837E+01
  0
CIRCLE
  8
0
 62
4
 10
1.06100451E+02
 20
-5.15913787E+01
 40
7.00000000E+00
  0
LINE
  8
0
 62
4
 10
1.06100447E+02
 20
-4.35084739E+01
 11
1.13100451E+02
 21
-4.75499282E+01
  0
LINE
  8
0
 62
4
 10
9.91004525E+01
 20
-4.75499259E+01
 11
1.06100450E+02
 21
-4.35084754E+01
  0
LINE
  8
0
 62
4
 10
9.91004514E+01
 20
-4.75499259E+01
 11
9.91004514E+01
 21
-5.56328294E+01
  0
LINE
  8
0
 62
4
 10
1.13100451E+02
 20
-4.75499286E+01
 11
1.13100451E+02
 21
-5.56328309E+01
  0
CIRCLE
  8
0
 62
6
 10
1.06100451E+02
 20
-5.15913787E+01
 40
4.40000010E+00
  0
CIRCLE
  8
0
 62
4
 10
1.06100451E+02
 20
-5.15913787E+01
 40
5.00000000E+00
  0
LINE
  8
0
  6
CENTER
 62
6
 10
9.81104514E+01
 20
-5.15913787E+01
 11
1.14100451E+02
 21
-5.15913787E+01
  0
TEXT
  8
0
 10
3.82985835E+00
 20
6.66138623E+01
 40
3.20000005E+00
  1
STRETCH LINE
 41
1.05263158E+00
  7
MONOTXT
  0
LINE
  8
0
 62
6
 10
5.86158889E+01
 20
-1.90913787E+01
 11
6.49665555E+01
 21
-8.09137869E+00
  0
LINE
  8
0
 62
7
 10
6.49612222E+01
 20
-8.09137869E+00
 11
7.74612222E+01
 21
-8.09137869E+00
  0
LINE
  8
0
 62
7
 10
5.86112222E+01
 20
-1.90913787E+01
 11
7.74612222E+01
 21
-1.90913787E+01
  0
LINE
  8
0
 62
6
 10
5.86151181E+01
 20
-5.70913787E+01
 11
6.49657848E+01
 21
-4.60913787E+01
  0
LINE
  8
0
 62
7
 10
6.49704514E+01
 20
-4.60913787E+01
 11
7.74704514E+01
 21
-4.60913787E+01
  0
LINE
  8
0
 62
7
 10
5.86204514E+01
 20
-5.70913787E+01
 11
7.74704514E+01
 21
-5.70913787E+01
  0
TEXT
  8
0
 62
7
 10
-1.03849994E+02
 20
-8.24000031E+01
 40
3.20000005E+00
  1
5
 41
1.00000000E+00
  7
MONOTXT
  0
TEXT
  8
0
 62
7
 10
-1.07049994E+02
 20
-8.84000031E+01
 40
3.20000005E+00
  1
-25
 41
1.00000000E+00
  7
MONOTXT
  0
TEXT
  8
0
 62
7
 10
-9.58499939E+01
 20
-8.24000031E+01
 40
3.20000005E+00
  1
10
 41
1.00000000E+00
  7
MONOTXT
  0
TEXT
  8
0
 62
7
 10
-9.74499940E+01
 20
-8.84000031E+01
 40
3.20000005E+00
  1
-20
 41
1.00000000E+00
  7
MONOTXT
  0
TEXT
  8
0
 62
7
 10
-8.62499939E+01
 20
-8.24000031E+01
 40
3.20000005E+00
  1
15
 41
1.00000000E+00
  7
MONOTXT
  0
TEXT
  8
0
 62
7
 10
-8.78499940E+01
 20
-8.84000031E+01
 40
3.20000005E+00
  1
-15
 41
1.00000000E+00
  7
MONOTXT
  0
TEXT
  8
0
 62
7
 10
-7.50499939E+01
 20
-8.84000031E+01
 40
3.20000005E+00
  1
0
 41
1.00000000E+00
  7
MONOTXT
  0
TEXT
  8
0
 62
7
 10
-6.70499939E+01
 20
-8.84000031E+01
 40
3.20000005E+00
  1
15
 41
1.00000000E+00
  7
MONOTXT
  0
TEXT
  8
0
 62
7
 10
-5.74499939E+01
 20
-8.84000031E+01
 40
3.20000005E+00
  1
30
 41
1.00000000E+00
  7
MONOTXT
  0
TEXT
  8
0
 62
7
 10
-1.09833072E+02
 20
-7.56559887E+01
 40
3.20000005E+00
  1
STRETCH LIST
 41
1.05263158E+00
  7
MONOTXT
  0
TEXT
  8
0
 62
7
 10
-6.09219613E+01
 20
-7.56559887E+01
 40
3.20000005E+00
  1
(mm)
 41
1.00000000E+00
  7
MONOTXT
  0
TEXT
  8
0
 62
7
 10
-1.31249994E+02
 20
-8.84000031E+01
 40
3.20000005E+00
  1
STRETCH
 41
1.00000000E+00
  7
MONOTXT
  0
TEXT
  8
0
 62
7
 10
-1.29649994E+02
 20
-8.24000031E+01
 40
3.20000005E+00
  1
STROKE
 41
1.00000000E+00
  7
MONOTXT
  0
TEXT
  8
0
 62
7
 10
-5.74499939E+01
 20
-8.24000031E+01
 40
3.20000005E+00
  1
60
 41
1.00000000E+00
  7
MONOTXT
  0
LINE
  8
0
 62
7
 10
-4.97999939E+01
 20
-8.98000031E+01
 11
-4.97999939E+01
 21
-7.78000031E+01
  0
TEXT
  8
0
 62
7
 10
-6.70499939E+01
 20
-8.24000031E+01
 40
3.20000005E+00
  1
45
 41
1.00000000E+00
  7
MONOTXT
  0
LINE
  8
0
 62
7
 10
-5.93999939E+01
 20
-8.98000031E+01
 11
-5.93999939E+01
 21
-7.78000031E+01
  0
TEXT
  8
0
 62
7
 10
-7.66499939E+01
 20
-8.24000031E+01
 40
3.20000005E+00
  1
30
 41
1.00000000E+00
  7
MONOTXT
  0
LINE
  8
0
 62
7
 10
-6.89999939E+01
 20
-8.98000031E+01
 11
-6.89999939E+01
 21
-7.78000031E+01
  0
TEXT
  8
0
 62
7
 10
-8.62499939E+01
 20
-8.24000031E+01
 40
3.20000005E+00
  1
15
 41
1.00000000E+00
  7
MONOTXT
  0
LINE
  8
0
 62
7
 10
-7.85999939E+01
 20
-8.98000031E+01
 11
-7.85999939E+01
 21
-7.78000031E+01
  0
TEXT
  8
0
 62
7
 10
-9.58499939E+01
 20
-8.24000031E+01
 40
3.20000005E+00
  1
10
 41
1.00000000E+00
  7
MONOTXT
  0
LINE
  8
0
 62
7
 10
-8.81999939E+01
 20
-8.98000031E+01
 11
-8.81999939E+01
 21
-7.78000031E+01
  0
TEXT
  8
0
 62
7
 10
-1.03849994E+02
 20
-8.24000031E+01
 40
3.20000005E+00
  1
5
 41
1.00000000E+00
  7
MONOTXT
  0
LINE
  8
0
 62
7
 10
-1.33399994E+02
 20
-7.78000031E+01
 11
-4.97999939E+01
 21
-7.78000031E+01
  0
LINE
  8
0
 62
7
 10
-9.77999939E+01
 20
-8.98000031E+01
 11
-9.77999939E+01
 21
-7.78000031E+01
  0
LINE
  8
0
 62
7
 10
-1.07399994E+02
 20
-8.98000031E+01
 11
-1.07399994E+02
 21
-7.78000031E+01
  0
LINE
  8
0
 62
7
 10
-1.33399994E+02
 20
-8.38000031E+01
 11
-4.97999939E+01
 21
-8.38000031E+01
  0
LINE
  8
0
 62
7
 10
-1.33399994E+02
 20
-8.98000031E+01
 11
-1.33399994E+02
 21
-7.78000031E+01
  0
LINE
  8
0
 62
7
 10
-1.33399994E+02
 20
-8.98000031E+01
 11
-4.97999939E+01
 21
-8.98000031E+01
  0
LINE
  8
0
 62
7
 10
-1.38399994E+02
 20
9.45000000E+01
 11
1.38350006E+02
 21
9.45000000E+01
  0
LINE
  8
0
 62
7
 10
1.38350006E+02
 20
9.45000000E+01
 11
1.38350006E+02
 21
-9.48000031E+01
  0
LINE
  8
0
 62
7
 10
-1.38399994E+02
 20
-9.48000031E+01
 11
1.38350006E+02
 21
-9.48000031E+01
  0
LINE
  8
0
 62
7
 10
-1.38399994E+02
 20
9.45000000E+01
 11
-1.38399994E+02
 21
-9.48000031E+01
  0
LINE
  8
0
 62
7
 10
7.33500061E+01
 20
-8.48000031E+01
 11
1.38350006E+02
 21
-8.48000031E+01
  0
LINE
  8
0
 62
7
 10
-1.38399994E+02
 20
8.45000000E+01
 11
-7.33999939E+01
 21
8.45000000E+01
  0
LINE
  8
0
 62
7
 10
7.33500061E+01
 20
8.45000000E+01
 11
1.38350006E+02
 21
8.45000000E+01
  0
LINE
  8
0
 62
7
 10
7.33500061E+01
 20
-8.48000031E+01
 11
7.33500061E+01
 21
-9.48000031E+01
  0
LINE
  8
0
 62
7
 10
7.33500061E+01
 20
9.45000000E+01
 11
7.33500061E+01
 21
8.45000000E+01
  0
LINE
  8
0
 62
7
 10
-7.33999939E+01
 20
9.45000000E+01
 11
-7.33999939E+01
 21
8.45000000E+01
  0
TEXT
  8
0
 62
7
 10
7.72426624E+01
 20
-9.20500031E+01
 40
4.50000000E+00
  1
KOGANEI CORP.
 41
1.04838710E+00
  7
MONOTXT
  0
TEXT
  8
0
 62
7
 10
9.35071493E+01
 20
8.79000001E+01
 40
3.19999981E+00
  1
Ver. 1.0
 41
1.08108108E+00
  7
MONOTXT
  0
TEXT
  8
0
 62
7
 10
-1.31042850E+02
 20
8.79000001E+01
 40
3.19999981E+00
  1
NEW PEN CYLINDER
 41
1.08108108E+00
  7
MONOTXT
  0
TEXT
  8
0
 62
7
 10
-1.29085994E+02
 20
7.29000000E+01
 40
3.20000005E+00
  1
MODEL:PBDALS10*ST(30)-ZC230
 41
1.00000000E+00
  7
MONOTXT
  0
ENDSEC
  0
EOF
