  0
SECTION
  2
HEADER
  9
$ACADVER
  1
AC1003
  9
$EXTMIN
 10
-1.38399994E+02
 20
-9.48000031E+01
  9
$EXTMAX
 10
1.38350006E+02
 20
9.45000000E+01
  9
$LIMMIN
 10
-1.38400994E+02
 20
-9.48010031E+01
  9
$LIMMAX
 10
1.38351006E+02
 20
9.45010000E+01
  9
$SNAPUNIT
 10
1
 20
1
  9
$SNAPBASE
 10
0
 20
0
  9
$GRIDMODE
 70
0
  9
$GRIDUNIT
 10
0
 20
0
  9
$LTSCALE
 40
4.61250000E+00
  9
$TEXTSIZE
 40
3.2
  9
$DIMTAD
 70
0
  9
$LUNITS
 70
2
  9
$LUPREC
 70
4
  9
$FILLETRAD
 40
0
  9
$AUNITS
 70
0
  9
$AUPREC
 70
0
  0
ENDSEC
  0
SECTION
  2
TABLES
  0
TABLE
  2
LTYPE
 70
2
  0
LTYPE
  2
CONTINUOUS
 70
64
  3
Solid-Line
 72
65
 73
0
 40
0
  0
LTYPE
  2
DASHED
 70
64
  3
DASHED
 72
65
 73
2
 40
.75
 49
.5
 49
-.25
  0
LTYPE
  2
HIDDEN
 70
64
  3
HIDDEN
 72
65
 73
2
 40
.375
 49
.25
 49
-.125
  0
LTYPE
  2
CENTER
 70
64
  3
CENTER
 72
65
 73
4
 40
2
 49
1.25
 49
-.25
 49
.25
 49
-.25
  0
LTYPE
  2
PHANTOM
 70
64
  3
PHANTOM
 72
65
 73
6
 40
2.5
 49
1.25
 49
-.25
 49
.25
 49
-.25
 49
.25
 49
-.25
  0
ENDTAB
  0
TABLE
  2
LAYER
 70
1
  0
LAYER
  2
1
 70
0
 62
7
  6
CONTINUOUS
 0
ENDTAB
  0
TABLE
  2
STYLE
 70
2
  0
STYLE
  2
MONOTXT
 70
0
 40
0
 41
1
 50
0
 71
0
 42
.2
  3
monotxt
  0
STYLE
  2
BIGFONT
 70
0
 40
0
 41
1
 50
0
 71
0
 42
.2
  3
txt
  4
bigfont
  0
ENDTAB
  0
ENDSEC
  0
SECTION
  2
ENTITIES
  0
LINE
  8
0
  6
CENTER
 62
6
 10
-1.42989687E+01
 20
4.88552331E+01
 11
-1.42989687E+01
 21
2.14252331E+01
  0
LINE
  8
0
 62
4
 10
-9.79896875E+00
 20
3.73452331E+01
 11
-9.79896875E+00
 21
4.38452331E+01
  0
LINE
  8
0
 62
4
 10
-1.87989687E+01
 20
3.73452331E+01
 11
-1.87989687E+01
 21
4.38452331E+01
  0
LINE
  8
0
  6
CENTER
 62
6
 10
2.56910312E+01
 20
4.88552331E+01
 11
2.56910312E+01
 21
2.14252331E+01
  0
LINE
  8
0
 62
4
 10
3.01910312E+01
 20
3.73452331E+01
 11
3.01910312E+01
 21
4.38452331E+01
  0
LINE
  8
0
 62
4
 10
2.11910312E+01
 20
3.73452331E+01
 11
2.11910312E+01
 21
4.38452331E+01
  0
LINE
  8
0
  6
PHANTOM
 10
8.79798617E+00
 20
1.39497047E+01
 11
8.79798617E+00
 21
4.81941092E+01
  0
TEXT
  8
0
 62
7
 10
-7.63490625E+00
 20
2.44452331E+01
 40
1.50000000E+00
  1
PBDAES10
 41
1.00000000E+00
  7
MONOTXT
  0
ARC
  8
0
 62
7
 10
-3.71801499E+01
 20
2.88452331E+01
 40
4.62356726E+00
 50
1.82596937E+02
 51
2.31332268E+02
  0
LINE
  8
0
 62
7
 10
-9.79896875E+00
 20
2.33452331E+01
 11
2.11910312E+01
 21
2.33452331E+01
  0
LINE
  8
0
 62
7
 10
-7.29896875E+00
 20
3.43452331E+01
 11
1.86910312E+01
 21
3.43452331E+01
  0
LINE
  8
0
 62
7
 10
3.01910312E+01
 20
2.33452331E+01
 11
3.51910313E+01
 21
2.33452331E+01
  0
LINE
  8
0
 62
7
 10
3.26910312E+01
 20
3.43452331E+01
 11
3.51910313E+01
 21
3.43452331E+01
  0
LINE
  8
0
 62
4
 10
3.26910312E+01
 20
3.91452331E+01
 11
3.81910312E+01
 21
3.91452331E+01
  0
LINE
  8
0
 62
4
 10
3.26910312E+01
 20
3.51452331E+01
 11
3.81910312E+01
 21
3.51452331E+01
  0
LINE
  8
0
 62
4
 10
1.86910312E+01
 20
3.69452331E+01
 11
1.86910312E+01
 21
3.38452331E+01
  0
LINE
  8
0
 62
4
 10
3.26910312E+01
 20
3.69452331E+01
 11
3.26910312E+01
 21
3.38452331E+01
  0
LINE
  8
0
 62
4
 10
2.11910312E+01
 20
3.73452331E+01
 11
3.01910312E+01
 21
3.73452331E+01
  0
LINE
  8
0
 62
4
 10
3.01910312E+01
 20
3.69452331E+01
 11
3.26910312E+01
 21
3.69452331E+01
  0
LINE
  8
0
 62
4
 10
3.01910312E+01
 20
4.01452331E+01
 11
3.26910312E+01
 21
4.01452331E+01
  0
LINE
  8
0
 62
4
 10
1.86910312E+01
 20
4.01452331E+01
 11
2.11910312E+01
 21
4.01452331E+01
  0
LINE
  8
0
 62
4
 10
1.86910312E+01
 20
3.73452331E+01
 11
2.11910312E+01
 21
3.73452331E+01
  0
LINE
  8
0
 62
4
 10
1.86910312E+01
 20
3.69452331E+01
 11
2.11910312E+01
 21
3.69452331E+01
  0
LINE
  8
0
 62
4
 10
2.11910312E+01
 20
2.31991804E+01
 11
3.01910312E+01
 21
2.31991804E+01
  0
LINE
  8
0
 62
4
 10
1.86910312E+01
 20
3.91452331E+01
 11
1.41910312E+01
 21
3.91452331E+01
  0
LINE
  8
0
 62
4
 10
3.01910312E+01
 20
3.73452331E+01
 11
3.01910312E+01
 21
2.31952331E+01
  0
LINE
  8
0
 62
4
 10
2.11910312E+01
 20
3.73452331E+01
 11
2.11910312E+01
 21
2.31952331E+01
  0
LINE
  8
0
 62
4
 10
3.01910312E+01
 20
3.73452331E+01
 11
3.26910312E+01
 21
3.73452331E+01
  0
LINE
  8
0
 62
4
 10
2.11910312E+01
 20
2.31952331E+01
 11
3.01910312E+01
 21
2.31952331E+01
  0
LINE
  8
0
 62
4
 10
1.31910312E+01
 20
3.81452331E+01
 11
1.31910312E+01
 21
3.61452331E+01
  0
LINE
  8
0
 62
4
 10
1.41910312E+01
 20
3.51452331E+01
 11
1.86910312E+01
 21
3.51452331E+01
  0
LINE
  8
0
 62
4
 10
1.41910312E+01
 20
3.91452331E+01
 11
1.41910312E+01
 21
3.51452331E+01
  0
LINE
  8
0
 62
4
 10
1.31910312E+01
 20
3.81452331E+01
 11
1.41910312E+01
 21
3.91452331E+01
  0
LINE
  8
0
 62
4
 10
1.31910312E+01
 20
3.61452331E+01
 11
1.41910312E+01
 21
3.51452331E+01
  0
LINE
  8
0
 62
4
 10
3.26910312E+01
 20
4.01452331E+01
 11
3.26910312E+01
 21
3.73452331E+01
  0
LINE
  8
0
 62
4
 10
1.86910312E+01
 20
4.01452331E+01
 11
1.86910312E+01
 21
3.73452331E+01
  0
LINE
  8
0
 62
4
 10
1.86910312E+01
 20
3.38452331E+01
 11
2.11910312E+01
 21
3.38452331E+01
  0
LINE
  8
0
 62
4
 10
3.01910312E+01
 20
3.38452331E+01
 11
3.26910312E+01
 21
3.38452331E+01
  0
LINE
  8
0
 62
4
 10
4.11910312E+01
 20
3.84452331E+01
 11
4.61280303E+01
 21
3.84452331E+01
  0
LINE
  8
0
 62
4
 10
4.11910312E+01
 20
3.58452331E+01
 11
4.35280303E+01
 21
3.58452331E+01
  0
LINE
  8
0
 62
4
 10
3.81910312E+01
 20
3.51452331E+01
 11
4.11910312E+01
 21
3.58452331E+01
  0
LINE
  8
0
 62
4
 10
3.81910312E+01
 20
3.91452331E+01
 11
4.11910312E+01
 21
3.84452331E+01
  0
LINE
  8
0
 62
4
 10
3.81910312E+01
 20
3.91452331E+01
 11
3.81910312E+01
 21
3.51452331E+01
  0
LINE
  8
0
 62
4
 10
4.11910312E+01
 20
3.84452331E+01
 11
4.11910312E+01
 21
3.58452331E+01
  0
LINE
  8
0
 62
6
 10
4.61280303E+01
 20
3.84452331E+01
 11
4.35280303E+01
 21
3.58452331E+01
  0
LINE
  8
0
 62
4
 10
-7.29896875E+00
 20
3.91452331E+01
 11
-1.79896875E+00
 21
3.91452331E+01
  0
LINE
  8
0
 62
4
 10
-7.29896875E+00
 20
3.51452331E+01
 11
-1.79896875E+00
 21
3.51452331E+01
  0
LINE
  8
0
 62
4
 10
-2.12989687E+01
 20
3.69452331E+01
 11
-2.12989687E+01
 21
3.38452331E+01
  0
LINE
  8
0
 62
4
 10
-7.29896875E+00
 20
3.69452331E+01
 11
-7.29896875E+00
 21
3.38452331E+01
  0
LINE
  8
0
 62
4
 10
-1.87989687E+01
 20
3.73452331E+01
 11
-9.79896875E+00
 21
3.73452331E+01
  0
LINE
  8
0
 62
4
 10
-9.79896875E+00
 20
3.69452331E+01
 11
-7.29896875E+00
 21
3.69452331E+01
  0
LINE
  8
0
 62
4
 10
-9.79896875E+00
 20
4.01452331E+01
 11
-7.29896875E+00
 21
4.01452331E+01
  0
LINE
  8
0
 62
4
 10
-2.12989688E+01
 20
4.01452331E+01
 11
-1.87989687E+01
 21
4.01452331E+01
  0
LINE
  8
0
 62
4
 10
-2.12989688E+01
 20
3.73452331E+01
 11
-1.87989687E+01
 21
3.73452331E+01
  0
LINE
  8
0
 62
4
 10
-2.12989688E+01
 20
3.69452331E+01
 11
-1.87989687E+01
 21
3.69452331E+01
  0
LINE
  8
0
 62
4
 10
-1.87989688E+01
 20
2.31991804E+01
 11
-9.79896875E+00
 21
2.31991804E+01
  0
LINE
  8
0
 62
4
 10
-2.12989687E+01
 20
3.91452331E+01
 11
-2.57989687E+01
 21
3.91452331E+01
  0
LINE
  8
0
 62
4
 10
-9.79896875E+00
 20
3.73452331E+01
 11
-9.79896875E+00
 21
2.31952331E+01
  0
LINE
  8
0
 62
4
 10
-1.87989687E+01
 20
3.73452331E+01
 11
-1.87989687E+01
 21
2.31952331E+01
  0
LINE
  8
0
 62
4
 10
-9.79896875E+00
 20
3.73452331E+01
 11
-7.29896875E+00
 21
3.73452331E+01
  0
LINE
  8
0
 62
4
 10
-1.87989687E+01
 20
2.31952331E+01
 11
-9.79896875E+00
 21
2.31952331E+01
  0
LINE
  8
0
 62
4
 10
-2.67989687E+01
 20
3.81452331E+01
 11
-2.67989687E+01
 21
3.61452331E+01
  0
LINE
  8
0
 62
4
 10
-2.57989687E+01
 20
3.51452331E+01
 11
-2.12989687E+01
 21
3.51452331E+01
  0
LINE
  8
0
 62
4
 10
-2.57989687E+01
 20
3.91452331E+01
 11
-2.57989687E+01
 21
3.51452331E+01
  0
LINE
  8
0
 62
4
 10
-2.67989687E+01
 20
3.81452331E+01
 11
-2.57989687E+01
 21
3.91452331E+01
  0
LINE
  8
0
 62
4
 10
-2.67989687E+01
 20
3.61452331E+01
 11
-2.57989687E+01
 21
3.51452331E+01
  0
LINE
  8
0
 62
4
 10
-7.29896875E+00
 20
4.01452331E+01
 11
-7.29896875E+00
 21
3.73452331E+01
  0
LINE
  8
0
 62
4
 10
-2.12989687E+01
 20
4.01452331E+01
 11
-2.12989687E+01
 21
3.73452331E+01
  0
LINE
  8
0
 62
4
 10
-2.12989687E+01
 20
3.38452331E+01
 11
-1.87989687E+01
 21
3.38452331E+01
  0
LINE
  8
0
 62
4
 10
-9.79896875E+00
 20
3.38452331E+01
 11
-7.29896875E+00
 21
3.38452331E+01
  0
LINE
  8
0
 62
4
 10
1.20103125E+00
 20
3.84452331E+01
 11
6.13803033E+00
 21
3.84452331E+01
  0
LINE
  8
0
 62
4
 10
1.20103125E+00
 20
3.58452331E+01
 11
3.53803033E+00
 21
3.58452331E+01
  0
LINE
  8
0
 62
4
 10
-1.79896875E+00
 20
3.51452331E+01
 11
1.20103125E+00
 21
3.58452331E+01
  0
LINE
  8
0
 62
4
 10
-1.79896875E+00
 20
3.91452331E+01
 11
1.20103125E+00
 21
3.84452331E+01
  0
LINE
  8
0
 62
4
 10
-1.79896875E+00
 20
3.91452331E+01
 11
-1.79896875E+00
 21
3.51452331E+01
  0
LINE
  8
0
 62
4
 10
1.20103125E+00
 20
3.84452331E+01
 11
1.20103125E+00
 21
3.58452331E+01
  0
LINE
  8
0
 62
6
 10
6.13803033E+00
 20
3.84452331E+01
 11
3.53803033E+00
 21
3.58452331E+01
  0
LINE
  8
0
 62
2
 10
5.24910313E+01
 20
3.09122331E+01
 11
6.68240313E+01
 21
3.09122331E+01
  0
LINE
  8
0
 62
2
 10
5.24910313E+01
 20
2.67782331E+01
 11
6.68240313E+01
 21
2.67782331E+01
  0
LINE
  8
0
  6
CENTER
 62
2
 10
3.96910313E+01
 20
3.24552331E+01
 11
3.96910313E+01
 21
2.52352331E+01
  0
CIRCLE
  8
0
 62
7
 10
3.96910313E+01
 20
2.88452331E+01
 40
2.06700000E+00
  0
CIRCLE
  8
0
 62
2
 10
3.96876255E+01
 20
2.88402333E+01
 40
2.50000000E+00
  0
ARC
  8
0
 62
4
 10
-4.69654503E+01
 20
2.36602331E+01
 40
3.07310324E+00
 50
3.25627155E+02
 51
3.43728456E+01
  0
ARC
  8
0
 62
4
 10
-5.53625552E+01
 20
2.88502331E+01
 40
1.14664876E+01
 50
3.42463527E+02
 51
1.75364728E+01
  0
ARC
  8
0
 62
4
 10
-4.69654503E+01
 20
3.40402331E+01
 40
3.07310324E+00
 50
3.25627155E+02
 51
3.43728456E+01
  0
ARC
  8
0
 62
4
 10
-4.48314679E+01
 20
2.36602331E+01
 40
3.06569493E+00
 50
1.45532394E+02
 51
2.14467606E+02
  0
ARC
  8
0
 62
4
 10
-3.64343478E+01
 20
2.88502331E+01
 40
1.14579391E+01
 50
1.62450019E+02
 51
1.97549981E+02
  0
ARC
  8
0
 62
4
 10
-4.48314679E+01
 20
3.40402331E+01
 40
3.06569493E+00
 50
1.45532394E+02
 51
2.14467606E+02
  0
ARC
  8
0
 62
4
 10
-6.35891115E+01
 20
2.58252331E+01
 40
1.56857978E+00
 50
3.19917156E+02
 51
4.00828446E+01
  0
ARC
  8
0
 62
4
 10
-6.36622898E+01
 20
2.58252331E+01
 40
1.55830260E+00
 50
1.39598403E+02
 51
2.20401597E+02
  0
ARC
  8
0
 62
4
 10
-6.35891115E+01
 20
3.18752331E+01
 40
1.56857978E+00
 50
3.19917156E+02
 51
4.00828446E+01
  0
ARC
  8
0
 62
4
 10
-6.77237917E+01
 20
2.88502331E+01
 40
5.70268020E+00
 50
3.39308098E+02
 51
2.06919019E+01
  0
ARC
  8
0
 62
4
 10
-5.95276095E+01
 20
2.88502331E+01
 40
5.69008693E+00
 50
1.59260195E+02
 51
2.00739805E+02
  0
ARC
  8
0
 62
4
 10
-6.36622898E+01
 20
3.18752331E+01
 40
1.55830260E+00
 50
1.39598403E+02
 51
2.20401597E+02
  0
LINE
  8
0
 62
4
 10
-4.38889687E+01
 20
2.28552331E+01
 11
-4.44289687E+01
 21
2.19252331E+01
  0
LINE
  8
0
 62
4
 10
-4.78889687E+01
 20
2.28552331E+01
 11
-4.73589687E+01
 21
2.19252331E+01
  0
LINE
  8
0
 62
4
 10
-4.38889687E+01
 20
3.48452331E+01
 11
-4.44289687E+01
 21
3.57752331E+01
  0
LINE
  8
0
 62
7
 10
-4.38889687E+01
 20
2.48552331E+01
 11
-4.17989687E+01
 21
2.48552331E+01
  0
LINE
  8
0
 62
4
 10
-4.78889687E+01
 20
3.48452331E+01
 11
-4.73589687E+01
 21
3.57752331E+01
  0
LINE
  8
0
 62
4
 10
-4.73589687E+01
 20
3.57752331E+01
 11
-4.44289687E+01
 21
3.57752331E+01
  0
LINE
  8
0
 62
4
 10
-4.73589687E+01
 20
2.19252331E+01
 11
-4.44289687E+01
 21
2.19252331E+01
  0
LINE
  8
0
 62
4
 10
-4.73589687E+01
 20
2.53952331E+01
 11
-4.44289687E+01
 21
2.53952331E+01
  0
LINE
  8
0
 62
4
 10
-4.73589687E+01
 20
3.23052331E+01
 11
-4.44289687E+01
 21
3.23052331E+01
  0
LINE
  8
0
 62
4
 10
-4.38889687E+01
 20
3.48452331E+01
 11
-4.38889687E+01
 21
2.28552331E+01
  0
LINE
  8
0
 62
4
 10
-4.78889687E+01
 20
3.48452331E+01
 11
-4.78889687E+01
 21
2.28552331E+01
  0
LINE
  8
0
 62
4
 10
-6.23889687E+01
 20
2.48152331E+01
 11
-6.20189687E+01
 21
2.54552331E+01
  0
LINE
  8
0
 62
4
 10
-6.52189687E+01
 20
2.54552331E+01
 11
-6.48489687E+01
 21
2.48152331E+01
  0
LINE
  8
0
 62
4
 10
-6.23889687E+01
 20
3.28852331E+01
 11
-6.20189687E+01
 21
3.22452331E+01
  0
LINE
  8
0
 62
4
 10
-6.52189687E+01
 20
3.22452331E+01
 11
-6.48489687E+01
 21
3.28852331E+01
  0
LINE
  8
0
 62
7
 10
-6.20189687E+01
 20
2.68552331E+01
 11
-4.97989687E+01
 21
2.68552331E+01
  0
LINE
  8
0
 62
7
 10
-6.20189687E+01
 20
3.08452331E+01
 11
-4.97989687E+01
 21
3.08452331E+01
  0
LINE
  8
0
 62
4
 10
-6.48489687E+01
 20
2.68352331E+01
 11
-6.23889687E+01
 21
2.68352331E+01
  0
LINE
  8
0
 62
4
 10
-6.48489687E+01
 20
3.08652331E+01
 11
-6.23889687E+01
 21
3.08652331E+01
  0
LINE
  8
0
 62
4
 10
-6.48489687E+01
 20
2.48152331E+01
 11
-6.23889687E+01
 21
2.48152331E+01
  0
LINE
  8
0
 62
4
 10
-6.48489687E+01
 20
3.28852331E+01
 11
-6.23889687E+01
 21
3.28852331E+01
  0
LINE
  8
0
 62
4
 10
-6.20189687E+01
 20
3.22452331E+01
 11
-6.20189687E+01
 21
2.54552331E+01
  0
LINE
  8
0
 62
4
 10
-6.52189687E+01
 20
3.22452331E+01
 11
-6.52189687E+01
 21
2.54552331E+01
  0
LINE
  8
0
 62
7
 10
-6.90989687E+01
 20
3.08452331E+01
 11
-6.90989687E+01
 21
2.68552331E+01
  0
LINE
  8
0
 62
7
 10
-6.97989687E+01
 20
2.75452331E+01
 11
-6.90989687E+01
 21
2.68552331E+01
  0
LINE
  8
0
 62
7
 10
-6.90989687E+01
 20
3.08452331E+01
 11
-6.97989687E+01
 21
3.01452331E+01
  0
LINE
  8
0
 62
7
 10
-6.90989687E+01
 20
2.68552331E+01
 11
-6.52189687E+01
 21
2.68552331E+01
  0
LINE
  8
0
 62
7
 10
-6.90989687E+01
 20
3.08452331E+01
 11
-6.52189687E+01
 21
3.08452331E+01
  0
LINE
  8
0
 62
7
 10
-5.47989687E+01
 20
3.08452331E+01
 11
-5.47989687E+01
 21
2.68552331E+01
  0
LINE
  8
0
 62
7
 10
-6.97989687E+01
 20
3.01452331E+01
 11
-6.97989687E+01
 21
2.75452331E+01
  0
LINE
  8
0
 62
7
 10
-4.32989687E+01
 20
3.28452331E+01
 11
-4.32989687E+01
 21
2.48552331E+01
  0
LINE
  8
0
 62
7
 10
-4.89989687E+01
 20
3.28452331E+01
 11
-4.89989687E+01
 21
2.48552331E+01
  0
LINE
  8
0
 62
7
 10
-4.97989687E+01
 20
2.56552331E+01
 11
-4.89989687E+01
 21
2.48552331E+01
  0
LINE
  8
0
 62
7
 10
-4.89989687E+01
 20
3.28452331E+01
 11
-4.97989687E+01
 21
3.20452331E+01
  0
LINE
  8
0
 62
7
 10
-4.89989687E+01
 20
2.48552331E+01
 11
-4.78889687E+01
 21
2.48552331E+01
  0
LINE
  8
0
 62
7
 10
-4.89989687E+01
 20
3.28452331E+01
 11
-4.78889687E+01
 21
3.28452331E+01
  0
LINE
  8
0
 62
7
 10
-4.97989687E+01
 20
3.20452331E+01
 11
-4.97989687E+01
 21
2.56552331E+01
  0
LINE
  8
0
 62
2
 10
-4.32989687E+01
 20
2.55317331E+01
 11
-4.38889687E+01
 21
2.55317331E+01
  0
LINE
  8
0
 62
2
 10
-4.32989687E+01
 20
3.21687331E+01
 11
-4.38889687E+01
 21
3.21687331E+01
  0
LINE
  8
0
 62
2
 10
-6.94779687E+01
 20
3.04662331E+01
 11
-6.52189687E+01
 21
3.04662331E+01
  0
LINE
  8
0
 62
2
 10
-6.94834615E+01
 20
2.72342331E+01
 11
-6.52189687E+01
 21
2.72342331E+01
  0
LINE
  8
0
 62
2
 10
-6.20189687E+01
 20
3.04662331E+01
 11
-5.47989687E+01
 21
3.04662331E+01
  0
LINE
  8
0
 62
2
 10
-6.20189687E+01
 20
2.72342331E+01
 11
-5.47989687E+01
 21
2.72342331E+01
  0
LINE
  8
0
 62
2
 10
-4.78889687E+01
 20
3.21687331E+01
 11
-4.96754687E+01
 21
3.21687331E+01
  0
LINE
  8
0
 62
2
 10
-4.78889687E+01
 20
2.55317331E+01
 11
-4.96754687E+01
 21
2.55317331E+01
  0
ARC
  8
0
 62
7
 10
-3.71801499E+01
 20
2.88452331E+01
 40
4.62356726E+00
 50
1.28667732E+02
 51
1.77403063E+02
  0
LINE
  8
0
 62
7
 10
-4.17989687E+01
 20
2.28452331E+01
 11
-2.87989687E+01
 21
2.28452331E+01
  0
LINE
  8
0
 62
7
 10
-4.17989687E+01
 20
3.48452331E+01
 11
-2.87989687E+01
 21
3.48452331E+01
  0
LINE
  8
0
 62
7
 10
-2.87989687E+01
 20
3.48452331E+01
 11
-2.87989687E+01
 21
2.28452331E+01
  0
LINE
  8
0
  6
CENTER
 62
2
 10
-3.32989687E+01
 20
3.24552331E+01
 11
-3.32989687E+01
 21
2.52352331E+01
  0
LINE
  8
0
 62
7
 10
-4.00689687E+01
 20
3.24552331E+01
 11
-3.05289687E+01
 21
3.24552331E+01
  0
LINE
  8
0
 62
7
 10
-4.00689687E+01
 20
2.52352331E+01
 11
-3.05289687E+01
 21
2.52352331E+01
  0
LINE
  8
0
 62
7
 10
-4.00689687E+01
 20
3.48452331E+01
 11
-4.00689687E+01
 21
3.24552331E+01
  0
LINE
  8
0
 62
7
 10
-3.05289687E+01
 20
3.48452331E+01
 11
-3.05289687E+01
 21
3.24552331E+01
  0
LINE
  8
0
 62
7
 10
-4.00689687E+01
 20
2.52352331E+01
 11
-4.00689687E+01
 21
2.28452331E+01
  0
LINE
  8
0
 62
7
 10
-3.05289687E+01
 20
2.52352331E+01
 11
-3.05289687E+01
 21
2.28452331E+01
  0
CIRCLE
  8
0
 62
2
 10
-3.33023745E+01
 20
2.88402333E+01
 40
2.50000000E+00
  0
ARC
  8
0
 62
7
 10
-3.34245991E+01
 20
2.88452331E+01
 40
4.62782618E+00
 50
3.08733576E+02
 51
5.12664237E+01
  0
LINE
  8
0
 62
7
 10
-4.17989687E+01
 20
3.48452331E+01
 11
-4.17989687E+01
 21
2.28452331E+01
  0
LINE
  8
0
 62
7
 10
-4.38889687E+01
 20
3.28452331E+01
 11
-4.17989687E+01
 21
3.28452331E+01
  0
CIRCLE
  8
0
 62
7
 10
-3.32989687E+01
 20
2.88452331E+01
 40
2.06700000E+00
  0
LINE
  8
0
 62
7
 10
-2.87989687E+01
 20
3.43452331E+01
 11
-2.12989687E+01
 21
3.43452331E+01
  0
LINE
  8
0
 62
7
 10
-2.87989687E+01
 20
2.33452331E+01
 11
-1.87989687E+01
 21
2.33452331E+01
  0
LINE
  8
0
  6
CENTER
 62
2
 10
-7.13379273E+01
 20
2.88452331E+01
 11
6.87238896E+01
 21
2.88452331E+01
  0
LINE
  8
0
 62
7
 10
3.51910313E+01
 20
3.48452331E+01
 11
3.51910313E+01
 21
2.28552331E+01
  0
LINE
  8
0
 62
7
 10
4.71910313E+01
 20
3.50952331E+01
 11
4.71910313E+01
 21
2.26052331E+01
  0
LINE
  8
0
 62
7
 10
4.84910313E+01
 20
3.50952331E+01
 11
4.84910313E+01
 21
2.26052331E+01
  0
LINE
  8
0
 62
4
 10
5.24910313E+01
 20
3.22252331E+01
 11
5.24910313E+01
 21
2.54752331E+01
  0
LINE
  8
0
 62
7
 10
6.71910313E+01
 20
3.05452331E+01
 11
6.71910313E+01
 21
2.71452331E+01
  0
LINE
  8
0
 62
7
 10
3.51910313E+01
 20
2.28552331E+01
 11
4.71910313E+01
 21
2.28552331E+01
  0
LINE
  8
0
 62
7
 10
4.71910313E+01
 20
2.26052331E+01
 11
4.84910313E+01
 21
2.26052331E+01
  0
LINE
  8
0
 62
7
 10
4.71910313E+01
 20
3.50952331E+01
 11
4.84910313E+01
 21
3.50952331E+01
  0
LINE
  8
0
 62
4
 10
4.89910313E+01
 20
3.33452331E+01
 11
5.19910313E+01
 21
3.33452331E+01
  0
LINE
  8
0
 62
4
 10
4.89910313E+01
 20
2.43552331E+01
 11
5.19910313E+01
 21
2.43552331E+01
  0
LINE
  8
0
 62
7
 10
5.24910313E+01
 20
2.63452331E+01
 11
6.63910313E+01
 21
2.63452331E+01
  0
LINE
  8
0
 62
7
 10
6.63910313E+01
 20
3.13452331E+01
 11
6.71910313E+01
 21
3.05452331E+01
  0
LINE
  8
0
 62
7
 10
6.63910313E+01
 20
2.63452331E+01
 11
6.71910313E+01
 21
2.71452331E+01
  0
LINE
  8
0
 62
7
 10
6.63910313E+01
 20
3.13452331E+01
 11
6.63910313E+01
 21
2.63452331E+01
  0
LINE
  8
0
 62
7
 10
5.24910313E+01
 20
3.13452331E+01
 11
6.63910313E+01
 21
3.13452331E+01
  0
LINE
  8
0
 62
4
 10
4.89910313E+01
 20
2.65952331E+01
 11
5.19910313E+01
 21
2.65952331E+01
  0
LINE
  8
0
 62
4
 10
4.89910313E+01
 20
3.10952331E+01
 11
5.19910313E+01
 21
3.10952331E+01
  0
LINE
  8
0
 62
7
 10
4.54610313E+01
 20
2.52352331E+01
 11
3.69210313E+01
 21
2.52352331E+01
  0
LINE
  8
0
 62
7
 10
3.69210313E+01
 20
2.52352331E+01
 11
3.69210313E+01
 21
2.28552331E+01
  0
LINE
  8
0
 62
7
 10
4.54610313E+01
 20
2.52352331E+01
 11
4.54610313E+01
 21
2.28552331E+01
  0
LINE
  8
0
 62
7
 10
3.51910313E+01
 20
3.48452331E+01
 11
4.71910313E+01
 21
3.48452331E+01
  0
LINE
  8
0
 62
7
 10
4.54610313E+01
 20
3.24552331E+01
 11
3.69210313E+01
 21
3.24552331E+01
  0
LINE
  8
0
 62
7
 10
3.69210313E+01
 20
3.24552331E+01
 11
3.69210313E+01
 21
3.48452331E+01
  0
LINE
  8
0
 62
7
 10
4.54610313E+01
 20
3.24552331E+01
 11
4.54610313E+01
 21
3.48452331E+01
  0
ARC
  8
0
 62
4
 10
5.00102935E+01
 20
3.22185981E+01
 40
1.51927678E+00
 50
1.32135523E+02
 51
1.79749778E+02
  0
ARC
  8
0
 62
4
 10
5.38087482E+01
 20
2.88440737E+01
 40
5.31771712E+00
 50
1.54954876E+02
 51
1.79987509E+02
  0
ARC
  8
0
 62
4
 10
5.00140077E+01
 20
3.22234970E+01
 40
1.52297746E+00
 50
1.79934687E+02
 51
2.27801973E+02
  0
ARC
  8
0
 62
4
 10
5.38108635E+01
 20
2.88468624E+01
 40
5.31983247E+00
 50
1.80017549E+02
 51
2.05040067E+02
  0
ARC
  8
0
 62
4
 10
5.00102935E+01
 20
2.54685981E+01
 40
1.51927678E+00
 50
1.32135523E+02
 51
1.79749778E+02
  0
ARC
  8
0
 62
4
 10
5.00102937E+01
 20
2.54818681E+01
 40
1.51927692E+00
 50
1.80250224E+02
 51
2.27864475E+02
  0
ARC
  8
0
 62
4
 10
5.09827589E+01
 20
3.22235043E+01
 40
1.50827331E+00
 50
6.56698957E-02
 51
4.80490290E+01
  0
ARC
  8
0
 62
4
 10
5.09790501E+01
 20
3.22186318E+01
 40
1.51199560E+00
 50
3.12013191E+02
 51
2.50149267E-01
  0
ARC
  8
0
 62
4
 10
4.71858613E+01
 20
2.88468620E+01
 40
5.30517017E+00
 50
3.59982408E+02
 51
2.50752076E+01
  0
ARC
  8
0
 62
4
 10
4.71837411E+01
 20
2.88440753E+01
 40
5.30729027E+00
 50
3.34929886E+02
 51
1.24986361E-02
  0
ARC
  8
0
 62
4
 10
5.09827589E+01
 20
2.54735043E+01
 40
1.50827331E+00
 50
6.56698957E-02
 51
4.80490290E+01
  0
ARC
  8
0
 62
4
 10
5.09827588E+01
 20
2.54769618E+01
 40
1.50827346E+00
 50
3.11950973E+02
 51
3.59934328E+02
  0
ARC
  8
0
 62
7
 10
4.25743736E+01
 20
2.88523473E+01
 40
4.61666309E+00
 50
3.08701955E+02
 51
5.12980453E+01
  0
ARC
  8
0
 62
7
 10
3.98184023E+01
 20
2.88472131E+01
 40
4.62737146E+00
 50
1.28765729E+02
 51
2.31234270E+02
  0
LINE
  8
0
 62
6
 10
2.44610312E+01
 20
4.48452331E+01
 11
2.44610312E+01
 21
4.38452331E+01
  0
LINE
  8
0
 62
6
 10
2.69210312E+01
 20
4.48452331E+01
 11
2.69210312E+01
 21
4.38452331E+01
  0
LINE
  8
0
 62
4
 10
2.41910312E+01
 20
4.48452331E+01
 11
2.41910312E+01
 21
4.38452331E+01
  0
LINE
  8
0
 62
4
 10
2.71910312E+01
 20
4.48452331E+01
 11
2.71910312E+01
 21
4.38452331E+01
  0
LINE
  8
0
 62
4
 10
2.11910312E+01
 20
4.38452331E+01
 11
3.01910312E+01
 21
4.38452331E+01
  0
LINE
  8
0
 62
4
 10
2.31910312E+01
 20
4.48452331E+01
 11
2.81910312E+01
 21
4.48452331E+01
  0
LINE
  8
0
 62
4
 10
2.41910312E+01
 20
4.63452331E+01
 11
2.71910312E+01
 21
4.63452331E+01
  0
LINE
  8
0
 62
4
 10
2.81910312E+01
 20
4.53452331E+01
 11
2.81910312E+01
 21
4.48452331E+01
  0
LINE
  8
0
 62
4
 10
2.31910312E+01
 20
4.53452331E+01
 11
2.31910312E+01
 21
4.48452331E+01
  0
ARC
  8
0
 62
4
 10
2.41918227E+01
 20
4.53444416E+01
 40
1.00079180E+00
 50
9.00000002E+01
 51
1.79954687E+02
  0
ARC
  8
0
 62
4
 10
2.71893656E+01
 20
4.53435674E+01
 40
1.00166704E+00
 50
9.52762946E-02
 51
8.99047236E+01
  0
LINE
  8
0
 62
6
 10
-1.55289687E+01
 20
4.48452331E+01
 11
-1.55289687E+01
 21
4.38452331E+01
  0
LINE
  8
0
 62
6
 10
-1.30689687E+01
 20
4.48452331E+01
 11
-1.30689687E+01
 21
4.38452331E+01
  0
LINE
  8
0
 62
4
 10
-1.57989687E+01
 20
4.48452331E+01
 11
-1.57989687E+01
 21
4.38452331E+01
  0
LINE
  8
0
 62
4
 10
-1.27989687E+01
 20
4.48452331E+01
 11
-1.27989687E+01
 21
4.38452331E+01
  0
LINE
  8
0
 62
4
 10
-1.87989687E+01
 20
4.38452331E+01
 11
-9.79896875E+00
 21
4.38452331E+01
  0
LINE
  8
0
 62
4
 10
-1.67989687E+01
 20
4.48452331E+01
 11
-1.17989687E+01
 21
4.48452331E+01
  0
LINE
  8
0
 62
4
 10
-1.57989687E+01
 20
4.63452331E+01
 11
-1.27989687E+01
 21
4.63452331E+01
  0
LINE
  8
0
 62
4
 10
-1.17989687E+01
 20
4.53452331E+01
 11
-1.17989687E+01
 21
4.48452331E+01
  0
LINE
  8
0
 62
4
 10
-1.67989687E+01
 20
4.53452331E+01
 11
-1.67989687E+01
 21
4.48452331E+01
  0
ARC
  8
0
 62
4
 10
-1.57981773E+01
 20
4.53444416E+01
 40
1.00079180E+00
 50
9.00000002E+01
 51
1.79954687E+02
  0
ARC
  8
0
 62
4
 10
-1.28006344E+01
 20
4.53435674E+01
 40
1.00166704E+00
 50
9.52762946E-02
 51
8.99047236E+01
  0
LINE
  8
0
 62
4
 10
-9.57589687E+01
 20
3.61452331E+01
 11
-9.67589687E+01
 21
3.51452331E+01
  0
LINE
  8
0
 62
4
 10
-9.36589687E+01
 20
3.61452331E+01
 11
-9.26589687E+01
 21
3.51452331E+01
  0
LINE
  8
0
 62
4
 10
-9.26589687E+01
 20
3.91452331E+01
 11
-9.36589687E+01
 21
3.81452331E+01
  0
LINE
  8
0
 62
4
 10
-9.67589687E+01
 20
3.91452331E+01
 11
-9.57589687E+01
 21
3.81452331E+01
  0
LINE
  8
0
 62
4
 10
-9.36589687E+01
 20
3.61452331E+01
 11
-9.57589687E+01
 21
3.61452331E+01
  0
LINE
  8
0
 62
4
 10
-9.57589687E+01
 20
3.81452331E+01
 11
-9.57589687E+01
 21
3.61452331E+01
  0
LINE
  8
0
 62
4
 10
-9.36589687E+01
 20
3.81452331E+01
 11
-9.57589687E+01
 21
3.81452331E+01
  0
LINE
  8
0
 62
4
 10
-9.36589687E+01
 20
3.81452331E+01
 11
-9.36589687E+01
 21
3.61452331E+01
  0
LINE
  8
0
 62
4
 10
-9.57983059E+01
 20
3.51452331E+01
 11
-9.67589687E+01
 21
3.51452331E+01
  0
LINE
  8
0
 62
4
 10
-9.32089687E+01
 20
4.11452331E+01
 11
-9.35089687E+01
 21
4.08452331E+01
  0
LINE
  8
0
 62
4
 10
-9.62089687E+01
 20
4.11452331E+01
 11
-9.59089687E+01
 21
4.08452331E+01
  0
LINE
  8
0
 62
4
 10
-9.90585159E+01
 20
4.24791875E+01
 11
-9.95561637E+01
 21
4.25276296E+01
  0
LINE
  8
0
 62
4
 10
-9.95561637E+01
 20
4.25276296E+01
 11
-1.00505642E+02
 21
3.27736003E+01
  0
LINE
  8
0
 62
4
 10
-9.95389687E+01
 20
3.59952331E+01
 11
-9.96882631E+01
 21
3.60097657E+01
  0
LINE
  8
0
 62
4
 10
-9.90585159E+01
 20
4.24791875E+01
 11
-9.99316008E+01
 21
3.35099468E+01
  0
LINE
  8
0
 62
4
 10
-9.95389687E+01
 20
3.59952331E+01
 11
-9.97631759E+01
 21
3.36919426E+01
  0
LINE
  8
0
 62
4
 10
-9.12089687E+01
 20
3.73452331E+01
 11
-9.03724805E+01
 21
3.43382403E+01
  0
LINE
  8
0
 62
4
 10
-9.13589687E+01
 20
3.73452331E+01
 11
-9.05655922E+01
 21
3.44848845E+01
  0
LINE
  8
0
 62
4
 10
-9.79589687E+01
 20
4.08452331E+01
 11
-9.79589687E+01
 21
3.48452331E+01
  0
LINE
  8
0
 62
4
 10
-9.14589687E+01
 20
4.08452331E+01
 11
-9.14589687E+01
 21
3.73452331E+01
  0
LINE
  8
0
 62
4
 10
-9.14589687E+01
 20
4.08452331E+01
 11
-9.79589687E+01
 21
4.08452331E+01
  0
LINE
  8
0
 62
4
 10
-9.26589687E+01
 20
3.51452331E+01
 11
-9.36196316E+01
 21
3.51452331E+01
  0
LINE
  8
0
 62
4
 10
-9.67589687E+01
 20
3.91452331E+01
 11
-9.67589687E+01
 21
3.51452331E+01
  0
LINE
  8
0
 62
4
 10
-9.26589687E+01
 20
3.91452331E+01
 11
-9.67589687E+01
 21
3.91452331E+01
  0
LINE
  8
0
 62
4
 10
-9.37089687E+01
 20
3.94452331E+01
 11
-9.37089687E+01
 21
3.91452331E+01
  0
LINE
  8
0
 62
4
 10
-9.57089687E+01
 20
3.94452331E+01
 11
-9.57089687E+01
 21
3.91452331E+01
  0
LINE
  8
0
 62
4
 10
-9.37089687E+01
 20
3.94452331E+01
 11
-9.57089687E+01
 21
3.94452331E+01
  0
LINE
  8
0
 62
4
 10
-9.14589687E+01
 20
4.01452331E+01
 11
-9.79589687E+01
 21
4.01452331E+01
  0
LINE
  8
0
 62
4
 10
-9.14589687E+01
 20
3.69452331E+01
 11
-9.26589687E+01
 21
3.69452331E+01
  0
LINE
  8
0
 62
4
 10
-9.14589687E+01
 20
3.73452331E+01
 11
-9.26589687E+01
 21
3.73452331E+01
  0
LINE
  8
0
 62
4
 10
-9.14589687E+01
 20
3.69452331E+01
 11
-9.14589687E+01
 21
3.48452331E+01
  0
LINE
  8
0
 62
4
 10
-9.26589687E+01
 20
3.91452331E+01
 11
-9.26589687E+01
 21
3.51452331E+01
  0
LINE
  8
0
 62
4
 10
-9.82089687E+01
 20
4.25452331E+01
 11
-9.82089687E+01
 21
3.66452331E+01
  0
LINE
  8
0
 62
4
 10
-9.12089687E+01
 20
4.25452331E+01
 11
-9.12089687E+01
 21
3.73452331E+01
  0
LINE
  8
0
 62
4
 10
-9.22089687E+01
 20
4.48452331E+01
 11
-9.72089687E+01
 21
4.48452331E+01
  0
LINE
  8
0
 62
4
 10
-9.12089687E+01
 20
4.38452331E+01
 11
-9.82089687E+01
 21
4.38452331E+01
  0
LINE
  8
0
 62
4
 10
-9.27089687E+01
 20
4.23452331E+01
 11
-9.67089687E+01
 21
4.23452331E+01
  0
LINE
  8
0
 62
4
 10
-9.17089687E+01
 20
4.30452331E+01
 11
-9.77089687E+01
 21
4.30452331E+01
  0
LINE
  8
0
 62
4
 10
-9.90089687E+01
 20
4.30452331E+01
 11
-9.90089687E+01
 21
3.66452331E+01
  0
LINE
  8
0
 62
4
 10
-9.04089687E+01
 20
4.30452331E+01
 11
-9.04089687E+01
 21
3.73452331E+01
  0
LINE
  8
0
 62
4
 10
-9.67689687E+01
 20
4.30452331E+01
 11
-9.67089687E+01
 21
4.23452331E+01
  0
LINE
  8
0
 62
4
 10
-9.26489687E+01
 20
4.30452331E+01
 11
-9.27089687E+01
 21
4.23452331E+01
  0
LINE
  8
0
 62
4
 10
-9.04089687E+01
 20
3.73452331E+01
 11
-9.12089687E+01
 21
3.73452331E+01
  0
LINE
  8
0
 62
4
 10
-9.82089687E+01
 20
3.66452331E+01
 11
-9.90089687E+01
 21
3.66452331E+01
  0
LINE
  8
0
 62
4
 10
-9.90089687E+01
 20
3.88452331E+01
 11
-9.93905835E+01
 21
3.90678417E+01
  0
LINE
  8
0
 62
4
 10
-1.00608969E+02
 20
4.21452331E+01
 11
-1.00608969E+02
 21
3.97752331E+01
  0
LINE
  8
0
 62
4
 10
-9.98089687E+01
 20
4.21452331E+01
 11
-1.00608969E+02
 21
4.21452331E+01
  0
LINE
  8
0
 62
4
 10
-9.98089687E+01
 20
4.21452331E+01
 11
-9.98089687E+01
 21
4.02352331E+01
  0
LINE
  8
0
 62
4
 10
-9.90089687E+01
 20
3.97752331E+01
 11
-9.93056788E+01
 21
3.99400720E+01
  0
LINE
  8
0
 62
4
 10
-9.13589687E+01
 20
4.25452331E+01
 11
-9.13589687E+01
 21
3.73452331E+01
  0
LINE
  8
0
 62
4
 10
-9.12089687E+01
 20
4.25452331E+01
 11
-9.13589687E+01
 21
4.25452331E+01
  0
LINE
  8
0
 62
4
 10
-9.97811178E+01
 20
4.02166658E+01
 11
-9.98089687E+01
 21
4.02352331E+01
  0
LINE
  8
0
 62
4
 10
-9.98668605E+01
 20
3.93358269E+01
 11
-1.00608969E+02
 21
3.97752331E+01
  0
LINE
  8
0
 62
4
 10
-9.32089687E+01
 20
4.48452331E+01
 11
-9.32089687E+01
 21
4.38452331E+01
  0
LINE
  8
0
 62
4
 10
-9.62089687E+01
 20
4.48452331E+01
 11
-9.62089687E+01
 21
4.38452331E+01
  0
LINE
  8
0
 62
6
 10
-9.59389687E+01
 20
4.48452331E+01
 11
-9.59389687E+01
 21
4.38452331E+01
  0
LINE
  8
0
 62
6
 10
-9.34789687E+01
 20
4.48452331E+01
 11
-9.34789687E+01
 21
4.38452331E+01
  0
LINE
  8
0
 62
4
 10
-9.72089687E+01
 20
4.53452331E+01
 11
-9.72089687E+01
 21
4.48452331E+01
  0
LINE
  8
0
 62
4
 10
-9.22089687E+01
 20
4.53452331E+01
 11
-9.22089687E+01
 21
4.48452331E+01
  0
LINE
  8
0
 62
4
 10
-9.32089687E+01
 20
4.63452331E+01
 11
-9.62089687E+01
 21
4.63452331E+01
  0
LINE
  8
0
 62
4
 10
-9.32089687E+01
 20
4.23452331E+01
 11
-9.32089687E+01
 21
4.11452331E+01
  0
LINE
  8
0
 62
6
 10
-9.34789687E+01
 20
4.23452331E+01
 11
-9.34789687E+01
 21
4.08752331E+01
  0
LINE
  8
0
 62
6
 10
-9.59389687E+01
 20
4.23452331E+01
 11
-9.59389687E+01
 21
4.08752331E+01
  0
LINE
  8
0
 62
4
 10
-9.62089687E+01
 20
4.23452331E+01
 11
-9.62089687E+01
 21
4.11452331E+01
  0
ARC
  8
0
 62
4
 10
-9.17091289E+01
 20
4.25450729E+01
 40
5.00160181E-01
 50
1.83465799E-02
 51
9.00000002E+01
  0
ARC
  8
0
 62
4
 10
-9.77165939E+01
 20
4.25528583E+01
 40
4.92433852E-01
 50
8.91127567E+01
 51
1.80887243E+02
  0
ARC
  8
0
 62
4
 10
-9.12091071E+01
 20
4.30450947E+01
 40
8.00138358E-01
 50
9.90662024E-03
 51
9.00000002E+01
  0
ARC
  8
0
 62
4
 10
-9.82165939E+01
 20
4.30528583E+01
 40
7.92411497E-01
 50
8.94486475E+01
 51
1.80551352E+02
  0
ARC
  8
0
 62
4
 10
-9.32090983E+01
 20
4.53451035E+01
 40
1.00012957E+00
 50
7.42247612E-03
 51
9.00000002E+01
  0
ARC
  8
0
 62
4
 10
-9.62165955E+01
 20
4.53528598E+01
 40
9.92402587E-01
 50
8.95596718E+01
 51
1.80440329E+02
  0
ARC
  8
0
 62
7
 10
-9.47149897E+01
 20
2.88512540E+01
 40
6.99402955E+00
 50
1.21017085E+02
 51
1.48982915E+02
  0
ARC
  8
0
 62
7
 10
-9.47024502E+01
 20
2.88366952E+01
 40
7.00111676E+00
 50
3.11212937E+01
 51
5.91179366E+01
  0
ARC
  8
0
 62
7
 10
-9.47024513E+01
 20
2.88637721E+01
 40
7.00111833E+00
 50
3.00882066E+02
 51
3.28878703E+02
  0
ARC
  8
0
 62
7
 10
-9.47149886E+01
 20
2.88492132E+01
 40
6.99403112E+00
 50
2.11017088E+02
 51
2.38982912E+02
  0
ARC
  8
0
 62
7
 10
-9.47131400E+01
 20
2.88518947E+01
 40
3.99405823E+00
 50
9.10878482E+01
 51
1.49062800E+02
  0
ARC
  8
0
 62
7
 10
-9.47158221E+01
 20
2.88501255E+01
 40
3.99584669E+00
 50
3.09514064E+01
 51
8.88979451E+01
  0
ARC
  8
0
 62
7
 10
-9.47160098E+01
 20
2.88502331E+01
 40
4.00544151E+00
 50
3.31112406E+02
 51
2.88875940E+01
  0
ARC
  8
0
 62
7
 10
-9.47158231E+01
 20
2.88503423E+01
 40
3.99584842E+00
 50
2.71102069E+02
 51
3.29048580E+02
  0
ARC
  8
0
 62
7
 10
-9.47131390E+01
 20
2.88485731E+01
 40
3.99405996E+00
 50
2.10937213E+02
 51
2.68912138E+02
  0
ARC
  8
0
 62
7
 10
-9.47160098E+01
 20
2.88502331E+01
 40
3.99311751E+00
 50
1.51014793E+02
 51
2.08985207E+02
  0
CIRCLE
  8
0
 62
4
 10
-9.47160098E+01
 20
2.88502342E+01
 40
3.50000000E+00
  0
CIRCLE
  8
0
 62
7
 10
-9.47160098E+01
 20
2.88502342E+01
 40
2.00000000E+00
  0
LINE
  8
0
 62
7
 10
-9.31089687E+01
 20
3.48452331E+01
 11
-9.11089687E+01
 21
3.48452331E+01
  0
LINE
  8
0
 62
7
 10
-9.31089687E+01
 20
2.28552331E+01
 11
-9.11089687E+01
 21
2.28552331E+01
  0
LINE
  8
0
 62
4
 10
-8.87089687E+01
 20
3.23052331E+01
 11
-9.47089687E+01
 21
3.57752331E+01
  0
LINE
  8
0
 62
4
 10
-9.47089687E+01
 20
2.19252331E+01
 11
-8.87089687E+01
 21
2.53952331E+01
  0
LINE
  8
0
 62
4
 10
-1.00708969E+02
 20
2.53952331E+01
 11
-9.47089687E+01
 21
2.19252331E+01
  0
LINE
  8
0
 62
7
 10
-1.00708969E+02
 20
3.24552331E+01
 11
-1.00708969E+02
 21
3.23052331E+01
  0
LINE
  8
0
 62
7
 10
-9.83189687E+01
 20
3.48452331E+01
 11
-9.63189687E+01
 21
3.48452331E+01
  0
LINE
  8
0
 62
7
 10
-9.83189687E+01
 20
2.28552331E+01
 11
-9.63189687E+01
 21
2.28552331E+01
  0
LINE
  8
0
 62
7
 10
-8.87089687E+01
 20
3.24552331E+01
 11
-8.87089687E+01
 21
3.23052331E+01
  0
LINE
  8
0
 62
4
 10
-9.47089687E+01
 20
3.57752331E+01
 11
-1.00708969E+02
 21
3.23052331E+01
  0
LINE
  8
0
 62
4
 10
-9.12089687E+01
 20
3.08652331E+01
 11
-9.47089687E+01
 21
3.28852331E+01
  0
LINE
  8
0
 62
4
 10
-9.12089687E+01
 20
2.68352331E+01
 11
-9.12089687E+01
 21
3.08652331E+01
  0
LINE
  8
0
 62
4
 10
-9.47089687E+01
 20
2.48152331E+01
 11
-9.12089687E+01
 21
2.68352331E+01
  0
LINE
  8
0
 62
4
 10
-9.82089687E+01
 20
2.68352331E+01
 11
-9.47089687E+01
 21
2.48152331E+01
  0
LINE
  8
0
 62
4
 10
-9.82089687E+01
 20
3.08652331E+01
 11
-9.82089687E+01
 21
2.68352331E+01
  0
LINE
  8
0
 62
4
 10
-9.47089687E+01
 20
3.28852331E+01
 11
-9.82089687E+01
 21
3.08652331E+01
  0
LINE
  8
0
  6
CENTER
 62
2
 10
-9.47089687E+01
 20
4.75927614E+01
 11
-9.47089687E+01
 21
2.08552331E+01
  0
LINE
  8
0
  6
CENTER
 62
2
 10
-1.02662909E+02
 20
2.88452331E+01
 11
-8.67089687E+01
 21
2.88452331E+01
  0
CIRCLE
  8
0
 62
2
 10
-9.47089687E+01
 20
2.88452331E+01
 40
1.62100000E+00
  0
LINE
  8
0
 62
4
 10
-8.87089687E+01
 20
3.23052331E+01
 11
-8.87089687E+01
 21
2.53952331E+01
  0
LINE
  8
0
 62
7
 10
-8.87089687E+01
 20
2.53952331E+01
 11
-8.87089687E+01
 21
2.52452331E+01
  0
LINE
  8
0
 62
4
 10
-1.00708969E+02
 20
3.23052331E+01
 11
-1.00708969E+02
 21
2.53952331E+01
  0
LINE
  8
0
 62
7
 10
-1.00708969E+02
 20
2.53952331E+01
 11
-1.00708969E+02
 21
2.52452331E+01
  0
CIRCLE
  8
0
 62
4
 10
-9.47089687E+01
 20
2.88452331E+01
 40
6.00000000E+00
  0
LINE
  8
0
 62
4
 10
9.01610313E+01
 20
4.11452331E+01
 11
9.04610313E+01
 21
4.08452331E+01
  0
LINE
  8
0
 62
4
 10
9.31610313E+01
 20
4.11452331E+01
 11
9.28610313E+01
 21
4.08452331E+01
  0
LINE
  8
0
 62
4
 10
9.60105784E+01
 20
4.24791875E+01
 11
9.65082262E+01
 21
4.25276296E+01
  0
LINE
  8
0
 62
4
 10
9.65082262E+01
 20
4.25276296E+01
 11
9.74577045E+01
 21
3.27735961E+01
  0
LINE
  8
0
 62
4
 10
9.64910313E+01
 20
3.59952331E+01
 11
9.66403256E+01
 21
3.60097657E+01
  0
LINE
  8
0
 62
4
 10
9.60105784E+01
 20
4.24791875E+01
 11
9.68836641E+01
 21
3.35099386E+01
  0
LINE
  8
0
 62
4
 10
9.64910313E+01
 20
3.59952331E+01
 11
9.67152392E+01
 21
3.36919343E+01
  0
LINE
  8
0
 62
4
 10
8.81610313E+01
 20
3.73452331E+01
 11
8.73245448E+01
 21
3.43382468E+01
  0
LINE
  8
0
 62
4
 10
8.83110313E+01
 20
3.73452331E+01
 11
8.75176561E+01
 21
3.44848895E+01
  0
CIRCLE
  8
0
 62
4
 10
9.16610313E+01
 20
3.71452331E+01
 40
1.30000000E+00
  0
LINE
  8
0
 62
4
 10
9.49110313E+01
 20
4.08452331E+01
 11
9.49110313E+01
 21
3.48452331E+01
  0
LINE
  8
0
 62
4
 10
8.84110313E+01
 20
4.08452331E+01
 11
8.84110313E+01
 21
3.73452331E+01
  0
LINE
  8
0
 62
4
 10
8.84110313E+01
 20
4.08452331E+01
 11
9.49110313E+01
 21
4.08452331E+01
  0
LINE
  8
0
 62
4
 10
8.96110313E+01
 20
3.51452331E+01
 11
9.37110313E+01
 21
3.51452331E+01
  0
LINE
  8
0
 62
4
 10
9.37110313E+01
 20
3.91452331E+01
 11
9.37110313E+01
 21
3.51452331E+01
  0
LINE
  8
0
 62
4
 10
8.96110313E+01
 20
3.91452331E+01
 11
9.37110313E+01
 21
3.91452331E+01
  0
LINE
  8
0
 62
4
 10
9.06610313E+01
 20
3.94452331E+01
 11
9.06610313E+01
 21
3.91452331E+01
  0
LINE
  8
0
 62
4
 10
9.26610313E+01
 20
3.94452331E+01
 11
9.26610313E+01
 21
3.91452331E+01
  0
LINE
  8
0
 62
4
 10
9.06610313E+01
 20
3.94452331E+01
 11
9.26610313E+01
 21
3.94452331E+01
  0
LINE
  8
0
 62
4
 10
9.06610313E+01
 20
3.51452331E+01
 11
9.06610313E+01
 21
3.50186096E+01
  0
LINE
  8
0
 62
4
 10
9.26610313E+01
 20
3.51452331E+01
 11
9.26610313E+01
 21
3.50208120E+01
  0
LINE
  8
0
 62
4
 10
8.84110313E+01
 20
4.01452331E+01
 11
9.49110313E+01
 21
4.01452331E+01
  0
LINE
  8
0
 62
4
 10
8.84110313E+01
 20
3.69452331E+01
 11
8.96110313E+01
 21
3.69452331E+01
  0
LINE
  8
0
 62
4
 10
8.84110313E+01
 20
3.73452331E+01
 11
8.96110313E+01
 21
3.73452331E+01
  0
LINE
  8
0
 62
4
 10
8.84110313E+01
 20
3.69452331E+01
 11
8.84110313E+01
 21
3.48452331E+01
  0
LINE
  8
0
 62
4
 10
8.96110313E+01
 20
3.91452331E+01
 11
8.96110313E+01
 21
3.51452331E+01
  0
LINE
  8
0
 62
4
 10
9.51610313E+01
 20
4.25452331E+01
 11
9.51610313E+01
 21
3.66452331E+01
  0
LINE
  8
0
 62
4
 10
8.81610313E+01
 20
4.25452331E+01
 11
8.81610313E+01
 21
3.73452331E+01
  0
LINE
  8
0
 62
4
 10
8.91610313E+01
 20
4.48452331E+01
 11
9.41610313E+01
 21
4.48452331E+01
  0
LINE
  8
0
 62
4
 10
8.81610313E+01
 20
4.38452331E+01
 11
9.51610313E+01
 21
4.38452331E+01
  0
LINE
  8
0
 62
4
 10
8.96610313E+01
 20
4.23452331E+01
 11
9.36610313E+01
 21
4.23452331E+01
  0
LINE
  8
0
 62
4
 10
8.86610313E+01
 20
4.30452331E+01
 11
9.46610313E+01
 21
4.30452331E+01
  0
LINE
  8
0
 62
4
 10
9.59610313E+01
 20
4.30452331E+01
 11
9.59610313E+01
 21
3.66452331E+01
  0
LINE
  8
0
 62
4
 10
8.73610313E+01
 20
4.30452331E+01
 11
8.73610313E+01
 21
3.73452331E+01
  0
LINE
  8
0
 62
4
 10
9.37210313E+01
 20
4.30452331E+01
 11
9.36610313E+01
 21
4.23452331E+01
  0
LINE
  8
0
 62
4
 10
8.96010313E+01
 20
4.30452331E+01
 11
8.96610313E+01
 21
4.23452331E+01
  0
LINE
  8
0
 62
4
 10
8.73610313E+01
 20
3.73452331E+01
 11
8.81610313E+01
 21
3.73452331E+01
  0
LINE
  8
0
 62
4
 10
9.51610313E+01
 20
3.66452331E+01
 11
9.59610313E+01
 21
3.66452331E+01
  0
LINE
  8
0
 62
4
 10
9.59610313E+01
 20
3.88452331E+01
 11
9.63426460E+01
 21
3.90678417E+01
  0
LINE
  8
0
 62
4
 10
9.75610313E+01
 20
4.21452331E+01
 11
9.75610313E+01
 21
3.97752331E+01
  0
LINE
  8
0
 62
4
 10
9.67610313E+01
 20
4.21452331E+01
 11
9.75610313E+01
 21
4.21452331E+01
  0
LINE
  8
0
 62
4
 10
9.67610313E+01
 20
4.21452331E+01
 11
9.67610313E+01
 21
4.02352331E+01
  0
LINE
  8
0
 62
4
 10
9.59610313E+01
 20
3.97752331E+01
 11
9.62577413E+01
 21
3.99400720E+01
  0
LINE
  8
0
 62
4
 10
8.83110313E+01
 20
4.25452331E+01
 11
8.83110313E+01
 21
3.73452331E+01
  0
LINE
  8
0
 62
4
 10
8.81610313E+01
 20
4.25452331E+01
 11
8.83110313E+01
 21
4.25452331E+01
  0
LINE
  8
0
 62
4
 10
9.67331803E+01
 20
4.02166658E+01
 11
9.67610313E+01
 21
4.02352331E+01
  0
LINE
  8
0
 62
4
 10
9.68189230E+01
 20
3.93358269E+01
 11
9.75610313E+01
 21
3.97752331E+01
  0
LINE
  8
0
 62
4
 10
9.01610313E+01
 20
4.48452331E+01
 11
9.01610313E+01
 21
4.38452331E+01
  0
LINE
  8
0
 62
4
 10
9.31610313E+01
 20
4.48452331E+01
 11
9.31610313E+01
 21
4.38452331E+01
  0
LINE
  8
0
 62
6
 10
9.28910313E+01
 20
4.48452331E+01
 11
9.28910313E+01
 21
4.38452331E+01
  0
LINE
  8
0
 62
6
 10
9.04310313E+01
 20
4.48452331E+01
 11
9.04310313E+01
 21
4.38452331E+01
  0
LINE
  8
0
 62
4
 10
9.41610313E+01
 20
4.53452331E+01
 11
9.41610313E+01
 21
4.48452331E+01
  0
LINE
  8
0
 62
4
 10
8.91610313E+01
 20
4.53452331E+01
 11
8.91610313E+01
 21
4.48452331E+01
  0
LINE
  8
0
 62
4
 10
9.01610313E+01
 20
4.63452331E+01
 11
9.31610313E+01
 21
4.63452331E+01
  0
LINE
  8
0
 62
4
 10
9.01610313E+01
 20
4.23452331E+01
 11
9.01610313E+01
 21
4.11452331E+01
  0
LINE
  8
0
 62
6
 10
9.04310313E+01
 20
4.23452331E+01
 11
9.04310313E+01
 21
4.08752331E+01
  0
LINE
  8
0
 62
6
 10
9.28910313E+01
 20
4.23452331E+01
 11
9.28910313E+01
 21
4.08752331E+01
  0
LINE
  8
0
 62
4
 10
9.31610313E+01
 20
4.23452331E+01
 11
9.31610313E+01
 21
4.11452331E+01
  0
LINE
  8
0
 62
4
 10
9.03610313E+01
 20
3.58452331E+01
 11
9.29610313E+01
 21
3.58452331E+01
  0
LINE
  8
0
 62
4
 10
9.03610313E+01
 20
3.84452331E+01
 11
9.29610313E+01
 21
3.84452331E+01
  0
LINE
  8
0
 62
4
 10
9.29610313E+01
 20
3.84452331E+01
 11
9.29610313E+01
 21
3.58452331E+01
  0
LINE
  8
0
 62
4
 10
9.03610313E+01
 20
3.84452331E+01
 11
9.03610313E+01
 21
3.58452331E+01
  0
LINE
  8
0
 62
4
 10
8.96110313E+01
 20
3.91452331E+01
 11
9.03610313E+01
 21
3.84452331E+01
  0
LINE
  8
0
 62
4
 10
9.29610313E+01
 20
3.84452331E+01
 11
9.37110313E+01
 21
3.91452331E+01
  0
LINE
  8
0
 62
4
 10
9.03610313E+01
 20
3.58452331E+01
 11
8.96110313E+01
 21
3.51452331E+01
  0
LINE
  8
0
 62
4
 10
9.29610313E+01
 20
3.58452331E+01
 11
9.37110313E+01
 21
3.51452331E+01
  0
ARC
  8
0
 62
4
 10
8.86611914E+01
 20
4.25450729E+01
 40
5.00160181E-01
 50
9.00000002E+01
 51
1.79981654E+02
  0
ARC
  8
0
 62
4
 10
9.46686564E+01
 20
4.25528583E+01
 40
4.92433852E-01
 50
3.59112757E+02
 51
9.08872431E+01
  0
ARC
  8
0
 62
4
 10
8.81611696E+01
 20
4.30450947E+01
 40
8.00138358E-01
 50
9.00000002E+01
 51
1.79990093E+02
  0
ARC
  8
0
 62
4
 10
9.51686564E+01
 20
4.30528583E+01
 40
7.92411497E-01
 50
3.59448647E+02
 51
9.05513523E+01
  0
ARC
  8
0
 62
4
 10
9.01611608E+01
 20
4.53451035E+01
 40
1.00012957E+00
 50
9.00000002E+01
 51
1.79992578E+02
  0
ARC
  8
0
 62
4
 10
9.31686580E+01
 20
4.53528598E+01
 40
9.92402587E-01
 50
3.59559672E+02
 51
9.04403286E+01
  0
CIRCLE
  8
0
 62
2
 10
9.16610313E+01
 20
2.88452331E+01
 40
2.06700000E+00
  0
LINE
  8
0
 62
7
 10
9.76610313E+01
 20
3.24552331E+01
 11
9.76610313E+01
 21
3.06233604E+01
  0
LINE
  8
0
 62
7
 10
8.56610313E+01
 20
3.24552331E+01
 11
8.56610313E+01
 21
3.05952331E+01
  0
LINE
  8
0
 62
7
 10
8.80610313E+01
 20
2.28552331E+01
 11
8.99110313E+01
 21
2.28552331E+01
  0
LINE
  8
0
 62
7
 10
8.80610313E+01
 20
3.48452331E+01
 11
8.99110313E+01
 21
3.48452331E+01
  0
LINE
  8
0
 62
4
 10
8.76610313E+01
 20
3.11552331E+01
 11
9.16610313E+01
 21
3.34652331E+01
  0
LINE
  8
0
 62
4
 10
9.16610313E+01
 20
2.42352331E+01
 11
9.56610313E+01
 21
2.65352331E+01
  0
LINE
  8
0
  6
CENTER
 62
2
 10
8.37761425E+01
 20
2.88452331E+01
 11
9.95976714E+01
 21
2.88452331E+01
  0
LINE
  8
0
  6
CENTER
 62
2
 10
9.16610313E+01
 20
4.74117341E+01
 11
9.16610313E+01
 21
2.10203603E+01
  0
LINE
  8
0
 62
4
 10
8.76610313E+01
 20
3.11552331E+01
 11
8.76610313E+01
 21
2.65352331E+01
  0
LINE
  8
0
 62
4
 10
9.56610313E+01
 20
3.11552331E+01
 11
9.56610313E+01
 21
2.65352331E+01
  0
LINE
  8
0
 62
4
 10
8.76610313E+01
 20
2.65352331E+01
 11
9.16610313E+01
 21
2.42352331E+01
  0
LINE
  8
0
 62
4
 10
9.16610313E+01
 20
3.34652331E+01
 11
9.56610313E+01
 21
3.11552331E+01
  0
LINE
  8
0
 62
7
 10
9.34110313E+01
 20
3.48452331E+01
 11
9.52710313E+01
 21
3.48452331E+01
  0
LINE
  8
0
 62
7
 10
8.56610313E+01
 20
2.70952331E+01
 11
8.56610313E+01
 21
2.52352331E+01
  0
LINE
  8
0
 62
7
 10
9.34110313E+01
 20
2.28552331E+01
 11
9.52710313E+01
 21
2.28552331E+01
  0
LINE
  8
0
 62
7
 10
9.76610313E+01
 20
2.70771062E+01
 11
9.76610313E+01
 21
2.52352331E+01
  0
CIRCLE
  8
0
 62
7
 10
9.16678251E+01
 20
2.88502333E+01
 40
2.50000000E+00
  0
ARC
  8
0
 62
7
 10
9.16669282E+01
 20
2.88511300E+01
 40
6.99419978E+00
 50
3.10174323E+01
 51
5.89825678E+01
  0
ARC
  8
0
 62
7
 10
9.16543898E+01
 20
2.88368187E+01
 40
7.00094772E+00
 50
1.20881718E+02
 51
1.48879051E+02
  0
ARC
  8
0
 62
7
 10
9.16467754E+01
 20
2.88711936E+01
 40
7.00352356E+00
 50
2.11276030E+02
 51
2.39203430E+02
  0
ARC
  8
0
 62
7
 10
9.16745039E+01
 20
2.88568929E+01
 40
6.99677992E+00
 50
3.00932379E+02
 51
3.28827388E+02
  0
CIRCLE
  8
0
 62
4
 10
9.16678251E+01
 20
2.88502333E+01
 40
4.00000000E+00
  0
CIRCLE
  8
0
 62
7
 10
9.16678251E+01
 20
2.88502333E+01
 40
6.25000000E+00
  0
LINE
  8
0
 62
4
 10
-1.62989687E+01
 20
7.71224280E+01
 11
-1.62989687E+01
 21
7.81397120E+01
  0
LINE
  8
0
 62
4
 10
-1.87989687E+01
 20
7.81397120E+01
 11
-9.79896872E+00
 21
7.81397120E+01
  0
LINE
  8
0
 62
4
 10
-1.62989688E+01
 20
7.73752331E+01
 11
-1.22989688E+01
 21
7.73752331E+01
  0
CIRCLE
  8
0
 62
4
 10
-1.42998440E+01
 20
7.22727746E+01
 40
2.50000000E+00
  0
LINE
  8
0
 62
4
 10
-7.29896875E+00
 20
7.02752331E+01
 11
-1.79896875E+00
 21
7.02752331E+01
  0
LINE
  8
0
 62
4
 10
-7.29896875E+00
 20
7.42752331E+01
 11
-1.79896875E+00
 21
7.42752331E+01
  0
LINE
  8
0
 62
4
 10
-9.79896875E+00
 20
6.90252331E+01
 11
-7.29896875E+00
 21
6.90252331E+01
  0
LINE
  8
0
 62
4
 10
-9.79896875E+00
 20
7.55252331E+01
 11
-7.29896875E+00
 21
7.55252331E+01
  0
LINE
  8
0
 62
4
 10
-7.29896875E+00
 20
6.90252331E+01
 11
-7.29896875E+00
 21
7.55252331E+01
  0
LINE
  8
0
 62
4
 10
-2.12989687E+01
 20
7.55252331E+01
 11
-1.87989687E+01
 21
7.55252331E+01
  0
LINE
  8
0
 62
4
 10
-2.12989687E+01
 20
6.90252331E+01
 11
-1.87989687E+01
 21
6.90252331E+01
  0
LINE
  8
0
 62
4
 10
-2.67989687E+01
 20
7.12752331E+01
 11
-2.57989687E+01
 21
7.02752331E+01
  0
LINE
  8
0
 62
4
 10
-2.67989687E+01
 20
7.32752331E+01
 11
-2.57989687E+01
 21
7.42752331E+01
  0
LINE
  8
0
 62
4
 10
-2.57989687E+01
 20
7.42752331E+01
 11
-2.57989687E+01
 21
7.02752331E+01
  0
LINE
  8
0
 62
4
 10
-2.57989687E+01
 20
7.42752331E+01
 11
-2.12989687E+01
 21
7.42752331E+01
  0
LINE
  8
0
 62
4
 10
-2.57989687E+01
 20
7.02752331E+01
 11
-2.12989687E+01
 21
7.02752331E+01
  0
LINE
  8
0
 62
4
 10
-2.67989687E+01
 20
7.32752331E+01
 11
-2.67989687E+01
 21
7.12752331E+01
  0
LINE
  8
0
 62
4
 10
-1.79896875E+00
 20
7.42752331E+01
 11
-1.79896875E+00
 21
7.02752331E+01
  0
LINE
  8
0
 62
4
 10
-1.32915353E+01
 20
7.12726665E+01
 11
-1.53615353E+01
 21
7.33326665E+01
  0
LINE
  8
0
 62
4
 10
-1.53615353E+01
 20
7.12126665E+01
 11
-1.32415353E+01
 21
7.33326665E+01
  0
LINE
  8
0
 62
4
 10
-1.31889687E+01
 20
7.11752331E+01
 11
-1.32389687E+01
 21
7.12152331E+01
  0
LINE
  8
0
 62
4
 10
-1.87989687E+01
 20
6.66252331E+01
 11
-9.79896875E+00
 21
6.66252331E+01
  0
LINE
  8
0
 62
4
 10
-2.12989687E+01
 20
6.90252331E+01
 11
-2.12989687E+01
 21
7.55252331E+01
  0
LINE
  8
0
 62
4
 10
-1.87989688E+01
 20
6.79752331E+01
 11
-9.79896875E+00
 21
6.79752331E+01
  0
LINE
  8
0
 62
4
 10
-1.87989688E+01
 20
7.65752698E+01
 11
-9.79896875E+00
 21
7.65752698E+01
  0
LINE
  8
0
 62
4
 10
-1.79896875E+00
 20
7.42752331E+01
 11
1.20103125E+00
 21
7.35752331E+01
  0
LINE
  8
0
 62
4
 10
1.20103125E+00
 20
7.35752331E+01
 11
6.13803033E+00
 21
7.35752331E+01
  0
LINE
  8
0
 62
4
 10
1.20103125E+00
 20
7.09752331E+01
 11
3.53803033E+00
 21
7.09752331E+01
  0
LINE
  8
0
 62
4
 10
-1.79896875E+00
 20
7.02752331E+01
 11
1.20103125E+00
 21
7.09752331E+01
  0
LINE
  8
0
 62
6
 10
6.13803033E+00
 20
7.35752331E+01
 11
3.53803033E+00
 21
7.09752331E+01
  0
LINE
  8
0
 62
4
 10
-1.87989687E+01
 20
7.71224280E+01
 11
-9.79896872E+00
 21
7.71224280E+01
  0
LINE
  8
0
 62
4
 10
-1.87989687E+01
 20
6.66252331E+01
 11
-1.87989687E+01
 21
7.81397120E+01
  0
LINE
  8
0
 62
4
 10
-9.79896875E+00
 20
6.66252331E+01
 11
-9.79896875E+00
 21
7.81397120E+01
  0
LINE
  8
0
 62
4
 10
-1.22989687E+01
 20
7.81397120E+01
 11
-1.22989687E+01
 21
7.71224280E+01
  0
LINE
  8
0
  6
CENTER
 62
6
 10
-2.89330455E+01
 20
7.22752331E+01
 11
7.37260728E+00
 21
7.22752331E+01
  0
LINE
  8
0
 62
4
 10
1.20103125E+00
 20
7.35752331E+01
 11
1.20103125E+00
 21
7.09752331E+01
  0
LINE
  8
0
  6
CENTER
 62
6
 10
-1.42989687E+01
 20
7.95752331E+01
 11
-1.42989687E+01
 21
6.48552331E+01
  0
ARC
  8
0
 62
4
 10
-1.08988101E+02
 20
-5.18054166E+01
 40
6.99410138E+00
 50
4.17254003E+01
 51
1.38274600E+02
  0
LINE
  8
0
  6
CENTER
 62
6
 10
-9.78881012E+01
 20
-6.28146146E+01
 11
-9.78881012E+01
 21
-5.69583900E+01
  0
LINE
  8
0
  6
CENTER
 62
6
 10
-1.20088101E+02
 20
-6.28146146E+01
 11
-1.20088101E+02
 21
-5.72569591E+01
  0
CIRCLE
  8
0
 62
4
 10
-1.08988101E+02
 20
-5.18104135E+01
 40
4.00000000E+00
  0
LINE
  8
0
 62
4
 10
-9.29881012E+01
 20
-5.92104135E+01
 11
-1.03768101E+02
 21
-4.71504135E+01
  0
LINE
  8
0
  6
CENTER
 62
6
 10
-1.08988101E+02
 20
-4.60606154E+01
 11
-1.08988101E+02
 21
-5.78540975E+01
  0
LINE
  8
0
 62
4
 10
-1.24988101E+02
 20
-5.92104135E+01
 11
-1.14208101E+02
 21
-4.71504135E+01
  0
LINE
  8
0
  6
CENTER
 62
6
 10
-1.14602046E+02
 20
-5.18104135E+01
 11
-1.03405702E+02
 21
-5.18104135E+01
  0
LINE
  8
0
 62
4
 10
-1.24988101E+02
 20
-5.92104135E+01
 11
-9.29881012E+01
 21
-5.92104135E+01
  0
LINE
  8
0
 62
4
 10
-1.24988101E+02
 20
-6.08004135E+01
 11
-9.29881012E+01
 21
-6.08004135E+01
  0
LINE
  8
0
 62
4
 10
-9.29881012E+01
 20
-5.92104135E+01
 11
-9.29881012E+01
 21
-6.08004135E+01
  0
LINE
  8
0
 62
4
 10
-1.24988101E+02
 20
-5.92104135E+01
 11
-1.24988101E+02
 21
-6.08004135E+01
  0
LINE
  8
0
  6
CENTER
 62
6
 10
-7.79881012E+01
 20
-5.69583900E+01
 11
-7.79881012E+01
 21
-6.28146146E+01
  0
LINE
  8
0
  6
CENTER
 62
6
 10
-7.50141479E+01
 20
-5.18104135E+01
 11
-6.90681811E+01
 21
-5.18104135E+01
  0
LINE
  8
0
 62
4
 10
-7.09881012E+01
 20
-4.48004135E+01
 11
-7.09881012E+01
 21
-5.82004135E+01
  0
ARC
  8
0
 62
4
 10
-7.35912735E+01
 20
-5.81972412E+01
 40
2.60317420E+00
 50
2.70069822E+02
 51
3.59930178E+02
  0
LINE
  8
0
 62
4
 10
-8.29881012E+01
 20
-6.08004135E+01
 11
-7.35881012E+01
 21
-6.08004135E+01
  0
LINE
  8
0
 62
4
 10
-8.29881012E+01
 20
-5.92004135E+01
 11
-8.29881012E+01
 21
-6.08004135E+01
  0
LINE
  8
0
 62
4
 10
-8.29881012E+01
 20
-5.92004135E+01
 11
-7.35881012E+01
 21
-5.92004135E+01
  0
ARC
  8
0
 62
4
 10
-7.35912725E+01
 20
-5.81972422E+01
 40
1.00317633E+00
 50
2.70181129E+02
 51
3.59818872E+02
  0
LINE
  8
0
 62
4
 10
-7.25881012E+01
 20
-4.48004135E+01
 11
-7.25881012E+01
 21
-5.82004135E+01
  0
LINE
  8
0
 62
4
 10
-7.25881012E+01
 20
-4.48004135E+01
 11
-7.09881012E+01
 21
-4.48004135E+01
  0
LINE
  8
0
 62
4
 10
-7.58881012E+01
 20
-5.92004135E+01
 11
-7.58881012E+01
 21
-6.08004135E+01
  0
LINE
  8
0
 62
4
 10
-8.00881012E+01
 20
-5.92004135E+01
 11
-8.00881012E+01
 21
-6.08004135E+01
  0
LINE
  8
0
  6
CENTER
 62
6
 10
-9.78881012E+01
 20
-2.69685643E+01
 11
-9.78881012E+01
 21
-2.06986118E+01
  0
LINE
  8
0
  6
CENTER
 62
6
 10
-1.20088101E+02
 20
-2.72671334E+01
 11
-1.20088101E+02
 21
-2.08004135E+01
  0
LINE
  8
0
 62
4
 10
-1.24988101E+02
 20
-1.84004135E+01
 11
-9.29881012E+01
 21
-1.84004135E+01
  0
LINE
  8
0
 62
4
 10
-1.24988101E+02
 20
-1.68004135E+01
 11
-1.24988101E+02
 21
-2.17004135E+01
  0
LINE
  8
0
 62
4
 10
-9.29881012E+01
 20
-1.68004135E+01
 11
-9.29881012E+01
 21
-2.17004135E+01
  0
LINE
  8
0
 62
4
 10
-1.24988101E+02
 20
-1.68004135E+01
 11
-9.29881012E+01
 21
-1.68004135E+01
  0
LINE
  8
0
 62
4
 10
-1.24988101E+02
 20
-2.88004135E+01
 11
-9.29881012E+01
 21
-2.88004135E+01
  0
LINE
  8
0
  6
CENTER
 62
6
 10
-1.08988101E+02
 20
-1.54104135E+01
 11
-1.08988101E+02
 21
-3.00404135E+01
  0
LINE
  8
0
  6
CENTER
 62
6
 10
-1.22961983E+02
 20
-2.38004135E+01
 11
-9.51950501E+01
 21
-2.38004135E+01
  0
LINE
  8
0
 62
4
 10
-1.24988101E+02
 20
-2.17004135E+01
 11
-1.20088101E+02
 21
-2.17004135E+01
  0
LINE
  8
0
 62
4
 10
-1.24988101E+02
 20
-2.59004135E+01
 11
-1.20088101E+02
 21
-2.59004135E+01
  0
LINE
  8
0
 62
4
 10
-9.78881012E+01
 20
-2.17004135E+01
 11
-9.29881012E+01
 21
-2.17004135E+01
  0
LINE
  8
0
 62
4
 10
-9.78881012E+01
 20
-2.59004135E+01
 11
-9.29881012E+01
 21
-2.59004135E+01
  0
LINE
  8
0
 62
4
 10
-9.29881012E+01
 20
-2.59004135E+01
 11
-9.29881012E+01
 21
-2.88004135E+01
  0
LINE
  8
0
 62
4
 10
-1.24988101E+02
 20
-2.59004135E+01
 11
-1.24988101E+02
 21
-2.88004135E+01
  0
ARC
  8
0
 62
4
 10
-9.78951514E+01
 20
-2.38004135E+01
 40
2.10001183E+00
 50
8.98076456E+01
 51
2.70192355E+02
  0
ARC
  8
0
 62
4
 10
-1.20095148E+02
 20
-2.38004135E+01
 40
2.10001182E+00
 50
2.70192271E+02
 51
8.98077287E+01
  0
LINE
  8
0
  6
CENTER
 62
6
 10
-7.88810119E+00
 20
-4.90672643E+01
 11
-7.88810119E+00
 21
-5.48270990E+01
  0
LINE
  8
0
  6
CENTER
 62
6
 10
-3.00881012E+01
 20
-4.90672643E+01
 11
-3.00881012E+01
 21
-5.48270990E+01
  0
LINE
  8
0
 62
4
 10
-3.49881012E+01
 20
-4.48104135E+01
 11
-3.49881012E+01
 21
-4.97104135E+01
  0
LINE
  8
0
 62
4
 10
-2.98810119E+00
 20
-4.48104135E+01
 11
-2.98810119E+00
 21
-4.97104135E+01
  0
CIRCLE
  8
0
 62
4
 10
-1.89881012E+01
 20
-5.18104135E+01
 40
4.00000000E+00
  0
LINE
  8
0
  6
CENTER
 62
6
 10
-1.89881012E+01
 20
-4.66250908E+01
 11
-1.89881012E+01
 21
-5.74524322E+01
  0
LINE
  8
0
  6
CENTER
 62
6
 10
-3.21062609E+01
 20
-5.18104135E+01
 11
-5.48768137E+00
 21
-5.18104135E+01
  0
LINE
  8
0
 62
4
 10
-3.49881012E+01
 20
-5.39104135E+01
 11
-3.00881012E+01
 21
-5.39104135E+01
  0
LINE
  8
0
 62
4
 10
-3.49881012E+01
 20
-4.97104135E+01
 11
-3.00881012E+01
 21
-4.97104135E+01
  0
LINE
  8
0
 62
4
 10
-7.88810119E+00
 20
-5.39104135E+01
 11
-2.98810119E+00
 21
-5.39104135E+01
  0
LINE
  8
0
 62
4
 10
-7.88810119E+00
 20
-4.97104135E+01
 11
-2.98810119E+00
 21
-4.97104135E+01
  0
LINE
  8
0
 62
4
 10
-3.49881012E+01
 20
-5.88104135E+01
 11
-2.98810119E+00
 21
-5.88104135E+01
  0
LINE
  8
0
 62
4
 10
-3.49881012E+01
 20
-4.48104135E+01
 11
-2.98810119E+00
 21
-4.48104135E+01
  0
LINE
  8
0
 62
4
 10
-2.98810119E+00
 20
-5.39104135E+01
 11
-2.98810119E+00
 21
-5.88104135E+01
  0
LINE
  8
0
 62
4
 10
-3.49881012E+01
 20
-5.39104135E+01
 11
-3.49881012E+01
 21
-5.88104135E+01
  0
ARC
  8
0
 62
4
 10
-7.88810119E+00
 20
-5.18104135E+01
 40
2.10000000E+00
 50
9.00000002E+01
 51
2.70000000E+02
  0
ARC
  8
0
 62
4
 10
-3.00881012E+01
 20
-5.18104135E+01
 40
2.10000000E+00
 50
2.70000000E+02
 51
9.00000002E+01
  0
LINE
  8
0
 62
4
 10
2.20118988E+01
 20
-4.97104135E+01
 11
2.36118988E+01
 21
-4.97104135E+01
  0
LINE
  8
0
 62
4
 10
2.20118988E+01
 20
-5.88104135E+01
 11
2.36118988E+01
 21
-5.88104135E+01
  0
LINE
  8
0
 62
4
 10
2.20118988E+01
 20
-5.39104135E+01
 11
2.36118988E+01
 21
-5.39104135E+01
  0
LINE
  8
0
 62
4
 10
2.20118988E+01
 20
-4.48104135E+01
 11
2.20118988E+01
 21
-5.88104135E+01
  0
LINE
  8
0
 62
4
 10
2.36118988E+01
 20
-4.48104135E+01
 11
2.36118988E+01
 21
-5.88104135E+01
  0
LINE
  8
0
 62
4
 10
2.20118988E+01
 20
-4.48104135E+01
 11
2.36118988E+01
 21
-4.48104135E+01
  0
LINE
  8
0
  6
CENTER
 62
6
 10
2.01016383E+01
 20
-5.18104135E+01
 11
2.55788726E+01
 21
-5.18104135E+01
  0
LINE
  8
0
  6
CENTER
 62
6
 10
-1.89881012E+01
 20
-2.75261364E+01
 11
-1.89881012E+01
 21
-2.25709161E+01
  0
LINE
  8
0
  6
CENTER
 62
6
 10
-7.88810119E+00
 20
-2.75261364E+01
 11
-7.88810119E+00
 21
-2.25709161E+01
  0
LINE
  8
0
  6
CENTER
 62
6
 10
-7.88810119E+00
 20
-2.75261364E+01
 11
-7.88810119E+00
 21
-2.25709161E+01
  0
LINE
  8
0
  6
CENTER
 62
6
 10
-3.00881012E+01
 20
-2.75261364E+01
 11
-3.00881012E+01
 21
-2.25709161E+01
  0
LINE
  8
0
  6
CENTER
 62
6
 10
-7.88810119E+00
 20
-2.76338586E+01
 11
-7.88810119E+00
 21
-2.26786383E+01
  0
LINE
  8
0
 62
4
 10
-2.98810119E+00
 20
-2.42104135E+01
 11
-2.98810119E+00
 21
-2.58104135E+01
  0
LINE
  8
0
 62
4
 10
-3.49881012E+01
 20
-2.42104135E+01
 11
-2.98810119E+00
 21
-2.42104135E+01
  0
LINE
  8
0
 62
4
 10
-3.49881012E+01
 20
-2.58104135E+01
 11
-2.98810119E+00
 21
-2.58104135E+01
  0
LINE
  8
0
 62
4
 10
-3.49881012E+01
 20
-2.42104135E+01
 11
-3.49881012E+01
 21
-2.58104135E+01
  0
LINE
  8
0
 62
7
 10
-1.33399994E+02
 20
-8.98000031E+01
 11
2.70000061E+01
 21
-8.98000031E+01
  0
LINE
  8
0
 62
7
 10
-1.33399994E+02
 20
-8.98000031E+01
 11
-1.33399994E+02
 21
-7.78000031E+01
  0
LINE
  8
0
 62
7
 10
-1.33399994E+02
 20
-8.38000031E+01
 11
2.70000061E+01
 21
-8.38000031E+01
  0
LINE
  8
0
 62
7
 10
-1.33399994E+02
 20
-7.78000031E+01
 11
2.70000061E+01
 21
-7.78000031E+01
  0
LINE
  8
0
 62
7
 10
-1.07399994E+02
 20
-8.98000031E+01
 11
-1.07399994E+02
 21
-7.78000031E+01
  0
LINE
  8
0
 62
7
 10
-9.77999939E+01
 20
-8.98000031E+01
 11
-9.77999939E+01
 21
-7.78000031E+01
  0
TEXT
  8
0
 62
7
 10
-1.05449994E+02
 20
-8.24000031E+01
 40
3.20000005E+00
  1
15
 41
1.00000000E+00
  7
MONOTXT
  0
LINE
  8
0
 62
7
 10
-8.81999939E+01
 20
-8.98000031E+01
 11
-8.81999939E+01
 21
-7.78000031E+01
  0
TEXT
  8
0
 62
7
 10
-9.58499939E+01
 20
-8.24000031E+01
 40
3.20000005E+00
  1
20
 41
1.00000000E+00
  7
MONOTXT
  0
LINE
  8
0
 62
7
 10
-7.85999939E+01
 20
-8.98000031E+01
 11
-7.85999939E+01
 21
-7.78000031E+01
  0
TEXT
  8
0
 62
7
 10
-8.62499939E+01
 20
-8.24000031E+01
 40
3.20000005E+00
  1
25
 41
1.00000000E+00
  7
MONOTXT
  0
LINE
  8
0
 62
7
 10
-6.89999939E+01
 20
-8.98000031E+01
 11
-6.89999939E+01
 21
-7.78000031E+01
  0
TEXT
  8
0
 62
7
 10
-7.66499939E+01
 20
-8.24000031E+01
 40
3.20000005E+00
  1
30
 41
1.00000000E+00
  7
MONOTXT
  0
LINE
  8
0
 62
7
 10
-5.93999939E+01
 20
-8.98000031E+01
 11
-5.93999939E+01
 21
-7.78000031E+01
  0
TEXT
  8
0
 62
7
 10
-6.70499939E+01
 20
-8.24000031E+01
 40
3.20000005E+00
  1
35
 41
1.00000000E+00
  7
MONOTXT
  0
LINE
  8
0
 62
7
 10
-4.97999939E+01
 20
-8.98000031E+01
 11
-4.97999939E+01
 21
-7.78000031E+01
  0
TEXT
  8
0
 62
7
 10
-5.74499939E+01
 20
-8.24000031E+01
 40
3.20000005E+00
  1
40
 41
1.00000000E+00
  7
MONOTXT
  0
LINE
  8
0
 62
7
 10
-4.01999939E+01
 20
-8.98000031E+01
 11
-4.01999939E+01
 21
-7.78000031E+01
  0
TEXT
  8
0
 62
7
 10
-4.78499939E+01
 20
-8.24000031E+01
 40
3.20000005E+00
  1
45
 41
1.00000000E+00
  7
MONOTXT
  0
LINE
  8
0
 62
7
 10
-3.05999939E+01
 20
-8.98000031E+01
 11
-3.05999939E+01
 21
-7.78000031E+01
  0
TEXT
  8
0
 62
7
 10
-3.82499939E+01
 20
-8.24000031E+01
 40
3.20000005E+00
  1
50
 41
1.00000000E+00
  7
MONOTXT
  0
LINE
  8
0
 62
7
 10
-2.09999939E+01
 20
-8.98000031E+01
 11
-2.09999939E+01
 21
-7.78000031E+01
  0
TEXT
  8
0
 62
7
 10
-2.86499939E+01
 20
-8.24000031E+01
 40
3.20000005E+00
  1
55
 41
1.00000000E+00
  7
MONOTXT
  0
LINE
  8
0
 62
7
 10
-1.13999939E+01
 20
-8.98000031E+01
 11
-1.13999939E+01
 21
-7.78000031E+01
  0
TEXT
  8
0
 62
7
 10
-1.90499939E+01
 20
-8.24000031E+01
 40
3.20000005E+00
  1
60
 41
1.00000000E+00
  7
MONOTXT
  0
TEXT
  8
0
 62
7
 10
-7.25382017E+01
 20
-7.57696827E+01
 40
3.20000005E+00
  1
STRETCH LIST
 41
1.05263158E+00
  7
MONOTXT
  0
TEXT
  8
0
 62
7
 10
-1.29649994E+02
 20
-8.24000031E+01
 40
3.20000005E+00
  1
STROKE
 41
1.00000000E+00
  7
MONOTXT
  0
TEXT
  8
0
 62
7
 10
-1.31249994E+02
 20
-8.84000031E+01
 40
3.20000005E+00
  1
STRETCH
 41
1.00000000E+00
  7
MONOTXT
  0
TEXT
  8
0
 62
7
 10
1.59562661E+01
 20
-7.60119966E+01
 40
3.20000005E+00
  1
(mm)
 41
1.00000000E+00
  7
MONOTXT
  0
TEXT
  8
0
 62
7
 10
-9.44999392E+00
 20
-8.24000031E+01
 40
3.20000005E+00
  1
75
 41
1.00000000E+00
  7
MONOTXT
  0
TEXT
  8
0
 62
7
 10
-1.44999395E+00
 20
-8.24000031E+01
 40
3.20000005E+00
  1
100
 41
1.00000000E+00
  7
MONOTXT
  0
TEXT
  8
0
 62
7
 10
8.15000605E+00
 20
-8.24000031E+01
 40
3.20000005E+00
  1
125
 41
1.00000000E+00
  7
MONOTXT
  0
TEXT
  8
0
 62
7
 10
1.77500060E+01
 20
-8.24000031E+01
 40
3.20000005E+00
  1
150
 41
1.00000000E+00
  7
MONOTXT
  0
LINE
  8
0
 62
7
 10
2.70000061E+01
 20
-8.98000031E+01
 11
2.70000061E+01
 21
-7.78000031E+01
  0
LINE
  8
0
 62
7
 10
1.74000061E+01
 20
-8.98000031E+01
 11
1.74000061E+01
 21
-7.78000031E+01
  0
LINE
  8
0
 62
7
 10
7.80000610E+00
 20
-8.98000031E+01
 11
7.80000610E+00
 21
-7.78000031E+01
  0
LINE
  8
0
 62
7
 10
-1.79999390E+00
 20
-8.98000031E+01
 11
-1.79999390E+00
 21
-7.78000031E+01
  0
TEXT
  8
0
 62
7
 10
-1.07049994E+02
 20
-8.84000031E+01
 40
3.20000005E+00
  1
-25
 41
1.00000000E+00
  7
MONOTXT
  0
TEXT
  8
0
 62
7
 10
-9.74499940E+01
 20
-8.84000031E+01
 40
3.20000005E+00
  1
-20
 41
1.00000000E+00
  7
MONOTXT
  0
TEXT
  8
0
 62
7
 10
-8.78499940E+01
 20
-8.84000031E+01
 40
3.20000005E+00
  1
-15
 41
1.00000000E+00
  7
MONOTXT
  0
TEXT
  8
0
 62
7
 10
-7.82499940E+01
 20
-8.84000031E+01
 40
3.20000005E+00
  1
-10
 41
1.00000000E+00
  7
MONOTXT
  0
TEXT
  8
0
 62
7
 10
-6.70499939E+01
 20
-8.84000031E+01
 40
3.20000005E+00
  1
-5
 41
1.00000000E+00
  7
MONOTXT
  0
TEXT
  8
0
 62
7
 10
-5.58499939E+01
 20
-8.84000031E+01
 40
3.20000005E+00
  1
0
 41
1.00000000E+00
  7
MONOTXT
  0
TEXT
  8
0
 62
7
 10
-4.62499939E+01
 20
-8.84000031E+01
 40
3.20000005E+00
  1
5
 41
1.00000000E+00
  7
MONOTXT
  0
TEXT
  8
0
 62
7
 10
-3.82499939E+01
 20
-8.84000031E+01
 40
3.20000005E+00
  1
10
 41
1.00000000E+00
  7
MONOTXT
  0
TEXT
  8
0
 62
7
 10
-2.86499939E+01
 20
-8.84000031E+01
 40
3.20000005E+00
  1
15
 41
1.00000000E+00
  7
MONOTXT
  0
TEXT
  8
0
 62
7
 10
-1.90499939E+01
 20
-8.84000031E+01
 40
3.20000005E+00
  1
20
 41
1.00000000E+00
  7
MONOTXT
  0
TEXT
  8
0
 62
7
 10
-9.44999392E+00
 20
-8.84000031E+01
 40
3.20000005E+00
  1
35
 41
1.00000000E+00
  7
MONOTXT
  0
TEXT
  8
0
 62
7
 10
1.50006081E-01
 20
-8.84000031E+01
 40
3.20000005E+00
  1
60
 41
1.00000000E+00
  7
MONOTXT
  0
TEXT
  8
0
 62
7
 10
9.75000609E+00
 20
-8.84000031E+01
 40
3.20000005E+00
  1
85
 41
1.00000000E+00
  7
MONOTXT
  0
TEXT
  8
0
 62
7
 10
1.77500060E+01
 20
-8.84000031E+01
 40
3.20000005E+00
  1
110
 41
1.00000000E+00
  7
MONOTXT
  0
TEXT
  8
0
 10
-1.00997943E+01
 20
5.16574444E+01
 40
3.20000005E+00
  1
STRETCH LINE
 41
1.05263158E+00
  7
MONOTXT
  0
LINE
  8
0
 62
7
 10
-1.38399994E+02
 20
9.45000000E+01
 11
1.38350006E+02
 21
9.45000000E+01
  0
LINE
  8
0
 62
7
 10
1.38350006E+02
 20
9.45000000E+01
 11
1.38350006E+02
 21
-9.48000031E+01
  0
LINE
  8
0
 62
7
 10
-1.38399994E+02
 20
-9.48000031E+01
 11
1.38350006E+02
 21
-9.48000031E+01
  0
LINE
  8
0
 62
7
 10
-1.38399994E+02
 20
9.45000000E+01
 11
-1.38399994E+02
 21
-9.48000031E+01
  0
LINE
  8
0
 62
7
 10
7.33500061E+01
 20
-8.48000031E+01
 11
1.38350006E+02
 21
-8.48000031E+01
  0
LINE
  8
0
 62
7
 10
-1.38399994E+02
 20
8.45000000E+01
 11
-7.33999939E+01
 21
8.45000000E+01
  0
LINE
  8
0
 62
7
 10
7.33500061E+01
 20
8.45000000E+01
 11
1.38350006E+02
 21
8.45000000E+01
  0
LINE
  8
0
 62
7
 10
7.33500061E+01
 20
-8.48000031E+01
 11
7.33500061E+01
 21
-9.48000031E+01
  0
LINE
  8
0
 62
7
 10
7.33500061E+01
 20
9.45000000E+01
 11
7.33500061E+01
 21
8.45000000E+01
  0
LINE
  8
0
 62
7
 10
-7.33999939E+01
 20
9.45000000E+01
 11
-7.33999939E+01
 21
8.45000000E+01
  0
TEXT
  8
0
 62
7
 10
7.72426624E+01
 20
-9.20500031E+01
 40
4.50000000E+00
  1
KOGANEI CORP.
 41
1.04838710E+00
  7
MONOTXT
  0
TEXT
  8
0
 62
7
 10
9.35071483E+01
 20
8.79000000E+01
 40
3.20000005E+00
  1
Ver. 1.1
 41
1.08108108E+00
  7
MONOTXT
  0
TEXT
  8
0
 62
7
 10
-1.31042852E+02
 20
8.79000000E+01
 40
3.20000005E+00
  1
NEW PEN CYLINDER
 41
1.08108108E+00
  7
MONOTXT
  0
TEXT
  8
0
 62
7
 10
-1.29085994E+02
 20
7.29000000E+01
 40
3.20000005E+00
  1
MODEL:PBDAES10*ST(40)-A-ZC230
 41
1.00000000E+00
  7
MONOTXT
  0
ENDSEC
  0
EOF
