  0
SECTION
  2
HEADER
  9
$ACADVER
  1
AC1003
  9
$EXTMIN
 10
-1.38399994E+02
 20
-9.48000031E+01
  9
$EXTMAX
 10
1.38350006E+02
 20
9.45000000E+01
  9
$LIMMIN
 10
-1.38400994E+02
 20
-9.48010031E+01
  9
$LIMMAX
 10
1.38351006E+02
 20
9.45010000E+01
  9
$SNAPUNIT
 10
1
 20
1
  9
$SNAPBASE
 10
0
 20
0
  9
$GRIDMODE
 70
0
  9
$GRIDUNIT
 10
0
 20
0
  9
$LTSCALE
 40
4.61250000E+00
  9
$TEXTSIZE
 40
3.2
  9
$DIMTAD
 70
0
  9
$LUNITS
 70
2
  9
$LUPREC
 70
4
  9
$FILLETRAD
 40
0
  9
$AUNITS
 70
0
  9
$AUPREC
 70
0
  0
ENDSEC
  0
SECTION
  2
TABLES
  0
TABLE
  2
LTYPE
 70
2
  0
LTYPE
  2
CONTINUOUS
 70
64
  3
Solid-Line
 72
65
 73
0
 40
0
  0
LTYPE
  2
DASHED
 70
64
  3
DASHED
 72
65
 73
2
 40
.75
 49
.5
 49
-.25
  0
LTYPE
  2
HIDDEN
 70
64
  3
HIDDEN
 72
65
 73
2
 40
.375
 49
.25
 49
-.125
  0
LTYPE
  2
CENTER
 70
64
  3
CENTER
 72
65
 73
4
 40
2
 49
1.25
 49
-.25
 49
.25
 49
-.25
  0
LTYPE
  2
PHANTOM
 70
64
  3
PHANTOM
 72
65
 73
6
 40
2.5
 49
1.25
 49
-.25
 49
.25
 49
-.25
 49
.25
 49
-.25
  0
ENDTAB
  0
TABLE
  2
LAYER
 70
1
  0
LAYER
  2
1
 70
0
 62
7
  6
CONTINUOUS
 0
ENDTAB
  0
TABLE
  2
STYLE
 70
2
  0
STYLE
  2
MONOTXT
 70
0
 40
0
 41
1
 50
0
 71
0
 42
.2
  3
monotxt
  0
STYLE
  2
BIGFONT
 70
0
 40
0
 41
1
 50
0
 71
0
 42
.2
  3
txt
  4
bigfont
  0
ENDTAB
  0
ENDSEC
  0
SECTION
  2
ENTITIES
  0
LINE
  8
0
  6
CENTER
 62
2
 10
-9.04522215E+01
 20
3.25765147E+01
 11
8.76418635E+01
 21
3.25765147E+01
  0
LINE
  8
0
  6
CENTER
 62
6
 10
-3.39030632E+01
 20
5.47774818E+01
 11
-3.39030632E+01
 21
2.28418556E+01
  0
LINE
  8
0
 62
4
 10
-3.84030632E+01
 20
4.37765147E+01
 11
-3.84030632E+01
 21
5.05765147E+01
  0
LINE
  8
0
 62
4
 10
-2.94030632E+01
 20
4.37765147E+01
 11
-2.94030632E+01
 21
5.05765147E+01
  0
LINE
  8
0
  6
CENTER
 62
6
 10
6.09693683E+00
 20
5.49085361E+01
 11
6.09693683E+00
 21
2.28418556E+01
  0
LINE
  8
0
 62
4
 10
1.59693683E+00
 20
4.37765147E+01
 11
1.59693683E+00
 21
5.05765147E+01
  0
LINE
  8
0
 62
4
 10
1.05969368E+01
 20
4.37765147E+01
 11
1.05969368E+01
 21
5.05765147E+01
  0
LINE
  8
0
  6
PHANTOM
 10
-1.14867490E+01
 20
1.88769240E+01
 11
-1.14867490E+01
 21
5.27025693E+01
  0
LINE
  8
0
  6
PHANTOM
 10
5.85132510E+01
 20
1.88769240E+01
 11
5.85132510E+01
 21
5.27025693E+01
  0
TEXT
  8
0
 62
7
 10
-2.72390007E+01
 20
2.51765301E+01
 40
1.50000000E+00
  1
PBDADS16
 41
1.00000000E+00
  7
MONOTXT
  0
ARC
  8
0
 62
7
 10
-5.48910371E+01
 20
3.25715147E+01
 40
6.01538782E+00
 50
1.81915637E+02
 51
2.24885328E+02
  0
LINE
  8
0
 62
7
 10
1.05969368E+01
 20
2.40765147E+01
 11
2.80869368E+01
 21
2.40765147E+01
  0
LINE
  8
0
 62
7
 10
-2.94030632E+01
 20
2.40765147E+01
 11
1.59693683E+00
 21
2.40765147E+01
  0
LINE
  8
0
 62
7
 10
1.30969368E+01
 20
4.10765147E+01
 11
2.80869368E+01
 21
4.10765147E+01
  0
LINE
  8
0
 62
7
 10
-2.69030632E+01
 20
4.10765147E+01
 11
-9.03063171E-01
 21
4.10765147E+01
  0
LINE
  8
0
 62
4
 10
1.30969368E+01
 20
4.58765147E+01
 11
1.85969368E+01
 21
4.58765147E+01
  0
LINE
  8
0
 62
4
 10
1.30969368E+01
 20
4.18765147E+01
 11
1.85969368E+01
 21
4.18765147E+01
  0
LINE
  8
0
 62
4
 10
-9.03063171E-01
 20
4.36765147E+01
 11
-9.03063171E-01
 21
4.06083969E+01
  0
LINE
  8
0
 62
4
 10
1.30969368E+01
 20
4.36765147E+01
 11
1.30969368E+01
 21
4.06083969E+01
  0
LINE
  8
0
 62
4
 10
1.59693683E+00
 20
4.40765147E+01
 11
1.05969368E+01
 21
4.40765147E+01
  0
LINE
  8
0
 62
4
 10
-9.03063149E-01
 20
4.06083969E+01
 11
1.59693685E+00
 21
4.06083969E+01
  0
LINE
  8
0
 62
4
 10
1.30969368E+01
 20
4.06083969E+01
 11
1.05969368E+01
 21
4.06083969E+01
  0
LINE
  8
0
 62
4
 10
1.05969368E+01
 20
4.36765147E+01
 11
1.30969368E+01
 21
4.36765147E+01
  0
LINE
  8
0
 62
4
 10
1.05969368E+01
 20
4.40765147E+01
 11
1.30969368E+01
 21
4.40765147E+01
  0
LINE
  8
0
 62
4
 10
1.05969368E+01
 20
4.68765147E+01
 11
1.30969368E+01
 21
4.68765147E+01
  0
LINE
  8
0
 62
4
 10
-9.03063181E-01
 20
4.36765147E+01
 11
1.59693683E+00
 21
4.36765147E+01
  0
LINE
  8
0
 62
4
 10
-9.03063181E-01
 20
4.40765147E+01
 11
1.59693683E+00
 21
4.40765147E+01
  0
LINE
  8
0
 62
4
 10
-9.03063181E-01
 20
4.68765147E+01
 11
1.59693683E+00
 21
4.68765147E+01
  0
LINE
  8
0
 62
4
 10
1.59693682E+00
 20
2.39265301E+01
 11
1.05969368E+01
 21
2.39265301E+01
  0
LINE
  8
0
 62
4
 10
1.30969368E+01
 20
4.68765147E+01
 11
1.30969368E+01
 21
4.40765147E+01
  0
LINE
  8
0
 62
4
 10
-9.03063171E-01
 20
4.68765147E+01
 11
-9.03063171E-01
 21
4.40765147E+01
  0
LINE
  8
0
 62
4
 10
-6.40306317E+00
 20
4.48765147E+01
 11
-5.40306317E+00
 21
4.58765147E+01
  0
LINE
  8
0
 62
4
 10
-6.40306317E+00
 20
4.48765147E+01
 11
-6.40306317E+00
 21
4.28765147E+01
  0
LINE
  8
0
 62
4
 10
-5.40306317E+00
 20
4.18765147E+01
 11
-9.03063171E-01
 21
4.18765147E+01
  0
LINE
  8
0
 62
4
 10
-5.40306317E+00
 20
4.58765147E+01
 11
-9.03063171E-01
 21
4.58765147E+01
  0
LINE
  8
0
 62
4
 10
-6.40306317E+00
 20
4.28765147E+01
 11
-5.40306317E+00
 21
4.18765147E+01
  0
LINE
  8
0
 62
4
 10
-5.40306317E+00
 20
4.58765147E+01
 11
-5.40306317E+00
 21
4.18765147E+01
  0
LINE
  8
0
 62
4
 10
1.05969368E+01
 20
4.37765147E+01
 11
1.05969368E+01
 21
2.39265301E+01
  0
LINE
  8
0
 62
4
 10
1.59693683E+00
 20
4.37765147E+01
 11
1.59693683E+00
 21
2.39265301E+01
  0
LINE
  8
0
 62
4
 10
1.85969368E+01
 20
4.58765147E+01
 11
2.15969368E+01
 21
4.51765147E+01
  0
LINE
  8
0
 62
4
 10
1.85969368E+01
 20
4.18765147E+01
 11
2.15969368E+01
 21
4.25765147E+01
  0
LINE
  8
0
 62
4
 10
1.85969368E+01
 20
4.58765147E+01
 11
1.85969368E+01
 21
4.18765147E+01
  0
LINE
  8
0
 62
6
 10
2.65339359E+01
 20
4.51765147E+01
 11
2.39339359E+01
 21
4.25765147E+01
  0
LINE
  8
0
 62
4
 10
2.15969368E+01
 20
4.25765147E+01
 11
2.39339359E+01
 21
4.25765147E+01
  0
LINE
  8
0
 62
4
 10
2.15969368E+01
 20
4.51765147E+01
 11
2.15969368E+01
 21
4.25765147E+01
  0
LINE
  8
0
 62
4
 10
2.15969368E+01
 20
4.51765147E+01
 11
2.65339359E+01
 21
4.51765147E+01
  0
LINE
  8
0
 62
4
 10
-2.69030632E+01
 20
4.58765147E+01
 11
-2.14030632E+01
 21
4.58765147E+01
  0
LINE
  8
0
 62
4
 10
-2.69030632E+01
 20
4.18765147E+01
 11
-2.14030632E+01
 21
4.18765147E+01
  0
LINE
  8
0
 62
4
 10
-4.09030632E+01
 20
4.36765147E+01
 11
-4.09030632E+01
 21
4.06083969E+01
  0
LINE
  8
0
 62
4
 10
-2.69030632E+01
 20
4.36765147E+01
 11
-2.69030632E+01
 21
4.06083969E+01
  0
LINE
  8
0
 62
4
 10
-3.84030632E+01
 20
4.40765147E+01
 11
-2.94030632E+01
 21
4.40765147E+01
  0
LINE
  8
0
 62
4
 10
-4.09030631E+01
 20
4.06083969E+01
 11
-3.84030631E+01
 21
4.06083969E+01
  0
LINE
  8
0
 62
4
 10
-2.69030632E+01
 20
4.06083969E+01
 11
-2.94030632E+01
 21
4.06083969E+01
  0
LINE
  8
0
 62
4
 10
-2.94030632E+01
 20
4.36765147E+01
 11
-2.69030632E+01
 21
4.36765147E+01
  0
LINE
  8
0
 62
4
 10
-2.94030632E+01
 20
4.40765147E+01
 11
-2.69030632E+01
 21
4.40765147E+01
  0
LINE
  8
0
 62
4
 10
-2.94030632E+01
 20
4.68765147E+01
 11
-2.69030632E+01
 21
4.68765147E+01
  0
LINE
  8
0
 62
4
 10
-4.09030632E+01
 20
4.36765147E+01
 11
-3.84030632E+01
 21
4.36765147E+01
  0
LINE
  8
0
 62
4
 10
-4.09030632E+01
 20
4.40765147E+01
 11
-3.84030632E+01
 21
4.40765147E+01
  0
LINE
  8
0
 62
4
 10
-4.09030632E+01
 20
4.68765147E+01
 11
-3.84030632E+01
 21
4.68765147E+01
  0
LINE
  8
0
 62
4
 10
-3.84030632E+01
 20
2.39265301E+01
 11
-2.94030632E+01
 21
2.39265301E+01
  0
LINE
  8
0
 62
4
 10
-2.69030632E+01
 20
4.68765147E+01
 11
-2.69030632E+01
 21
4.40765147E+01
  0
LINE
  8
0
 62
4
 10
-4.09030632E+01
 20
4.68765147E+01
 11
-4.09030632E+01
 21
4.40765147E+01
  0
LINE
  8
0
 62
4
 10
-4.64030632E+01
 20
4.48765147E+01
 11
-4.54030632E+01
 21
4.58765147E+01
  0
LINE
  8
0
 62
4
 10
-4.64030632E+01
 20
4.48765147E+01
 11
-4.64030632E+01
 21
4.28765147E+01
  0
LINE
  8
0
 62
4
 10
-4.54030632E+01
 20
4.18765147E+01
 11
-4.09030632E+01
 21
4.18765147E+01
  0
LINE
  8
0
 62
4
 10
-4.54030632E+01
 20
4.58765147E+01
 11
-4.09030632E+01
 21
4.58765147E+01
  0
LINE
  8
0
 62
4
 10
-4.64030632E+01
 20
4.28765147E+01
 11
-4.54030632E+01
 21
4.18765147E+01
  0
LINE
  8
0
 62
4
 10
-4.54030632E+01
 20
4.58765147E+01
 11
-4.54030632E+01
 21
4.18765147E+01
  0
LINE
  8
0
 62
4
 10
-2.94030632E+01
 20
4.37765147E+01
 11
-2.94030632E+01
 21
2.39265301E+01
  0
LINE
  8
0
 62
4
 10
-3.84030632E+01
 20
4.37765147E+01
 11
-3.84030632E+01
 21
2.39265301E+01
  0
LINE
  8
0
 62
4
 10
-2.14030632E+01
 20
4.58765147E+01
 11
-1.84030632E+01
 21
4.51765147E+01
  0
LINE
  8
0
 62
4
 10
-2.14030632E+01
 20
4.18765147E+01
 11
-1.84030632E+01
 21
4.25765147E+01
  0
LINE
  8
0
 62
4
 10
-2.14030632E+01
 20
4.58765147E+01
 11
-2.14030632E+01
 21
4.18765147E+01
  0
LINE
  8
0
 62
6
 10
-1.34660641E+01
 20
4.51765147E+01
 11
-1.60660641E+01
 21
4.25765147E+01
  0
LINE
  8
0
 62
4
 10
-1.84030632E+01
 20
4.25765147E+01
 11
-1.60660641E+01
 21
4.25765147E+01
  0
LINE
  8
0
 62
4
 10
-1.84030632E+01
 20
4.51765147E+01
 11
-1.84030632E+01
 21
4.25765147E+01
  0
LINE
  8
0
 62
4
 10
-1.84030632E+01
 20
4.51765147E+01
 11
-1.34660641E+01
 21
4.51765147E+01
  0
CIRCLE
  8
0
 62
7
 10
2.10969368E+01
 20
3.25765147E+01
 40
2.06700000E+00
  0
LINE
  8
0
  6
CENTER
 62
2
 10
2.10969368E+01
 20
3.68165147E+01
 11
2.10969368E+01
 21
2.83265147E+01
  0
CIRCLE
  8
0
 62
2
 10
2.11027651E+01
 20
3.25765163E+01
 40
2.50000000E+00
  0
ARC
  8
0
 62
4
 10
5.00247360E+01
 20
3.25808063E+01
 40
1.99577996E+01
 50
1.68509482E+02
 51
1.80012320E+02
  0
ARC
  8
0
 62
4
 10
5.00237401E+01
 20
3.25821246E+01
 40
1.99568041E+01
 50
1.80016106E+02
 51
1.91490810E+02
  0
ARC
  8
0
 62
4
 10
1.41186545E+01
 20
3.25812661E+01
 40
1.99482829E+01
 50
3.48506731E+02
 51
3.59986353E+02
  0
ARC
  8
0
 62
4
 10
2.88079860E+01
 20
2.65947584E+01
 40
5.25895115E+00
 50
1.91356878E-02
 51
2.24910723E+01
  0
ARC
  8
0
 62
4
 10
3.53331614E+01
 20
2.65897275E+01
 40
5.26622888E+00
 50
1.79926156E+02
 51
2.02475440E+02
  0
ARC
  8
0
 62
4
 10
2.88089947E+01
 20
2.65880874E+01
 40
5.25794885E+00
 50
3.37506572E+02
 51
9.18322631E-02
  0
ARC
  8
0
 62
4
 10
3.53322528E+01
 20
3.85695378E+01
 40
5.26531686E+00
 50
1.80032896E+02
 51
2.02477312E+02
  0
ARC
  8
0
 62
4
 10
3.53331624E+01
 20
3.85633106E+01
 40
5.26622655E+00
 50
1.57524652E+02
 51
1.79965140E+02
  0
ARC
  8
0
 62
4
 10
2.88089906E+01
 20
3.85649583E+01
 40
5.25794651E+00
 50
1.69608750E-02
 51
2.24932471E+01
  0
ARC
  8
0
 62
4
 10
2.88099016E+01
 20
3.85678899E+01
 40
5.25703545E+00
 50
3.37504780E+02
 51
3.59985012E+02
  0
ARC
  8
0
 62
4
 10
1.41176586E+01
 20
3.25816627E+01
 40
1.99492789E+01
 50
3.59985215E+02
 51
1.14929822E+01
  0
ARC
  8
0
 62
4
 10
3.53341654E+01
 20
2.65931110E+01
 40
5.26722966E+00
 50
1.57526817E+02
 51
1.79962975E+02
  0
ARC
  8
0
 62
4
 10
7.96258037E+01
 20
3.59589621E+01
 40
1.49888586E+00
 50
1.31790296E+02
 51
1.79711296E+02
  0
ARC
  8
0
 62
4
 10
7.96258230E+01
 20
2.91940532E+01
 40
1.49888818E+00
 50
1.79905906E+02
 51
2.28208792E+02
  0
ARC
  8
0
 62
4
 10
7.96263872E+01
 20
2.91886993E+01
 40
1.49947071E+00
 50
1.31800227E+02
 51
1.79701364E+02
  0
ARC
  8
0
 62
4
 10
8.35450811E+01
 20
3.25798725E+01
 40
5.41814532E+00
 50
1.80035508E+02
 51
2.04808218E+02
  0
ARC
  8
0
 62
4
 10
7.96226767E+01
 20
3.59726588E+01
 40
1.49575246E+00
 50
1.80235353E+02
 51
2.28263056E+02
  0
ARC
  8
0
 62
4
 10
8.35471769E+01
 20
3.25826902E+01
 40
5.42024357E+00
 50
1.55196598E+02
 51
1.80065279E+02
  0
ARC
  8
0
 62
4
 10
8.06428323E+01
 20
3.59656118E+01
 40
1.48410487E+00
 50
3.48602854E-02
 51
4.84635485E+01
  0
ARC
  8
0
 62
4
 10
8.06459905E+01
 20
3.59659951E+01
 40
1.48094647E+00
 50
3.11481487E+02
 51
2.01045951E-02
  0
ARC
  8
0
 62
4
 10
8.06428574E+01
 20
2.91874431E+01
 40
1.48410722E+00
 50
3.11535076E+02
 51
3.50224555E-01
  0
ARC
  8
0
 62
4
 10
8.06422429E+01
 20
2.91953463E+01
 40
1.48469438E+00
 50
4.50908746E-02
 51
4.84533180E+01
  0
ARC
  8
0
 62
4
 10
7.67257441E+01
 20
3.25761387E+01
 40
5.40119281E+00
 50
3.35152285E+02
 51
3.98898514E-03
  0
ARC
  8
0
 62
4
 10
7.67236486E+01
 20
3.25864077E+01
 40
5.40329733E+00
 50
3.59895097E+02
 51
2.48430262E+01
  0
LINE
  8
0
 62
4
 10
3.00669368E+01
 20
3.85665147E+01
 11
3.00669368E+01
 21
2.65965147E+01
  0
LINE
  8
0
 62
4
 10
3.36669368E+01
 20
2.45765147E+01
 11
3.04669368E+01
 21
2.45765147E+01
  0
LINE
  8
0
 62
4
 10
3.36669368E+01
 20
2.86065147E+01
 11
3.04669368E+01
 21
2.86065147E+01
  0
LINE
  8
0
 62
4
 10
3.40669368E+01
 20
3.85665147E+01
 11
3.40669368E+01
 21
2.65965147E+01
  0
LINE
  8
0
 62
4
 10
3.36669368E+01
 20
3.65565147E+01
 11
3.04669368E+01
 21
3.65565147E+01
  0
LINE
  8
0
 62
4
 10
3.36669368E+01
 20
4.05765147E+01
 11
3.04669368E+01
 21
4.05765147E+01
  0
LINE
  8
0
 62
4
 10
8.16269368E+01
 20
3.03065147E+01
 11
7.86269368E+01
 21
3.03065147E+01
  0
LINE
  8
0
 62
4
 10
8.16269368E+01
 20
3.48565147E+01
 11
7.86269368E+01
 21
3.48565147E+01
  0
LINE
  8
0
 62
7
 10
7.81269368E+01
 20
3.50765147E+01
 11
3.60969368E+01
 21
3.50765147E+01
  0
LINE
  8
0
 62
7
 10
7.81269368E+01
 20
3.00765147E+01
 11
3.60969368E+01
 21
3.00765147E+01
  0
LINE
  8
0
 62
4
 10
8.16269368E+01
 20
3.70765147E+01
 11
7.86269368E+01
 21
3.70765147E+01
  0
LINE
  8
0
 62
4
 10
8.16269368E+01
 20
2.80765147E+01
 11
7.86269368E+01
 21
2.80765147E+01
  0
LINE
  8
0
 62
4
 10
7.81269368E+01
 20
3.59665147E+01
 11
7.81269368E+01
 21
2.91965147E+01
  0
LINE
  8
0
 62
4
 10
8.21269368E+01
 20
3.59665147E+01
 11
8.21269368E+01
 21
2.91965147E+01
  0
LINE
  8
0
 62
7
 10
8.55969368E+01
 20
3.50765147E+01
 11
8.55969368E+01
 21
3.00765147E+01
  0
LINE
  8
0
 62
7
 10
8.60969368E+01
 20
3.05765147E+01
 11
8.55969368E+01
 21
3.00765147E+01
  0
LINE
  8
0
 62
7
 10
8.60969368E+01
 20
3.45765147E+01
 11
8.55969368E+01
 21
3.50765147E+01
  0
LINE
  8
0
 62
7
 10
7.10969368E+01
 20
3.50765147E+01
 11
7.10969368E+01
 21
3.00765147E+01
  0
LINE
  8
0
 62
7
 10
8.60969368E+01
 20
3.45765147E+01
 11
8.60969368E+01
 21
3.05765147E+01
  0
LINE
  8
0
 62
7
 10
8.55969368E+01
 20
3.00765147E+01
 11
8.21269368E+01
 21
3.00765147E+01
  0
LINE
  8
0
 62
7
 10
8.55969368E+01
 20
3.50765147E+01
 11
8.21269368E+01
 21
3.50765147E+01
  0
LINE
  8
0
 62
7
 10
3.50969368E+01
 20
3.75765147E+01
 11
3.50969368E+01
 21
2.75765147E+01
  0
LINE
  8
0
 62
7
 10
2.95969368E+01
 20
3.75765147E+01
 11
2.95969368E+01
 21
2.75765147E+01
  0
LINE
  8
0
 62
7
 10
3.60969368E+01
 20
2.85765147E+01
 11
3.50969368E+01
 21
2.75765147E+01
  0
LINE
  8
0
 62
7
 10
3.60969368E+01
 20
3.65765147E+01
 11
3.50969368E+01
 21
3.75765147E+01
  0
LINE
  8
0
 62
7
 10
3.50969368E+01
 20
3.75765147E+01
 11
3.40669368E+01
 21
3.75765147E+01
  0
LINE
  8
0
 62
7
 10
3.50969368E+01
 20
2.75765147E+01
 11
3.40669368E+01
 21
2.75765147E+01
  0
LINE
  8
0
 62
7
 10
3.60969368E+01
 20
3.65765147E+01
 11
3.60969368E+01
 21
2.85765147E+01
  0
LINE
  8
0
 62
2
 10
8.60299368E+01
 20
3.05095147E+01
 11
8.21269368E+01
 21
3.05095147E+01
  0
LINE
  8
0
 62
2
 10
8.60299368E+01
 20
3.46435147E+01
 11
8.21269368E+01
 21
3.46435147E+01
  0
LINE
  8
0
 62
2
 10
7.81269368E+01
 20
3.46435147E+01
 11
7.10969368E+01
 21
3.46435147E+01
  0
LINE
  8
0
 62
2
 10
7.81269368E+01
 20
3.05095147E+01
 11
7.10969368E+01
 21
3.05095147E+01
  0
LINE
  8
0
 62
2
 10
3.59089368E+01
 20
3.67645147E+01
 11
3.40669368E+01
 21
3.67645147E+01
  0
LINE
  8
0
 62
2
 10
3.59089368E+01
 20
2.83885147E+01
 11
3.40669368E+01
 21
2.83885147E+01
  0
LINE
  8
0
 62
2
 10
3.00669368E+01
 20
3.67645147E+01
 11
2.95969368E+01
 21
3.67645147E+01
  0
LINE
  8
0
 62
2
 10
3.00669368E+01
 20
2.83885147E+01
 11
2.95969368E+01
 21
2.83885147E+01
  0
LINE
  8
0
 62
7
 10
3.00669368E+01
 20
3.75765147E+01
 11
2.80969368E+01
 21
3.75765147E+01
  0
LINE
  8
0
 62
7
 10
3.00669368E+01
 20
2.75765147E+01
 11
2.80969368E+01
 21
2.75765147E+01
  0
LINE
  8
0
 62
7
 10
-6.09030632E+01
 20
4.10765147E+01
 11
-6.09030632E+01
 21
2.40765147E+01
  0
LINE
  8
0
 62
7
 10
-5.91530632E+01
 20
3.68165147E+01
 11
-5.11530632E+01
 21
3.68165147E+01
  0
LINE
  8
0
 62
7
 10
-5.91530632E+01
 20
2.83265147E+01
 11
-5.11530632E+01
 21
2.83265147E+01
  0
LINE
  8
0
 62
7
 10
-4.94030632E+01
 20
4.10765147E+01
 11
-4.94030632E+01
 21
2.40765147E+01
  0
LINE
  8
0
 62
7
 10
-5.91530632E+01
 20
4.10765147E+01
 11
-5.91530632E+01
 21
3.68165147E+01
  0
LINE
  8
0
 62
7
 10
-5.11530632E+01
 20
4.10765147E+01
 11
-5.11530632E+01
 21
3.68165147E+01
  0
LINE
  8
0
 62
7
 10
-5.91530632E+01
 20
2.83265147E+01
 11
-5.91530632E+01
 21
2.40765147E+01
  0
LINE
  8
0
 62
7
 10
-5.11530632E+01
 20
2.83265147E+01
 11
-5.11530632E+01
 21
2.40765147E+01
  0
LINE
  8
0
 62
7
 10
1.65969368E+01
 20
4.10765147E+01
 11
1.65969368E+01
 21
2.40765147E+01
  0
LINE
  8
0
 62
7
 10
2.80869368E+01
 20
4.10765147E+01
 11
2.80869368E+01
 21
2.40765147E+01
  0
LINE
  8
0
 62
7
 10
2.63469368E+01
 20
3.68165147E+01
 11
1.83469368E+01
 21
3.68165147E+01
  0
LINE
  8
0
 62
7
 10
2.63469368E+01
 20
2.83265147E+01
 11
1.83469368E+01
 21
2.83265147E+01
  0
LINE
  8
0
 62
7
 10
2.63469368E+01
 20
4.10765147E+01
 11
2.63469368E+01
 21
3.68165147E+01
  0
LINE
  8
0
 62
7
 10
1.83469368E+01
 20
4.10765147E+01
 11
1.83469368E+01
 21
3.68165147E+01
  0
LINE
  8
0
 62
7
 10
2.63469368E+01
 20
2.83265147E+01
 11
2.63469368E+01
 21
2.40765147E+01
  0
LINE
  8
0
 62
7
 10
1.83469368E+01
 20
2.83265147E+01
 11
1.83469368E+01
 21
2.40765147E+01
  0
LINE
  8
0
 62
7
 10
-6.09030632E+01
 20
4.10765147E+01
 11
-4.09030632E+01
 21
4.10765147E+01
  0
LINE
  8
0
 62
7
 10
-6.09030632E+01
 20
2.40765147E+01
 11
-3.84030632E+01
 21
2.40765147E+01
  0
ARC
  8
0
 62
7
 10
-5.48910371E+01
 20
3.25715147E+01
 40
6.01538782E+00
 50
1.35114672E+02
 51
1.78084363E+02
  0
ARC
  8
0
 62
7
 10
-5.54267457E+01
 20
3.25715147E+01
 40
6.02365231E+00
 50
3.15192915E+02
 51
4.48070852E+01
  0
ARC
  8
0
 62
7
 10
2.20732467E+01
 20
3.25715147E+01
 40
6.02365772E+00
 50
3.15192966E+02
 51
4.48070340E+01
  0
ARC
  8
0
 62
7
 10
2.26089552E+01
 20
3.25715147E+01
 40
6.01538242E+00
 50
1.35114621E+02
 51
2.24885379E+02
  0
CIRCLE
  8
0
 62
7
 10
-5.39030632E+01
 20
3.25765147E+01
 40
2.06700000E+00
  0
LINE
  8
0
 62
2
 10
-6.28730632E+01
 20
2.83885147E+01
 11
-6.24030632E+01
 21
2.83885147E+01
  0
LINE
  8
0
 62
2
 10
-6.28730632E+01
 20
3.67645147E+01
 11
-6.24030632E+01
 21
3.67645147E+01
  0
LINE
  8
0
 62
2
 10
-6.87150632E+01
 20
2.83885147E+01
 11
-6.68730632E+01
 21
2.83885147E+01
  0
LINE
  8
0
 62
2
 10
-6.87150632E+01
 20
3.67645147E+01
 11
-6.68730632E+01
 21
3.67645147E+01
  0
LINE
  8
0
 62
2
 10
-8.09330632E+01
 20
3.05095147E+01
 11
-7.39030632E+01
 21
3.05095147E+01
  0
LINE
  8
0
 62
2
 10
-8.09330632E+01
 20
3.46435147E+01
 11
-7.39030632E+01
 21
3.46435147E+01
  0
LINE
  8
0
 62
2
 10
-8.88360632E+01
 20
3.46435147E+01
 11
-8.49330632E+01
 21
3.46435147E+01
  0
LINE
  8
0
 62
2
 10
-8.88360632E+01
 20
3.05095147E+01
 11
-8.49330632E+01
 21
3.05095147E+01
  0
LINE
  8
0
 62
7
 10
-6.89030632E+01
 20
3.65765147E+01
 11
-6.89030632E+01
 21
2.85765147E+01
  0
LINE
  8
0
 62
7
 10
-6.79030632E+01
 20
2.75765147E+01
 11
-6.68730632E+01
 21
2.75765147E+01
  0
LINE
  8
0
 62
7
 10
-6.79030632E+01
 20
3.75765147E+01
 11
-6.68730632E+01
 21
3.75765147E+01
  0
LINE
  8
0
 62
7
 10
-6.89030632E+01
 20
3.65765147E+01
 11
-6.79030632E+01
 21
3.75765147E+01
  0
LINE
  8
0
 62
7
 10
-6.89030632E+01
 20
2.85765147E+01
 11
-6.79030632E+01
 21
2.75765147E+01
  0
LINE
  8
0
  6
CENTER
 62
2
 10
-5.39030632E+01
 20
3.68165147E+01
 11
-5.39030632E+01
 21
2.83265147E+01
  0
LINE
  8
0
 62
7
 10
-6.24030632E+01
 20
3.75765147E+01
 11
-6.24030632E+01
 21
2.75765147E+01
  0
LINE
  8
0
 62
7
 10
-6.79030632E+01
 20
3.75765147E+01
 11
-6.79030632E+01
 21
2.75765147E+01
  0
LINE
  8
0
 62
7
 10
-8.84030632E+01
 20
3.50765147E+01
 11
-8.49330632E+01
 21
3.50765147E+01
  0
LINE
  8
0
 62
7
 10
-8.84030632E+01
 20
3.00765147E+01
 11
-8.49330632E+01
 21
3.00765147E+01
  0
LINE
  8
0
 62
7
 10
-8.89030632E+01
 20
3.45765147E+01
 11
-8.89030632E+01
 21
3.05765147E+01
  0
LINE
  8
0
 62
7
 10
-7.39030632E+01
 20
3.50765147E+01
 11
-7.39030632E+01
 21
3.00765147E+01
  0
LINE
  8
0
 62
7
 10
-8.89030632E+01
 20
3.45765147E+01
 11
-8.84030632E+01
 21
3.50765147E+01
  0
LINE
  8
0
 62
7
 10
-8.89030632E+01
 20
3.05765147E+01
 11
-8.84030632E+01
 21
3.00765147E+01
  0
LINE
  8
0
 62
7
 10
-8.84030632E+01
 20
3.50765147E+01
 11
-8.84030632E+01
 21
3.00765147E+01
  0
LINE
  8
0
 62
4
 10
-8.49330632E+01
 20
3.59665147E+01
 11
-8.49330632E+01
 21
2.91965147E+01
  0
LINE
  8
0
 62
4
 10
-8.09330632E+01
 20
3.59665147E+01
 11
-8.09330632E+01
 21
2.91965147E+01
  0
LINE
  8
0
 62
4
 10
-8.44330632E+01
 20
2.80765147E+01
 11
-8.14330632E+01
 21
2.80765147E+01
  0
LINE
  8
0
 62
4
 10
-8.44330632E+01
 20
3.70765147E+01
 11
-8.14330632E+01
 21
3.70765147E+01
  0
LINE
  8
0
 62
7
 10
-8.09330632E+01
 20
3.00765147E+01
 11
-6.89030632E+01
 21
3.00765147E+01
  0
LINE
  8
0
 62
7
 10
-8.09330632E+01
 20
3.50765147E+01
 11
-6.89030632E+01
 21
3.50765147E+01
  0
LINE
  8
0
 62
7
 10
-6.28730632E+01
 20
3.75765147E+01
 11
-6.09030632E+01
 21
3.75765147E+01
  0
LINE
  8
0
 62
7
 10
-6.28730632E+01
 20
2.75765147E+01
 11
-6.09030632E+01
 21
2.75765147E+01
  0
LINE
  8
0
 62
4
 10
-8.44330632E+01
 20
3.48565147E+01
 11
-8.14330632E+01
 21
3.48565147E+01
  0
LINE
  8
0
 62
4
 10
-8.44330632E+01
 20
3.03065147E+01
 11
-8.14330632E+01
 21
3.03065147E+01
  0
LINE
  8
0
 62
4
 10
-6.64730632E+01
 20
4.05765147E+01
 11
-6.32730632E+01
 21
4.05765147E+01
  0
LINE
  8
0
 62
4
 10
-6.64730632E+01
 20
3.65565147E+01
 11
-6.32730632E+01
 21
3.65565147E+01
  0
LINE
  8
0
 62
4
 10
-6.68730632E+01
 20
3.85665147E+01
 11
-6.68730632E+01
 21
2.65965147E+01
  0
LINE
  8
0
 62
4
 10
-6.64730632E+01
 20
2.86065147E+01
 11
-6.32730632E+01
 21
2.86065147E+01
  0
LINE
  8
0
 62
4
 10
-6.64730632E+01
 20
2.45765147E+01
 11
-6.32730632E+01
 21
2.45765147E+01
  0
LINE
  8
0
 62
4
 10
-6.28730632E+01
 20
3.85665147E+01
 11
-6.28730632E+01
 21
2.65965147E+01
  0
CIRCLE
  8
0
 62
2
 10
-5.39088914E+01
 20
3.25765163E+01
 40
2.50000000E+00
  0
ARC
  8
0
 62
4
 10
-7.95297749E+01
 20
3.25864077E+01
 40
5.40329733E+00
 50
1.55156974E+02
 51
1.80104903E+02
  0
ARC
  8
0
 62
4
 10
-7.95318704E+01
 20
3.25761387E+01
 40
5.40119281E+00
 50
1.79996011E+02
 51
2.04847715E+02
  0
ARC
  8
0
 62
4
 10
-8.34483692E+01
 20
2.91953463E+01
 40
1.48469438E+00
 50
1.31546682E+02
 51
1.79954909E+02
  0
ARC
  8
0
 62
4
 10
-8.34489837E+01
 20
2.91874431E+01
 40
1.48410722E+00
 50
1.79649775E+02
 51
2.28464923E+02
  0
ARC
  8
0
 62
4
 10
-8.34521168E+01
 20
3.59659951E+01
 40
1.48094647E+00
 50
1.79979895E+02
 51
2.28518513E+02
  0
ARC
  8
0
 62
4
 10
-8.34489586E+01
 20
3.59656118E+01
 40
1.48410487E+00
 50
1.31536451E+02
 51
1.79965140E+02
  0
ARC
  8
0
 62
4
 10
-8.63533032E+01
 20
3.25826902E+01
 40
5.42024357E+00
 50
3.59934721E+02
 51
2.48034017E+01
  0
ARC
  8
0
 62
4
 10
-8.24288030E+01
 20
3.59726588E+01
 40
1.49575246E+00
 50
3.11736944E+02
 51
3.59764647E+02
  0
ARC
  8
0
 62
4
 10
-8.63512074E+01
 20
3.25798725E+01
 40
5.41814532E+00
 50
3.35191782E+02
 51
3.59964492E+02
  0
ARC
  8
0
 62
4
 10
-8.24325135E+01
 20
2.91886993E+01
 40
1.49947071E+00
 50
2.98635695E-01
 51
4.81997731E+01
  0
ARC
  8
0
 62
4
 10
-8.24319493E+01
 20
2.91940532E+01
 40
1.49888818E+00
 50
3.11791208E+02
 51
9.40935745E-02
  0
ARC
  8
0
 62
4
 10
-8.24319300E+01
 20
3.59589621E+01
 40
1.49888586E+00
 50
2.88704672E-01
 51
4.82097042E+01
  0
ARC
  8
0
 62
4
 10
-6.81402917E+01
 20
2.65931110E+01
 40
5.26722966E+00
 50
3.70246508E-02
 51
2.24731834E+01
  0
ARC
  8
0
 62
4
 10
-4.69237849E+01
 20
3.25816627E+01
 40
1.99492789E+01
 50
1.68507018E+02
 51
1.80014785E+02
  0
ARC
  8
0
 62
4
 10
-6.16160279E+01
 20
3.85678899E+01
 40
5.25703545E+00
 50
1.80014988E+02
 51
2.02495220E+02
  0
ARC
  8
0
 62
4
 10
-6.16151169E+01
 20
3.85649583E+01
 40
5.25794651E+00
 50
1.57506753E+02
 51
1.79983039E+02
  0
ARC
  8
0
 62
4
 10
-6.81392887E+01
 20
3.85633106E+01
 40
5.26622655E+00
 50
3.48600779E-02
 51
2.24753479E+01
  0
ARC
  8
0
 62
4
 10
-6.81383791E+01
 20
3.85695378E+01
 40
5.26531686E+00
 50
3.37522688E+02
 51
3.59967104E+02
  0
ARC
  8
0
 62
4
 10
-6.16151211E+01
 20
2.65880874E+01
 40
5.25794885E+00
 50
1.79908168E+02
 51
2.02493428E+02
  0
ARC
  8
0
 62
4
 10
-6.81392877E+01
 20
2.65897275E+01
 40
5.26622888E+00
 50
3.37524561E+02
 51
7.38440165E-02
  0
ARC
  8
0
 62
4
 10
-6.16141123E+01
 20
2.65947584E+01
 40
5.25895115E+00
 50
1.57508928E+02
 51
1.79980864E+02
  0
ARC
  8
0
 62
4
 10
-4.69247808E+01
 20
3.25812661E+01
 40
1.99482829E+01
 50
1.80013647E+02
 51
1.91493268E+02
  0
ARC
  8
0
 62
4
 10
-8.28298664E+01
 20
3.25821246E+01
 40
1.99568041E+01
 50
3.48509191E+02
 51
3.59983894E+02
  0
ARC
  8
0
 62
4
 10
-8.28308623E+01
 20
3.25808063E+01
 40
1.99577996E+01
 50
3.59987680E+02
 51
1.14905173E+01
  0
ARC
  8
0
 62
4
 10
7.59527117E+00
 20
5.20748491E+01
 40
1.00166704E+00
 50
9.52762946E-02
 51
8.99047236E+01
  0
ARC
  8
0
 62
4
 10
4.59772832E+00
 20
5.20757233E+01
 40
1.00079180E+00
 50
9.00000002E+01
 51
1.79954687E+02
  0
LINE
  8
0
 62
6
 10
4.86693683E+00
 20
5.15765147E+01
 11
4.86693683E+00
 21
5.05765147E+01
  0
LINE
  8
0
 62
6
 10
7.32693683E+00
 20
5.15765147E+01
 11
7.32693683E+00
 21
5.05765147E+01
  0
LINE
  8
0
 62
4
 10
4.59693683E+00
 20
5.15765147E+01
 11
4.59693683E+00
 21
5.05765147E+01
  0
LINE
  8
0
 62
4
 10
7.59693683E+00
 20
5.15765147E+01
 11
7.59693683E+00
 21
5.05765147E+01
  0
LINE
  8
0
 62
4
 10
4.59693683E+00
 20
5.30765147E+01
 11
7.59693683E+00
 21
5.30765147E+01
  0
LINE
  8
0
 62
4
 10
3.59693683E+00
 20
5.15765147E+01
 11
8.59693683E+00
 21
5.15765147E+01
  0
LINE
  8
0
 62
4
 10
1.59693683E+00
 20
5.05765147E+01
 11
1.05969368E+01
 21
5.05765147E+01
  0
LINE
  8
0
 62
4
 10
8.59693683E+00
 20
5.20765147E+01
 11
8.59693683E+00
 21
5.15765147E+01
  0
LINE
  8
0
 62
4
 10
3.59693683E+00
 20
5.20765147E+01
 11
3.59693683E+00
 21
5.15765147E+01
  0
ARC
  8
0
 62
4
 10
-3.24047288E+01
 20
5.20748491E+01
 40
1.00166704E+00
 50
9.52762946E-02
 51
8.99047236E+01
  0
ARC
  8
0
 62
4
 10
-3.54022717E+01
 20
5.20757233E+01
 40
1.00079180E+00
 50
9.00000002E+01
 51
1.79954687E+02
  0
LINE
  8
0
 62
6
 10
-3.51330632E+01
 20
5.15765147E+01
 11
-3.51330632E+01
 21
5.05765147E+01
  0
LINE
  8
0
 62
6
 10
-3.26730632E+01
 20
5.15765147E+01
 11
-3.26730632E+01
 21
5.05765147E+01
  0
LINE
  8
0
 62
4
 10
-3.54030632E+01
 20
5.15765147E+01
 11
-3.54030632E+01
 21
5.05765147E+01
  0
LINE
  8
0
 62
4
 10
-3.24030632E+01
 20
5.15765147E+01
 11
-3.24030632E+01
 21
5.05765147E+01
  0
LINE
  8
0
 62
4
 10
-3.54030632E+01
 20
5.30765147E+01
 11
-3.24030632E+01
 21
5.30765147E+01
  0
LINE
  8
0
 62
4
 10
-3.64030632E+01
 20
5.15765147E+01
 11
-3.14030632E+01
 21
5.15765147E+01
  0
LINE
  8
0
 62
4
 10
-3.84030632E+01
 20
5.05765147E+01
 11
-2.94030632E+01
 21
5.05765147E+01
  0
LINE
  8
0
 62
4
 10
-3.14030632E+01
 20
5.20765147E+01
 11
-3.14030632E+01
 21
5.15765147E+01
  0
LINE
  8
0
 62
4
 10
-3.64030632E+01
 20
5.20765147E+01
 11
-3.64030632E+01
 21
5.15765147E+01
  0
LINE
  8
0
  6
CENTER
 62
2
 10
-1.05763063E+02
 20
5.43792156E+01
 11
-1.05763063E+02
 21
2.23095273E+01
  0
LINE
  8
0
 62
4
 10
-1.03713063E+02
 20
4.18765147E+01
 11
-1.04713063E+02
 21
4.28765147E+01
  0
LINE
  8
0
 62
4
 10
-1.07813063E+02
 20
4.18765147E+01
 11
-1.06813063E+02
 21
4.28765147E+01
  0
LINE
  8
0
 62
4
 10
-1.03713063E+02
 20
4.58765147E+01
 11
-1.04713063E+02
 21
4.48765147E+01
  0
LINE
  8
0
 62
4
 10
-1.07813063E+02
 20
4.58765147E+01
 11
-1.06813063E+02
 21
4.48765147E+01
  0
LINE
  8
0
 62
4
 10
-1.04713063E+02
 20
4.28765147E+01
 11
-1.06813063E+02
 21
4.28765147E+01
  0
LINE
  8
0
 62
4
 10
-1.06813063E+02
 20
4.48765147E+01
 11
-1.06813063E+02
 21
4.28765147E+01
  0
LINE
  8
0
 62
4
 10
-1.04713063E+02
 20
4.48765147E+01
 11
-1.06813063E+02
 21
4.48765147E+01
  0
LINE
  8
0
 62
4
 10
-1.04713063E+02
 20
4.48765147E+01
 11
-1.04713063E+02
 21
4.28765147E+01
  0
ARC
  8
0
 62
4
 10
-1.05763063E+02
 20
3.25765147E+01
 40
8.65000000E+00
 50
1.69314255E+02
 51
1.90685745E+02
  0
ARC
  8
0
 62
4
 10
-1.05763063E+02
 20
3.25765147E+01
 40
8.65000000E+00
 50
2.59314255E+02
 51
2.80685745E+02
  0
LINE
  8
0
 62
4
 10
-1.04263063E+02
 20
4.78765147E+01
 11
-1.04563063E+02
 21
4.75765147E+01
  0
LINE
  8
0
 62
4
 10
-1.07263063E+02
 20
4.78765147E+01
 11
-1.06963063E+02
 21
4.75765147E+01
  0
LINE
  8
0
 62
4
 10
-1.04263063E+02
 20
4.78765147E+01
 11
-1.04563063E+02
 21
4.75765147E+01
  0
LINE
  8
0
 62
4
 10
-1.07263063E+02
 20
4.78765147E+01
 11
-1.06963063E+02
 21
4.75765147E+01
  0
LINE
  8
0
 62
4
 10
-1.04763063E+02
 20
4.15765147E+01
 11
-1.06763063E+02
 21
4.15765147E+01
  0
LINE
  8
0
 62
4
 10
-1.12669455E+02
 20
3.92960762E+01
 11
-1.13144795E+02
 21
3.94511631E+01
  0
LINE
  8
0
 62
4
 10
-1.11428759E+02
 20
4.30987955E+01
 11
-1.11286157E+02
 21
4.30522694E+01
  0
LINE
  8
0
 62
4
 10
-1.10688063E+02
 20
4.69810188E+01
 11
-1.13144795E+02
 21
3.94511631E+01
  0
LINE
  8
0
 62
4
 10
-1.11286172E+02
 20
4.30522245E+01
 11
-1.12527117E+02
 21
3.92487409E+01
  0
LINE
  8
0
 62
4
 10
-1.10188063E+02
 20
4.69015147E+01
 11
-1.12767123E+02
 21
3.89967228E+01
  0
LINE
  8
0
 62
4
 10
-1.02263063E+02
 20
4.40765147E+01
 11
-1.00118049E+02
 21
4.02215341E+01
  0
LINE
  8
0
 62
4
 10
-1.02413063E+02
 20
4.40765147E+01
 11
-1.00384326E+02
 21
4.04111614E+01
  0
ARC
  8
0
 62
4
 10
-1.05763063E+02
 20
3.25765147E+01
 40
8.65000000E+00
 50
3.49314255E+02
 51
1.06857449E+01
  0
ARC
  8
0
 62
4
 10
-1.05763063E+02
 20
3.25765147E+01
 40
8.50000000E+00
 50
1.61930287E+02
 51
2.89640969E+01
  0
LINE
  8
0
 62
4
 10
-1.02263063E+02
 20
5.05765147E+01
 11
-1.09263063E+02
 21
5.05765147E+01
  0
LINE
  8
0
 62
4
 10
-1.09263063E+02
 20
4.92765147E+01
 11
-1.09263063E+02
 21
4.33765147E+01
  0
LINE
  8
0
 62
4
 10
-1.02263063E+02
 20
4.92765147E+01
 11
-1.02263063E+02
 21
4.40765147E+01
  0
LINE
  8
0
 62
4
 10
-1.10063063E+02
 20
4.55742925E+01
 11
-1.10532581E+02
 21
4.58455698E+01
  0
LINE
  8
0
 62
4
 10
-1.10763063E+02
 20
4.88765147E+01
 11
-1.10763063E+02
 21
4.71915147E+01
  0
LINE
  8
0
 62
4
 10
-1.10763063E+02
 20
4.88765147E+01
 11
-1.11563063E+02
 21
4.88765147E+01
  0
LINE
  8
0
 62
4
 10
-1.08048063E+02
 20
4.97765147E+01
 11
-1.07908063E+02
 21
4.89765147E+01
  0
LINE
  8
0
 62
4
 10
-1.03478063E+02
 20
4.97765147E+01
 11
-1.03618063E+02
 21
4.89765147E+01
  0
LINE
  8
0
 62
4
 10
-1.03618063E+02
 20
4.89765147E+01
 11
-1.07908063E+02
 21
4.89765147E+01
  0
LINE
  8
0
 62
6
 10
-1.06993063E+02
 20
5.10765147E+01
 11
-1.06993063E+02
 21
5.05765147E+01
  0
LINE
  8
0
 62
6
 10
-1.04533063E+02
 20
5.10765147E+01
 11
-1.04533063E+02
 21
5.05765147E+01
  0
LINE
  8
0
 62
4
 10
-1.01463063E+02
 20
4.97765147E+01
 11
-1.01463063E+02
 21
4.40765147E+01
  0
LINE
  8
0
 62
4
 10
-1.10063063E+02
 20
4.33765147E+01
 11
-1.10063063E+02
 21
4.97765147E+01
  0
LINE
  8
0
 62
4
 10
-1.02763063E+02
 20
4.97765147E+01
 11
-1.08763063E+02
 21
4.97765147E+01
  0
LINE
  8
0
 62
4
 10
-1.11563063E+02
 20
4.88765147E+01
 11
-1.11563063E+02
 21
4.67315147E+01
  0
LINE
  8
0
 62
4
 10
-1.10063063E+02
 20
4.65005147E+01
 11
-1.10277168E+02
 21
4.66246955E+01
  0
LINE
  8
0
 62
4
 10
-1.02413063E+02
 20
4.92765147E+01
 11
-1.02413063E+02
 21
4.40765147E+01
  0
LINE
  8
0
 62
4
 10
-1.02263063E+02
 20
4.92765147E+01
 11
-1.02413063E+02
 21
4.92765147E+01
  0
LINE
  8
0
 62
4
 10
-1.02513063E+02
 20
4.75765147E+01
 11
-1.09013063E+02
 21
4.75765147E+01
  0
LINE
  8
0
 62
4
 10
-1.02513063E+02
 20
4.68765147E+01
 11
-1.09013063E+02
 21
4.68765147E+01
  0
LINE
  8
0
 62
4
 10
-1.10188063E+02
 20
4.94015147E+01
 11
-1.10188063E+02
 21
4.69015147E+01
  0
LINE
  8
0
 62
4
 10
-1.10688063E+02
 20
4.94015147E+01
 11
-1.10688063E+02
 21
4.69810188E+01
  0
LINE
  8
0
 62
4
 10
-1.10188063E+02
 20
4.94015147E+01
 11
-1.10688063E+02
 21
4.94015147E+01
  0
LINE
  8
0
 62
4
 10
-1.07263063E+02
 20
5.15765147E+01
 11
-1.07263063E+02
 21
5.05765147E+01
  0
LINE
  8
0
 62
4
 10
-1.04263063E+02
 20
5.15765147E+01
 11
-1.04263063E+02
 21
5.05765147E+01
  0
LINE
  8
0
 62
4
 10
-1.01463063E+02
 20
4.40765147E+01
 11
-1.02263063E+02
 21
4.40765147E+01
  0
LINE
  8
0
 62
4
 10
-1.09263063E+02
 20
4.33765147E+01
 11
-1.10063063E+02
 21
4.33765147E+01
  0
LINE
  8
0
 62
4
 10
-1.03263063E+02
 20
5.15765147E+01
 11
-1.08263063E+02
 21
5.15765147E+01
  0
LINE
  8
0
 62
4
 10
-1.04263063E+02
 20
5.30765147E+01
 11
-1.07263063E+02
 21
5.30765147E+01
  0
LINE
  8
0
 62
4
 10
-1.03263063E+02
 20
5.20765147E+01
 11
-1.03263063E+02
 21
5.15765147E+01
  0
LINE
  8
0
 62
4
 10
-1.08263063E+02
 20
5.20765147E+01
 11
-1.08263063E+02
 21
5.15765147E+01
  0
LINE
  8
0
 62
4
 10
-1.04263063E+02
 20
5.10765147E+01
 11
-1.07263063E+02
 21
5.10765147E+01
  0
ARC
  8
0
 62
4
 10
-1.02263066E+02
 20
4.97765115E+01
 40
8.00003254E-01
 50
2.33015759E-04
 51
9.00000002E+01
  0
ARC
  8
0
 62
4
 10
-1.09264726E+02
 20
4.97781773E+01
 40
7.98339134E-01
 50
8.98806771E+01
 51
1.80119323E+02
  0
ARC
  8
0
 62
4
 10
-1.02763067E+02
 20
4.92765104E+01
 40
5.00004290E-01
 50
4.91607912E-04
 51
9.00000002E+01
  0
ARC
  8
0
 62
4
 10
-1.08764726E+02
 20
4.92781773E+01
 40
4.98340176E-01
 50
8.98088454E+01
 51
1.80191155E+02
  0
ARC
  8
0
 62
4
 10
-1.11062859E+02
 20
4.67296490E+01
 40
5.00207143E-01
 50
1.79786293E+02
 51
2.39986760E+02
  0
ARC
  8
0
 62
4
 10
-1.10264211E+02
 20
4.71938704E+01
 40
4.98857363E-01
 50
1.80270562E+02
 51
2.09445368E+02
  0
ARC
  8
0
 62
4
 10
-1.07264475E+02
 20
5.20779271E+01
 40
9.98588677E-01
 50
8.99189656E+01
 51
1.80081034E+02
  0
ARC
  8
0
 62
4
 10
-1.04263316E+02
 20
5.20762620E+01
 40
1.00025280E+00
 50
1.44788446E-02
 51
9.00000002E+01
  0
LINE
  8
0
 62
4
 10
-1.09013063E+02
 20
4.75765147E+01
 11
-1.09013063E+02
 21
4.10765147E+01
  0
LINE
  8
0
 62
4
 10
-1.02513063E+02
 20
4.36765147E+01
 11
-1.02513063E+02
 21
4.10765147E+01
  0
LINE
  8
0
 62
4
 10
-1.02513063E+02
 20
4.36765147E+01
 11
-1.03713063E+02
 21
4.36765147E+01
  0
LINE
  8
0
 62
4
 10
-1.02513063E+02
 20
4.40765147E+01
 11
-1.03713063E+02
 21
4.40765147E+01
  0
LINE
  8
0
 62
4
 10
-1.02513063E+02
 20
4.75765147E+01
 11
-1.02513063E+02
 21
4.40765147E+01
  0
LINE
  8
0
 62
4
 10
-1.03713063E+02
 20
4.18765147E+01
 11
-1.07813063E+02
 21
4.18765147E+01
  0
LINE
  8
0
 62
4
 10
-1.03713063E+02
 20
4.58765147E+01
 11
-1.07813063E+02
 21
4.58765147E+01
  0
LINE
  8
0
 62
4
 10
-1.04763063E+02
 20
4.61765147E+01
 11
-1.06763063E+02
 21
4.61765147E+01
  0
LINE
  8
0
 62
4
 10
-1.04763063E+02
 20
4.61765147E+01
 11
-1.04763063E+02
 21
4.58765147E+01
  0
LINE
  8
0
 62
4
 10
-1.04763063E+02
 20
4.18765147E+01
 11
-1.04763063E+02
 21
4.15765147E+01
  0
LINE
  8
0
 62
4
 10
-1.03713063E+02
 20
4.58765147E+01
 11
-1.03713063E+02
 21
4.18765147E+01
  0
LINE
  8
0
 62
4
 10
-1.07813063E+02
 20
4.58765147E+01
 11
-1.07813063E+02
 21
4.18765147E+01
  0
LINE
  8
0
 62
4
 10
-1.06763063E+02
 20
4.61765147E+01
 11
-1.06763063E+02
 21
4.58765147E+01
  0
LINE
  8
0
 62
4
 10
-1.06763063E+02
 20
4.18765147E+01
 11
-1.06763063E+02
 21
4.15765147E+01
  0
LINE
  8
0
 62
4
 10
-1.04263063E+02
 20
4.89765147E+01
 11
-1.04263063E+02
 21
4.78765147E+01
  0
LINE
  8
0
 62
4
 10
-1.07263063E+02
 20
4.89765147E+01
 11
-1.07263063E+02
 21
4.78765147E+01
  0
LINE
  8
0
 62
6
 10
-1.04533063E+02
 20
4.89765147E+01
 11
-1.04533063E+02
 21
4.76065147E+01
  0
LINE
  8
0
 62
6
 10
-1.06993063E+02
 20
4.89765147E+01
 11
-1.06993063E+02
 21
4.76065147E+01
  0
LINE
  8
0
 62
4
 10
-1.10975102E+02
 20
4.61012482E+01
 11
-1.11313063E+02
 21
4.62965147E+01
  0
ARC
  8
0
 62
2
 10
-1.05763063E+02
 20
3.25765147E+01
 40
4.18800000E+00
 50
4.27674369E+01
 51
7.72325633E+01
  0
ARC
  8
0
 62
2
 10
-1.05763063E+02
 20
3.25765147E+01
 40
4.18800000E+00
 50
3.42767437E+02
 51
1.72325634E+01
  0
ARC
  8
0
 62
2
 10
-1.05763063E+02
 20
3.25765147E+01
 40
4.18800000E+00
 50
2.82767437E+02
 51
3.17232564E+02
  0
ARC
  8
0
 62
2
 10
-1.05763063E+02
 20
3.25765147E+01
 40
4.18800000E+00
 50
2.22767437E+02
 51
2.57232563E+02
  0
ARC
  8
0
 62
2
 10
-1.05763063E+02
 20
3.25765147E+01
 40
4.18800000E+00
 50
1.62767437E+02
 51
1.97232563E+02
  0
ARC
  8
0
 62
2
 10
-1.05763063E+02
 20
3.25765147E+01
 40
4.18800000E+00
 50
1.02767437E+02
 51
1.37232563E+02
  0
CIRCLE
  8
0
 62
7
 10
-1.05763063E+02
 20
3.25765147E+01
 40
5.00000000E+00
  0
LINE
  8
0
 62
4
 10
-1.05763063E+02
 20
4.06594200E+01
 11
-9.87630618E+01
 21
3.66179674E+01
  0
LINE
  8
0
 62
4
 10
-9.87630618E+01
 20
3.66179674E+01
 11
-9.87630618E+01
 21
2.85350621E+01
  0
LINE
  8
0
 62
4
 10
-9.87630618E+01
 20
2.85350621E+01
 11
-1.05763063E+02
 21
2.44936094E+01
  0
LINE
  8
0
 62
4
 10
-1.05763063E+02
 20
2.44936094E+01
 11
-1.12763064E+02
 21
2.85350621E+01
  0
LINE
  8
0
 62
4
 10
-1.12763064E+02
 20
2.85350621E+01
 11
-1.12763064E+02
 21
3.66179674E+01
  0
LINE
  8
0
 62
4
 10
-1.12763064E+02
 20
3.66179674E+01
 11
-1.05763063E+02
 21
4.06594200E+01
  0
LINE
  8
0
 62
4
 10
-1.09763064E+02
 20
3.02671129E+01
 11
-1.09763064E+02
 21
3.48859165E+01
  0
LINE
  8
0
 62
4
 10
-1.05763063E+02
 20
2.79577111E+01
 11
-1.09763064E+02
 21
3.02671129E+01
  0
LINE
  8
0
 62
4
 10
-1.01763062E+02
 20
3.02671129E+01
 11
-1.05763063E+02
 21
2.79577111E+01
  0
LINE
  8
0
 62
4
 10
-1.01763062E+02
 20
3.48859166E+01
 11
-1.01763062E+02
 21
3.02671129E+01
  0
LINE
  8
0
 62
4
 10
-1.05763063E+02
 20
3.71953184E+01
 11
-1.01763062E+02
 21
3.48859166E+01
  0
LINE
  8
0
 62
4
 10
-1.09763064E+02
 20
3.48859165E+01
 11
-1.05763063E+02
 21
3.71953184E+01
  0
CIRCLE
  8
0
 62
2
 10
-1.05763063E+02
 20
3.25765147E+01
 40
2.06700000E+00
  0
LINE
  8
0
 62
7
 10
-9.72630632E+01
 20
3.68265147E+01
 11
-9.72630632E+01
 21
2.83365147E+01
  0
LINE
  8
0
 62
7
 10
-1.14263063E+02
 20
3.68265147E+01
 11
-1.14263063E+02
 21
2.83365147E+01
  0
LINE
  8
0
 62
7
 10
-1.10003063E+02
 20
2.40765147E+01
 11
-1.01513063E+02
 21
2.40765147E+01
  0
LINE
  8
0
 62
7
 10
-1.10003063E+02
 20
4.10765147E+01
 11
-1.01513063E+02
 21
4.10765147E+01
  0
LINE
  8
0
  6
CENTER
 62
2
 10
-1.15880097E+02
 20
3.25765147E+01
 11
-9.57844804E+01
 21
3.25765147E+01
  0
CIRCLE
  8
0
 62
7
 10
-1.05763063E+02
 20
3.25765163E+01
 40
2.50000000E+00
  0
CIRCLE
  8
0
 62
7
 10
-1.05763063E+02
 20
3.25765163E+01
 40
8.50000000E+00
  0
ARC
  8
0
 62
7
 10
-1.05763062E+02
 20
3.25765155E+01
 40
9.50328788E+00
 50
2.65650491E+01
 51
6.34349507E+01
  0
ARC
  8
0
 62
7
 10
-1.05768056E+02
 20
3.25715314E+01
 40
9.50105392E+00
 50
1.16470741E+02
 51
1.53394604E+02
  0
ARC
  8
0
 62
7
 10
-1.05763062E+02
 20
3.25765155E+01
 40
9.49882200E+00
 50
2.06511102E+02
 51
2.43488897E+02
  0
ARC
  8
0
 62
7
 10
-1.05768048E+02
 20
3.25715232E+01
 40
9.50105596E+00
 50
2.96605401E+02
 51
3.33529254E+02
  0
CIRCLE
  8
0
 62
4
 10
-1.05763063E+02
 20
3.25765163E+01
 40
7.00000000E+00
  0
CIRCLE
  8
0
 62
4
 10
-1.05763063E+02
 20
3.25765163E+01
 40
4.00000000E+00
  0
LINE
  8
0
  6
CENTER
 62
2
 10
1.02236937E+02
 20
5.44910112E+01
 11
1.02236937E+02
 21
2.28265147E+01
  0
ARC
  8
0
 62
4
 10
1.02236937E+02
 20
3.25765147E+01
 40
8.65000000E+00
 50
3.49314255E+02
 51
1.06857449E+01
  0
ARC
  8
0
 62
4
 10
1.02236937E+02
 20
3.25765147E+01
 40
8.65000000E+00
 50
2.59314255E+02
 51
2.80685745E+02
  0
LINE
  8
0
 62
4
 10
1.00736937E+02
 20
4.78765147E+01
 11
1.01036937E+02
 21
4.75765147E+01
  0
LINE
  8
0
 62
4
 10
1.03736937E+02
 20
4.78765147E+01
 11
1.03436937E+02
 21
4.75765147E+01
  0
LINE
  8
0
 62
4
 10
1.00736937E+02
 20
4.78765147E+01
 11
1.01036937E+02
 21
4.75765147E+01
  0
LINE
  8
0
 62
4
 10
1.03736937E+02
 20
4.78765147E+01
 11
1.03436937E+02
 21
4.75765147E+01
  0
LINE
  8
0
 62
4
 10
1.01236937E+02
 20
4.15765147E+01
 11
1.03236937E+02
 21
4.15765147E+01
  0
LINE
  8
0
 62
4
 10
1.00936937E+02
 20
4.25765147E+01
 11
1.03536937E+02
 21
4.25765147E+01
  0
LINE
  8
0
 62
4
 10
1.00936937E+02
 20
4.25765147E+01
 11
1.00186937E+02
 21
4.18765147E+01
  0
LINE
  8
0
 62
4
 10
1.09143328E+02
 20
3.92960762E+01
 11
1.09618668E+02
 21
3.94511631E+01
  0
LINE
  8
0
 62
4
 10
1.07902633E+02
 20
4.30987955E+01
 11
1.07760031E+02
 21
4.30522694E+01
  0
LINE
  8
0
 62
4
 10
1.07161937E+02
 20
4.69810188E+01
 11
1.09618668E+02
 21
3.94511631E+01
  0
LINE
  8
0
 62
4
 10
1.07760045E+02
 20
4.30522245E+01
 11
1.08999476E+02
 21
3.92533826E+01
  0
LINE
  8
0
 62
4
 10
1.06661937E+02
 20
4.69015147E+01
 11
1.09239555E+02
 21
3.90011421E+01
  0
LINE
  8
0
 62
4
 10
9.87369368E+01
 20
4.40765147E+01
 11
9.65880746E+01
 21
4.02146175E+01
  0
LINE
  8
0
 62
4
 10
9.88869368E+01
 20
4.40765147E+01
 11
9.68543911E+01
 21
4.04042801E+01
  0
ARC
  8
0
 62
4
 10
1.02236937E+02
 20
3.25765147E+01
 40
8.65000000E+00
 50
1.69314255E+02
 51
1.90685745E+02
  0
CIRCLE
  8
0
 62
4
 10
1.02236937E+02
 20
4.38765147E+01
 40
1.30000000E+00
  0
LINE
  8
0
 62
4
 10
9.87369368E+01
 20
5.05765147E+01
 11
1.05736937E+02
 21
5.05765147E+01
  0
LINE
  8
0
 62
4
 10
1.05736937E+02
 20
4.92765147E+01
 11
1.05736937E+02
 21
4.33765147E+01
  0
LINE
  8
0
 62
4
 10
9.87369368E+01
 20
4.92765147E+01
 11
9.87369368E+01
 21
4.40765147E+01
  0
LINE
  8
0
 62
4
 10
1.06536937E+02
 20
4.55742925E+01
 11
1.07006455E+02
 21
4.58455698E+01
  0
LINE
  8
0
 62
4
 10
1.07236937E+02
 20
4.88765147E+01
 11
1.07236937E+02
 21
4.71915147E+01
  0
LINE
  8
0
 62
4
 10
1.07236937E+02
 20
4.88765147E+01
 11
1.08036937E+02
 21
4.88765147E+01
  0
LINE
  8
0
 62
4
 10
1.04521937E+02
 20
4.97765147E+01
 11
1.04381937E+02
 21
4.89765147E+01
  0
LINE
  8
0
 62
4
 10
9.99519368E+01
 20
4.97765147E+01
 11
1.00091937E+02
 21
4.89765147E+01
  0
LINE
  8
0
 62
4
 10
1.00091937E+02
 20
4.89765147E+01
 11
1.04381937E+02
 21
4.89765147E+01
  0
LINE
  8
0
 62
6
 10
1.03466937E+02
 20
5.10765147E+01
 11
1.03466937E+02
 21
5.05765147E+01
  0
LINE
  8
0
 62
6
 10
1.01006937E+02
 20
5.10765147E+01
 11
1.01006937E+02
 21
5.05765147E+01
  0
LINE
  8
0
 62
4
 10
9.79369368E+01
 20
4.97765147E+01
 11
9.79369368E+01
 21
4.40765147E+01
  0
LINE
  8
0
 62
4
 10
1.06536937E+02
 20
4.33765147E+01
 11
1.06536937E+02
 21
4.97765147E+01
  0
LINE
  8
0
 62
4
 10
9.92369368E+01
 20
4.97765147E+01
 11
1.05236937E+02
 21
4.97765147E+01
  0
LINE
  8
0
 62
4
 10
1.08036937E+02
 20
4.88765147E+01
 11
1.08036937E+02
 21
4.67315147E+01
  0
LINE
  8
0
 62
4
 10
1.06536937E+02
 20
4.65005147E+01
 11
1.06751042E+02
 21
4.66246955E+01
  0
LINE
  8
0
 62
4
 10
9.88869368E+01
 20
4.92765147E+01
 11
9.88869368E+01
 21
4.40765147E+01
  0
LINE
  8
0
 62
4
 10
9.87369368E+01
 20
4.92765147E+01
 11
9.88869368E+01
 21
4.92765147E+01
  0
LINE
  8
0
 62
4
 10
9.89869368E+01
 20
4.75765147E+01
 11
1.05486937E+02
 21
4.75765147E+01
  0
LINE
  8
0
 62
4
 10
9.89869368E+01
 20
4.68765147E+01
 11
1.05486937E+02
 21
4.68765147E+01
  0
LINE
  8
0
 62
4
 10
1.06661937E+02
 20
4.94015147E+01
 11
1.06661937E+02
 21
4.69015147E+01
  0
LINE
  8
0
 62
4
 10
1.07161937E+02
 20
4.94015147E+01
 11
1.07161937E+02
 21
4.69810188E+01
  0
LINE
  8
0
 62
4
 10
1.06661937E+02
 20
4.94015147E+01
 11
1.07161937E+02
 21
4.94015147E+01
  0
LINE
  8
0
 62
4
 10
1.03736937E+02
 20
5.15765147E+01
 11
1.03736937E+02
 21
5.05765147E+01
  0
LINE
  8
0
 62
4
 10
1.00736937E+02
 20
5.15765147E+01
 11
1.00736937E+02
 21
5.05765147E+01
  0
LINE
  8
0
 62
4
 10
9.79369368E+01
 20
4.40765147E+01
 11
9.87369368E+01
 21
4.40765147E+01
  0
LINE
  8
0
 62
4
 10
1.05736937E+02
 20
4.33765147E+01
 11
1.06536937E+02
 21
4.33765147E+01
  0
LINE
  8
0
 62
4
 10
9.97369368E+01
 20
5.15765147E+01
 11
1.04736937E+02
 21
5.15765147E+01
  0
LINE
  8
0
 62
4
 10
1.00736937E+02
 20
5.30765147E+01
 11
1.03736937E+02
 21
5.30765147E+01
  0
LINE
  8
0
 62
4
 10
9.97369368E+01
 20
5.20765147E+01
 11
9.97369368E+01
 21
5.15765147E+01
  0
LINE
  8
0
 62
4
 10
1.04736937E+02
 20
5.20765147E+01
 11
1.04736937E+02
 21
5.15765147E+01
  0
LINE
  8
0
 62
4
 10
1.00736937E+02
 20
5.10765147E+01
 11
1.03736937E+02
 21
5.10765147E+01
  0
ARC
  8
0
 62
4
 10
9.87369401E+01
 20
4.97765115E+01
 40
8.00003254E-01
 50
9.00000002E+01
 51
1.79999767E+02
  0
ARC
  8
0
 62
4
 10
1.05738599E+02
 20
4.97781773E+01
 40
7.98339134E-01
 50
3.59880678E+02
 51
9.01193227E+01
  0
ARC
  8
0
 62
4
 10
9.92369411E+01
 20
4.92765104E+01
 40
5.00004290E-01
 50
9.00000002E+01
 51
1.79999508E+02
  0
ARC
  8
0
 62
4
 10
1.05238599E+02
 20
4.92781773E+01
 40
4.98340176E-01
 50
3.59808845E+02
 51
9.01911544E+01
  0
ARC
  8
0
 62
4
 10
1.07536733E+02
 20
4.67296490E+01
 40
5.00207143E-01
 50
3.00013240E+02
 51
2.13706628E-01
  0
ARC
  8
0
 62
4
 10
1.06738085E+02
 20
4.71938704E+01
 40
4.98857363E-01
 50
3.30554632E+02
 51
3.59729437E+02
  0
ARC
  8
0
 62
4
 10
1.03738349E+02
 20
5.20779271E+01
 40
9.98588677E-01
 50
3.59918966E+02
 51
9.00810348E+01
  0
ARC
  8
0
 62
4
 10
1.00737190E+02
 20
5.20762620E+01
 40
1.00025280E+00
 50
9.00000002E+01
 51
1.79985521E+02
  0
LINE
  8
0
 62
4
 10
1.05486937E+02
 20
4.75765147E+01
 11
1.05486937E+02
 21
4.10765147E+01
  0
LINE
  8
0
 62
4
 10
9.89869368E+01
 20
4.36765147E+01
 11
9.89869368E+01
 21
4.10765147E+01
  0
LINE
  8
0
 62
4
 10
9.89869368E+01
 20
4.36765147E+01
 11
1.00186937E+02
 21
4.36765147E+01
  0
LINE
  8
0
 62
4
 10
9.89869368E+01
 20
4.40765147E+01
 11
1.00186937E+02
 21
4.40765147E+01
  0
LINE
  8
0
 62
4
 10
9.89869368E+01
 20
4.75765147E+01
 11
9.89869368E+01
 21
4.40765147E+01
  0
LINE
  8
0
 62
4
 10
1.00186937E+02
 20
4.18765147E+01
 11
1.04286937E+02
 21
4.18765147E+01
  0
LINE
  8
0
 62
4
 10
1.00186937E+02
 20
4.58765147E+01
 11
1.04286937E+02
 21
4.58765147E+01
  0
LINE
  8
0
 62
4
 10
1.01236937E+02
 20
4.61765147E+01
 11
1.03236937E+02
 21
4.61765147E+01
  0
LINE
  8
0
 62
4
 10
1.00936937E+02
 20
4.51765147E+01
 11
1.03536937E+02
 21
4.51765147E+01
  0
LINE
  8
0
 62
4
 10
1.01236937E+02
 20
4.61765147E+01
 11
1.01236937E+02
 21
4.58765147E+01
  0
LINE
  8
0
 62
4
 10
1.01236937E+02
 20
4.18765147E+01
 11
1.01236937E+02
 21
4.15765147E+01
  0
LINE
  8
0
 62
4
 10
1.00186937E+02
 20
4.58765147E+01
 11
1.00186937E+02
 21
4.18765147E+01
  0
LINE
  8
0
 62
4
 10
1.00936937E+02
 20
4.51765147E+01
 11
1.00936937E+02
 21
4.25765147E+01
  0
LINE
  8
0
 62
4
 10
1.00186937E+02
 20
4.58765147E+01
 11
1.00936937E+02
 21
4.51765147E+01
  0
LINE
  8
0
 62
4
 10
1.04286937E+02
 20
4.58765147E+01
 11
1.04286937E+02
 21
4.18765147E+01
  0
LINE
  8
0
 62
4
 10
1.03236937E+02
 20
4.61765147E+01
 11
1.03236937E+02
 21
4.58765147E+01
  0
LINE
  8
0
 62
4
 10
1.03236937E+02
 20
4.18765147E+01
 11
1.03236937E+02
 21
4.15765147E+01
  0
LINE
  8
0
 62
4
 10
1.03536937E+02
 20
4.51765147E+01
 11
1.03536937E+02
 21
4.25765147E+01
  0
LINE
  8
0
 62
4
 10
1.03536937E+02
 20
4.51765147E+01
 11
1.04286937E+02
 21
4.58765147E+01
  0
LINE
  8
0
 62
4
 10
1.03536937E+02
 20
4.25765147E+01
 11
1.04286937E+02
 21
4.18765147E+01
  0
LINE
  8
0
 62
4
 10
1.00736937E+02
 20
4.89765147E+01
 11
1.00736937E+02
 21
4.78765147E+01
  0
LINE
  8
0
 62
4
 10
1.03736937E+02
 20
4.89765147E+01
 11
1.03736937E+02
 21
4.78765147E+01
  0
LINE
  8
0
 62
6
 10
1.01006937E+02
 20
4.89765147E+01
 11
1.01006937E+02
 21
4.76065147E+01
  0
LINE
  8
0
 62
6
 10
1.03466937E+02
 20
4.89765147E+01
 11
1.03466937E+02
 21
4.76065147E+01
  0
LINE
  8
0
 62
4
 10
1.07448976E+02
 20
4.61012482E+01
 11
1.07786937E+02
 21
4.62965147E+01
  0
CIRCLE
  8
0
 62
4
 10
1.02236937E+02
 20
3.25765163E+01
 40
4.00000000E+00
  0
CIRCLE
  8
0
 62
4
 10
1.02236937E+02
 20
3.25765163E+01
 40
7.00000000E+00
  0
ARC
  8
0
 62
7
 10
1.02231952E+02
 20
3.25715232E+01
 40
9.50105596E+00
 50
2.96605401E+02
 51
3.33529254E+02
  0
ARC
  8
0
 62
7
 10
1.02236938E+02
 20
3.25765155E+01
 40
9.49882200E+00
 50
2.06511102E+02
 51
2.43488897E+02
  0
ARC
  8
0
 62
7
 10
1.02231944E+02
 20
3.25715314E+01
 40
9.50105392E+00
 50
1.16470741E+02
 51
1.53394604E+02
  0
ARC
  8
0
 62
7
 10
1.02236938E+02
 20
3.25765155E+01
 40
9.50328788E+00
 50
2.65650491E+01
 51
6.34349507E+01
  0
CIRCLE
  8
0
 62
7
 10
1.02236937E+02
 20
3.25765163E+01
 40
8.50000000E+00
  0
CIRCLE
  8
0
 62
7
 10
1.02236937E+02
 20
3.25765163E+01
 40
2.50000000E+00
  0
LINE
  8
0
  6
CENTER
 62
2
 10
9.21262978E+01
 20
3.25765147E+01
 11
1.12245900E+02
 21
3.25765147E+01
  0
LINE
  8
0
 62
7
 10
9.79969368E+01
 20
4.10765147E+01
 11
1.06486937E+02
 21
4.10765147E+01
  0
LINE
  8
0
 62
7
 10
9.79969368E+01
 20
2.40765147E+01
 11
1.06486937E+02
 21
2.40765147E+01
  0
LINE
  8
0
 62
7
 10
9.37369368E+01
 20
3.68265147E+01
 11
9.37369368E+01
 21
2.83365147E+01
  0
LINE
  8
0
 62
7
 10
1.10736937E+02
 20
3.68265147E+01
 11
1.10736937E+02
 21
2.83365147E+01
  0
CIRCLE
  8
0
 62
2
 10
1.02236937E+02
 20
3.25765147E+01
 40
2.06700000E+00
  0
LINE
  8
0
 62
4
 10
9.82369355E+01
 20
3.48859165E+01
 11
1.02236937E+02
 21
3.71953184E+01
  0
LINE
  8
0
 62
4
 10
1.02236937E+02
 20
3.71953184E+01
 11
1.06236938E+02
 21
3.48859166E+01
  0
LINE
  8
0
 62
4
 10
1.06236938E+02
 20
3.48859166E+01
 11
1.06236938E+02
 21
3.02671129E+01
  0
LINE
  8
0
 62
4
 10
1.06236938E+02
 20
3.02671129E+01
 11
1.02236937E+02
 21
2.79577111E+01
  0
LINE
  8
0
 62
4
 10
1.02236937E+02
 20
2.79577111E+01
 11
9.82369355E+01
 21
3.02671129E+01
  0
LINE
  8
0
 62
4
 10
9.82369355E+01
 20
3.02671129E+01
 11
9.82369355E+01
 21
3.48859165E+01
  0
LINE
  8
0
 62
4
 10
9.52369355E+01
 20
3.66179674E+01
 11
1.02236937E+02
 21
4.06594200E+01
  0
LINE
  8
0
 62
4
 10
9.52369355E+01
 20
2.85350621E+01
 11
9.52369355E+01
 21
3.66179674E+01
  0
LINE
  8
0
 62
4
 10
1.02236937E+02
 20
2.44936094E+01
 11
9.52369355E+01
 21
2.85350621E+01
  0
LINE
  8
0
 62
4
 10
1.09236938E+02
 20
2.85350621E+01
 11
1.02236937E+02
 21
2.44936094E+01
  0
LINE
  8
0
 62
4
 10
1.09236938E+02
 20
3.66179674E+01
 11
1.09236938E+02
 21
2.85350621E+01
  0
LINE
  8
0
 62
4
 10
1.02236937E+02
 20
4.06594200E+01
 11
1.09236938E+02
 21
3.66179674E+01
  0
CIRCLE
  8
0
 62
7
 10
1.02236937E+02
 20
3.25765147E+01
 40
5.00000000E+00
  0
ARC
  8
0
 62
2
 10
1.02236937E+02
 20
3.25765147E+01
 40
4.18800000E+00
 50
1.02767437E+02
 51
1.37232563E+02
  0
ARC
  8
0
 62
2
 10
1.02236937E+02
 20
3.25765147E+01
 40
4.18800000E+00
 50
1.62767437E+02
 51
1.97232563E+02
  0
ARC
  8
0
 62
2
 10
1.02236937E+02
 20
3.25765147E+01
 40
4.18800000E+00
 50
2.22767437E+02
 51
2.57232563E+02
  0
ARC
  8
0
 62
2
 10
1.02236937E+02
 20
3.25765147E+01
 40
4.18800000E+00
 50
2.82767437E+02
 51
3.17232564E+02
  0
ARC
  8
0
 62
2
 10
1.02236937E+02
 20
3.25765147E+01
 40
4.18800000E+00
 50
3.42767437E+02
 51
1.72325634E+01
  0
ARC
  8
0
 62
2
 10
1.02236937E+02
 20
3.25765147E+01
 40
4.18800000E+00
 50
4.27674369E+01
 51
7.72325633E+01
  0
LINE
  8
0
  6
CENTER
 62
6
 10
6.09693683E+00
 20
8.59085347E+01
 11
6.09693683E+00
 21
6.59085361E+01
  0
LINE
  8
0
 62
4
 10
-6.40306317E+00
 20
7.69085361E+01
 11
-5.40306317E+00
 21
7.79085361E+01
  0
LINE
  8
0
 62
4
 10
-9.03063171E-01
 20
7.26585361E+01
 11
-9.03063171E-01
 21
7.91585361E+01
  0
LINE
  8
0
 62
4
 10
-5.40306317E+00
 20
7.79085361E+01
 11
-5.40306317E+00
 21
7.39085361E+01
  0
LINE
  8
0
 62
4
 10
-5.40306317E+00
 20
7.79085361E+01
 11
-9.03063171E-01
 21
7.79085361E+01
  0
LINE
  8
0
 62
4
 10
-9.03063171E-01
 20
7.91585361E+01
 11
1.59693683E+00
 21
7.91585361E+01
  0
LINE
  8
0
 62
4
 10
-6.40306317E+00
 20
7.69085361E+01
 11
-6.40306317E+00
 21
7.49085361E+01
  0
LINE
  8
0
 62
4
 10
-6.40306317E+00
 20
7.49085361E+01
 11
-5.40306317E+00
 21
7.39085361E+01
  0
LINE
  8
0
 62
4
 10
-5.40306317E+00
 20
7.39085361E+01
 11
-9.03063171E-01
 21
7.39085361E+01
  0
LINE
  8
0
 62
4
 10
-9.03063171E-01
 20
7.26585361E+01
 11
1.59693683E+00
 21
7.26585361E+01
  0
CIRCLE
  8
0
 62
4
 10
6.09606158E+00
 20
7.59060776E+01
 40
2.50000000E+00
  0
LINE
  8
0
 62
4
 10
5.03437024E+00
 20
7.48459695E+01
 11
7.15437024E+00
 21
7.69659695E+01
  0
LINE
  8
0
 62
4
 10
7.10437024E+00
 20
7.49059695E+01
 11
5.03437024E+00
 21
7.69659695E+01
  0
LINE
  8
0
 62
4
 10
4.09693683E+00
 20
8.08335361E+01
 11
4.09693683E+00
 21
8.17085361E+01
  0
LINE
  8
0
 62
4
 10
1.59693683E+00
 20
6.72585361E+01
 11
1.59693683E+00
 21
8.45585361E+01
  0
LINE
  8
0
 62
4
 10
1.05969368E+01
 20
7.26585361E+01
 11
1.30969368E+01
 21
7.26585361E+01
  0
LINE
  8
0
 62
4
 10
1.30969368E+01
 20
7.39085361E+01
 11
1.85969368E+01
 21
7.39085361E+01
  0
LINE
  8
0
 62
4
 10
1.30969368E+01
 20
7.79085361E+01
 11
1.85969368E+01
 21
7.79085361E+01
  0
LINE
  8
0
 62
4
 10
1.30969368E+01
 20
7.26585361E+01
 11
1.30969368E+01
 21
7.91585361E+01
  0
LINE
  8
0
 62
4
 10
1.05969368E+01
 20
7.91585361E+01
 11
1.30969368E+01
 21
7.91585361E+01
  0
LINE
  8
0
 62
4
 10
1.85969368E+01
 20
7.79085361E+01
 11
1.85969368E+01
 21
7.39085361E+01
  0
LINE
  8
0
 62
4
 10
1.85969368E+01
 20
7.79085361E+01
 11
2.15969368E+01
 21
7.72085361E+01
  0
LINE
  8
0
 62
4
 10
2.15969368E+01
 20
7.72085361E+01
 11
2.65339359E+01
 21
7.72085361E+01
  0
LINE
  8
0
 62
4
 10
2.15969368E+01
 20
7.72085361E+01
 11
2.15969368E+01
 21
7.46085361E+01
  0
LINE
  8
0
 62
4
 10
1.85969368E+01
 20
7.39085361E+01
 11
2.15969368E+01
 21
7.46085361E+01
  0
LINE
  8
0
 62
4
 10
2.15969368E+01
 20
7.46085361E+01
 11
2.39339359E+01
 21
7.46085361E+01
  0
LINE
  8
0
 62
6
 10
2.65339359E+01
 20
7.72085361E+01
 11
2.39339359E+01
 21
7.46085361E+01
  0
LINE
  8
0
 62
4
 10
1.59693683E+00
 20
6.72585361E+01
 11
1.05969368E+01
 21
6.72585361E+01
  0
LINE
  8
0
 62
4
 10
1.59693686E+00
 20
7.16085361E+01
 11
1.05969368E+01
 21
7.16085361E+01
  0
LINE
  8
0
 62
4
 10
8.09693683E+00
 20
8.17085361E+01
 11
8.09693683E+00
 21
8.08335361E+01
  0
LINE
  8
0
 62
4
 10
1.59693683E+00
 20
8.45585361E+01
 11
1.05969368E+01
 21
8.45585361E+01
  0
LINE
  8
0
 62
4
 10
4.09693686E+00
 20
8.09085361E+01
 11
8.09693683E+00
 21
8.09085361E+01
  0
LINE
  8
0
 62
4
 10
4.09693686E+00
 20
8.17085361E+01
 11
8.09693686E+00
 21
8.17085361E+01
  0
LINE
  8
0
 62
4
 10
1.59693686E+00
 20
8.32835361E+01
 11
1.05969368E+01
 21
8.32835361E+01
  0
LINE
  8
0
 62
4
 10
1.59693686E+00
 20
8.03335361E+01
 11
1.05969369E+01
 21
8.03335361E+01
  0
LINE
  8
0
 62
4
 10
1.59693686E+00
 20
8.08335361E+01
 11
1.05969369E+01
 21
8.08335361E+01
  0
LINE
  8
0
 62
4
 10
1.59693686E+00
 20
8.02085361E+01
 11
1.05969369E+01
 21
8.02085361E+01
  0
LINE
  8
0
 62
4
 10
1.05969368E+01
 20
6.72585361E+01
 11
1.05969368E+01
 21
8.45585361E+01
  0
LINE
  8
0
  6
CENTER
 62
6
 10
-8.12926790E+00
 20
7.59085361E+01
 11
2.83399872E+01
 21
7.59085361E+01
  0
LINE
  8
0
  6
CENTER
 62
6
 10
-9.11263117E+01
 20
-4.10748853E+01
 11
-9.11263117E+01
 21
-4.73890238E+01
  0
LINE
  8
0
  6
CENTER
 62
6
 10
-1.20326312E+02
 20
-4.10748853E+01
 11
-1.20326312E+02
 21
-4.73890238E+01
  0
LINE
  8
0
 62
4
 10
-1.26726312E+02
 20
-4.56294654E+01
 11
-8.47263117E+01
 21
-4.56294654E+01
  0
LINE
  8
0
 62
4
 10
-8.47263117E+01
 20
-4.33294654E+01
 11
-8.47263117E+01
 21
-4.56294654E+01
  0
LINE
  8
0
 62
4
 10
-1.26726312E+02
 20
-4.33294654E+01
 11
-1.26726312E+02
 21
-4.56294654E+01
  0
LINE
  8
0
  6
CENTER
 62
6
 10
-1.05726312E+02
 20
-2.32307565E+01
 11
-1.05726312E+02
 21
-3.99052023E+01
  0
LINE
  8
0
  6
CENTER
 62
6
 10
-1.13226312E+02
 20
-3.16294654E+01
 11
-9.82263117E+01
 21
-3.16294654E+01
  0
CIRCLE
  8
0
 62
4
 10
-1.05726312E+02
 20
-3.16294654E+01
 40
5.00000000E+00
  0
LINE
  8
0
 62
4
 10
-1.26726312E+02
 20
-4.33294654E+01
 11
-8.47263117E+01
 21
-4.33294654E+01
  0
ARC
  8
0
 62
4
 10
-1.05726312E+02
 20
-3.16294654E+01
 40
1.00000000E+01
 50
3.62946002E+01
 51
1.43705400E+02
  0
LINE
  8
0
 62
4
 10
-8.47263117E+01
 20
-4.33294654E+01
 11
-9.76664710E+01
 21
-2.57100932E+01
  0
LINE
  8
0
 62
4
 10
-1.26726312E+02
 20
-4.33294654E+01
 11
-1.13786152E+02
 21
-2.57100932E+01
  0
LINE
  8
0
 62
4
 10
-6.38263117E+01
 20
-2.16294654E+01
 11
-6.38263117E+01
 21
-4.21794654E+01
  0
LINE
  8
0
 62
4
 10
-6.61263117E+01
 20
-2.16294654E+01
 11
-6.38263117E+01
 21
-2.16294654E+01
  0
LINE
  8
0
 62
4
 10
-7.88263117E+01
 20
-4.56294654E+01
 11
-6.72763117E+01
 21
-4.56294654E+01
  0
LINE
  8
0
 62
4
 10
-7.88263117E+01
 20
-4.33294654E+01
 11
-7.88263117E+01
 21
-4.56294654E+01
  0
LINE
  8
0
  6
CENTER
 62
6
 10
-6.86744785E+01
 20
-3.16294654E+01
 11
-6.13263117E+01
 21
-3.16294654E+01
  0
LINE
  8
0
 62
4
 10
-6.61263117E+01
 20
-2.16294654E+01
 11
-6.61263117E+01
 21
-4.21794654E+01
  0
LINE
  8
0
 62
4
 10
-7.88263117E+01
 20
-4.33294654E+01
 11
-6.72763117E+01
 21
-4.33294654E+01
  0
ARC
  8
0
 62
4
 10
-6.72763117E+01
 20
-4.21794654E+01
 40
1.15000000E+00
 50
2.70000000E+02
 51
0.00000000E+00
  0
ARC
  8
0
 62
4
 10
-6.72763117E+01
 20
-4.21794654E+01
 40
3.45000000E+00
 50
2.70000000E+02
 51
0.00000000E+00
  0
LINE
  8
0
  6
CENTER
 62
6
 10
-7.28263117E+01
 20
-4.10748853E+01
 11
-7.28263117E+01
 21
-4.73890238E+01
  0
LINE
  8
0
 62
4
 10
-7.02263117E+01
 20
-4.33294654E+01
 11
-7.02263117E+01
 21
-4.56294654E+01
  0
LINE
  8
0
 62
4
 10
-7.54263117E+01
 20
-4.33294654E+01
 11
-7.54263117E+01
 21
-4.56294654E+01
  0
LINE
  8
0
  6
CENTER
 62
6
 10
-1.05726312E+02
 20
4.66053456E+00
 11
-1.05726312E+02
 21
-1.29694654E+01
  0
LINE
  8
0
 62
4
 10
-1.26726312E+02
 20
9.70534561E-01
 11
-8.47263117E+01
 21
9.70534561E-01
  0
LINE
  8
0
 62
4
 10
-8.47263117E+01
 20
3.27053456E+00
 11
-8.47263117E+01
 21
-3.12946544E+00
  0
LINE
  8
0
 62
4
 10
-1.26726312E+02
 20
3.27053456E+00
 11
-8.47263117E+01
 21
3.27053456E+00
  0
LINE
  8
0
 62
4
 10
-1.26726312E+02
 20
-1.17294654E+01
 11
-8.47263117E+01
 21
-1.17294654E+01
  0
LINE
  8
0
  6
CENTER
 62
6
 10
-1.23629276E+02
 20
-5.72946544E+00
 11
-8.82916887E+01
 21
-5.72946544E+00
  0
LINE
  8
0
 62
4
 10
-8.47263117E+01
 20
-8.32946544E+00
 11
-8.47263117E+01
 21
-1.17294654E+01
  0
ARC
  8
0
 62
4
 10
-9.11263117E+01
 20
-5.72946544E+00
 40
2.60000000E+00
 50
9.00000002E+01
 51
2.70000000E+02
  0
LINE
  8
0
  6
CENTER
 62
6
 10
-9.11263117E+01
 20
-9.40243514E+00
 11
-9.11263117E+01
 21
-2.18292106E+00
  0
LINE
  8
0
 62
4
 10
-9.11263117E+01
 20
-8.32946544E+00
 11
-8.47263117E+01
 21
-8.32946544E+00
  0
LINE
  8
0
 62
4
 10
-9.11263117E+01
 20
-3.12946544E+00
 11
-8.47263117E+01
 21
-3.12946544E+00
  0
ARC
  8
0
 62
4
 10
-1.20326312E+02
 20
-5.72946544E+00
 40
2.60000000E+00
 50
2.70000000E+02
 51
9.00000002E+01
  0
LINE
  8
0
  6
CENTER
 62
6
 10
-1.20326312E+02
 20
-9.56286879E+00
 11
-1.20326312E+02
 21
-2.07596529E+00
  0
LINE
  8
0
 62
4
 10
-1.20326312E+02
 20
-8.32946544E+00
 11
-1.26726312E+02
 21
-8.32946544E+00
  0
LINE
  8
0
 62
4
 10
-1.20326312E+02
 20
-3.12946544E+00
 11
-1.26726312E+02
 21
-3.12946544E+00
  0
LINE
  8
0
 62
4
 10
-1.26726312E+02
 20
-8.32946544E+00
 11
-1.26726312E+02
 21
-1.17294654E+01
  0
LINE
  8
0
 62
4
 10
-1.26726312E+02
 20
3.27053456E+00
 11
-1.26726312E+02
 21
-3.12946544E+00
  0
LINE
  8
0
  6
CENTER
 62
6
 10
-1.07263117E+01
 20
-2.19294654E+01
 11
-1.07263117E+01
 21
-3.64394654E+01
  0
ARC
  8
0
 62
4
 10
3.87368830E+00
 20
-2.91294654E+01
 40
2.60000000E+00
 50
9.00000002E+01
 51
2.70000000E+02
  0
ARC
  8
0
 62
4
 10
-2.53263117E+01
 20
-2.91294654E+01
 40
2.60000000E+00
 50
2.70000000E+02
 51
9.00000002E+01
  0
CIRCLE
  8
0
 62
4
 10
-1.07263117E+01
 20
-2.91294654E+01
 40
5.00000000E+00
  0
LINE
  8
0
  6
CENTER
 62
6
 10
-2.53263117E+01
 20
-2.53694202E+01
 11
-2.53263117E+01
 21
-3.30723884E+01
  0
LINE
  8
0
  6
CENTER
 62
6
 10
3.87368830E+00
 20
-2.53694202E+01
 11
3.87368830E+00
 21
-3.30723884E+01
  0
LINE
  8
0
  6
CENTER
 62
6
 10
-2.83663117E+01
 20
-2.91294654E+01
 11
6.54378496E+00
 21
-2.91294654E+01
  0
LINE
  8
0
 62
4
 10
-3.17263117E+01
 20
-3.17294654E+01
 11
-2.53263117E+01
 21
-3.17294654E+01
  0
LINE
  8
0
 62
4
 10
3.87368830E+00
 20
-3.17294654E+01
 11
1.02736883E+01
 21
-3.17294654E+01
  0
LINE
  8
0
 62
4
 10
-3.17263117E+01
 20
-3.91294654E+01
 11
1.02736883E+01
 21
-3.91294654E+01
  0
LINE
  8
0
 62
4
 10
1.02736883E+01
 20
-3.17294654E+01
 11
1.02736883E+01
 21
-3.91294654E+01
  0
LINE
  8
0
 62
4
 10
-3.17263117E+01
 20
-3.17294654E+01
 11
-3.17263117E+01
 21
-3.91294654E+01
  0
LINE
  8
0
 62
4
 10
1.02736883E+01
 20
-1.91294654E+01
 11
1.02736883E+01
 21
-2.65294654E+01
  0
LINE
  8
0
 62
4
 10
-3.17263117E+01
 20
-1.91294654E+01
 11
-3.17263117E+01
 21
-2.65294654E+01
  0
LINE
  8
0
 62
4
 10
-3.17263117E+01
 20
-2.06294654E+01
 11
-3.17263117E+01
 21
-2.29294654E+01
  0
LINE
  8
0
 62
4
 10
-3.17263117E+01
 20
-2.65294654E+01
 11
-2.53263117E+01
 21
-2.65294654E+01
  0
LINE
  8
0
 62
4
 10
3.87368830E+00
 20
-2.65294654E+01
 11
1.02736883E+01
 21
-2.65294654E+01
  0
LINE
  8
0
 62
4
 10
-3.17263117E+01
 20
-1.91294654E+01
 11
1.02736883E+01
 21
-1.91294654E+01
  0
LINE
  8
0
 62
4
 10
2.02736883E+01
 20
-1.91294654E+01
 11
2.02736883E+01
 21
-3.91294654E+01
  0
LINE
  8
0
 62
4
 10
2.25736883E+01
 20
-1.91294654E+01
 11
2.25736883E+01
 21
-3.91294654E+01
  0
LINE
  8
0
 62
4
 10
2.02736883E+01
 20
-3.17294654E+01
 11
2.25736883E+01
 21
-3.17294654E+01
  0
LINE
  8
0
 62
4
 10
2.02736883E+01
 20
-3.91294654E+01
 11
2.25736883E+01
 21
-3.91294654E+01
  0
LINE
  8
0
 62
4
 10
2.02736883E+01
 20
-2.65294654E+01
 11
2.25736883E+01
 21
-2.65294654E+01
  0
LINE
  8
0
 62
4
 10
2.02736883E+01
 20
-1.91294654E+01
 11
2.25736883E+01
 21
-1.91294654E+01
  0
LINE
  8
0
  6
CENTER
 62
6
 10
1.78709590E+01
 20
-2.91294654E+01
 11
2.48100080E+01
 21
-2.91294654E+01
  0
LINE
  8
0
  6
CENTER
 62
6
 10
-1.07263117E+01
 20
4.30694872E+00
 11
-1.07263117E+01
 21
-1.89452885E+00
  0
LINE
  8
0
 62
4
 10
-3.17263117E+01
 20
2.37053456E+00
 11
1.02736883E+01
 21
2.37053456E+00
  0
LINE
  8
0
 62
4
 10
-3.17263117E+01
 20
7.05345614E-02
 11
1.02736883E+01
 21
7.05345614E-02
  0
LINE
  8
0
  6
CENTER
 62
6
 10
-2.53263117E+01
 20
4.30694872E+00
 11
-2.53263117E+01
 21
-1.89452885E+00
  0
LINE
  8
0
 62
4
 10
-3.17263117E+01
 20
7.05345614E-02
 11
-3.17263117E+01
 21
2.37053456E+00
  0
LINE
  8
0
  6
CENTER
 62
6
 10
3.87368833E+00
 20
4.30694872E+00
 11
3.87368833E+00
 21
-1.89452885E+00
  0
LINE
  8
0
 62
4
 10
1.02736883E+01
 20
2.37053456E+00
 11
1.02736883E+01
 21
7.05345614E-02
  0
LINE
  8
0
 62
7
 10
5.96000061E+01
 20
-5.98000031E+01
 11
5.96000061E+01
 21
-8.98000031E+01
  0
LINE
  8
0
 62
7
 10
-1.33399994E+02
 20
-8.98000031E+01
 11
5.96000061E+01
 21
-8.98000031E+01
  0
LINE
  8
0
 62
7
 10
-1.33399994E+02
 20
-8.38000031E+01
 11
5.96000061E+01
 21
-8.38000031E+01
  0
LINE
  8
0
 62
7
 10
-1.08399994E+02
 20
-5.98000031E+01
 11
-1.08399994E+02
 21
-8.98000031E+01
  0
LINE
  8
0
 62
7
 10
-9.63999939E+01
 20
-5.98000031E+01
 11
-9.63999939E+01
 21
-8.98000031E+01
  0
LINE
  8
0
 62
7
 10
-8.43999939E+01
 20
-5.98000031E+01
 11
-8.43999939E+01
 21
-8.98000031E+01
  0
LINE
  8
0
 62
7
 10
-7.23999939E+01
 20
-5.98000031E+01
 11
-7.23999939E+01
 21
-8.98000031E+01
  0
LINE
  8
0
 62
7
 10
-6.03999939E+01
 20
-5.98000031E+01
 11
-6.03999939E+01
 21
-8.98000031E+01
  0
LINE
  8
0
 62
7
 10
-1.33399994E+02
 20
-5.98000031E+01
 11
5.96000061E+01
 21
-5.98000031E+01
  0
LINE
  8
0
 62
7
 10
-1.33399994E+02
 20
-7.78000031E+01
 11
5.96000061E+01
 21
-7.78000031E+01
  0
LINE
  8
0
 62
7
 10
-1.08399994E+02
 20
-7.78000031E+01
 11
-1.10509994E+02
 21
-6.58000031E+01
  0
LINE
  8
0
 62
7
 10
-1.33399994E+02
 20
-6.58000031E+01
 11
-1.10509994E+02
 21
-6.58000031E+01
  0
LINE
  8
0
 62
7
 10
-1.33399994E+02
 20
-5.98000031E+01
 11
-1.33399994E+02
 21
-8.98000031E+01
  0
TEXT
  8
0
 62
7
 10
-1.29037469E+02
 20
-6.43963843E+01
 40
3.20000005E+00
  1
STROKE
 41
1.00000000E+00
  7
MONOTXT
  0
TEXT
  8
0
 62
7
 10
-6.91374690E+01
 20
-7.03963805E+01
 40
3.20000005E+00
  1
20
 41
1.00000000E+00
  7
MONOTXT
  0
TEXT
  8
0
 62
7
 10
-8.11374690E+01
 20
-7.03963805E+01
 40
3.20000005E+00
  1
15
 41
1.00000000E+00
  7
MONOTXT
  0
TEXT
  8
0
 62
7
 10
-9.31374690E+01
 20
-7.03963805E+01
 40
3.20000005E+00
  1
10
 41
1.00000000E+00
  7
MONOTXT
  0
TEXT
  8
0
 62
7
 10
-1.03537469E+02
 20
-7.03963805E+01
 40
3.20000005E+00
  1
5
 41
1.00000000E+00
  7
MONOTXT
  0
TEXT
  8
0
 62
7
 10
-7.07374691E+01
 20
-8.24000031E+01
 40
3.20000005E+00
  1
-10
 41
1.00000000E+00
  7
MONOTXT
  0
TEXT
  8
0
 62
7
 10
-8.27374691E+01
 20
-8.24000031E+01
 40
3.20000005E+00
  1
-15
 41
1.00000000E+00
  7
MONOTXT
  0
TEXT
  8
0
 62
7
 10
-9.47374691E+01
 20
-8.24000031E+01
 40
3.20000005E+00
  1
-20
 41
1.00000000E+00
  7
MONOTXT
  0
TEXT
  8
0
 62
7
 10
-1.06737469E+02
 20
-8.24000031E+01
 40
3.20000005E+00
  1
-25
 41
1.00000000E+00
  7
MONOTXT
  0
TEXT
  8
0
 62
7
 10
-1.32241000E+02
 20
-7.19763780E+01
 40
3.20000005E+00
  1
STRETCH
 41
1.00000000E+00
  7
MONOTXT
  0
TEXT
  8
0
 62
7
 10
-1.32241000E+02
 20
-7.67763782E+01
 40
3.20000005E+00
  1
  PLACE
 41
1.20689655E+00
  7
MONOTXT
  0
TEXT
  8
0
 62
7
 10
-1.22037469E+02
 20
-8.24000031E+01
 40
3.20000005E+00
  1
A
 41
1.00000000E+00
  7
MONOTXT
  0
TEXT
  8
0
 62
7
 10
-1.22037469E+02
 20
-8.84000031E+01
 40
3.20000005E+00
  1
B
 41
1.00000000E+00
  7
MONOTXT
  0
TEXT
  8
0
 62
7
 10
-7.07374691E+01
 20
-8.84000011E+01
 40
3.20000005E+00
  1
-10
 41
1.00000000E+00
  7
MONOTXT
  0
TEXT
  8
0
 62
7
 10
-8.27374691E+01
 20
-8.84000011E+01
 40
3.20000005E+00
  1
-15
 41
1.00000000E+00
  7
MONOTXT
  0
TEXT
  8
0
 62
7
 10
-9.47374691E+01
 20
-8.84000011E+01
 40
3.20000005E+00
  1
-20
 41
1.00000000E+00
  7
MONOTXT
  0
TEXT
  8
0
 62
7
 10
-1.06737469E+02
 20
-8.84000011E+01
 40
3.20000005E+00
  1
-25
 41
1.00000000E+00
  7
MONOTXT
  0
TEXT
  8
0
 62
7
 10
-5.71374690E+01
 20
-7.03963805E+01
 40
3.20000005E+00
  1
25
 41
1.00000000E+00
  7
MONOTXT
  0
TEXT
  8
0
 62
7
 10
-5.71374690E+01
 20
-8.24000031E+01
 40
3.20000005E+00
  1
-5
 41
1.00000000E+00
  7
MONOTXT
  0
TEXT
  8
0
 62
7
 10
-5.71374690E+01
 20
-8.84000011E+01
 40
3.20000005E+00
  1
-5
 41
1.00000000E+00
  7
MONOTXT
  0
TEXT
  8
0
 62
7
 10
-4.51374690E+01
 20
-7.03963805E+01
 40
3.20000005E+00
  1
30
 41
1.00000000E+00
  7
MONOTXT
  0
TEXT
  8
0
 62
7
 10
-4.35374690E+01
 20
-8.24000031E+01
 40
3.20000005E+00
  1
0
 41
1.00000000E+00
  7
MONOTXT
  0
TEXT
  8
0
 62
7
 10
-4.35374690E+01
 20
-8.84000011E+01
 40
3.20000005E+00
  1
0
 41
1.00000000E+00
  7
MONOTXT
  0
TEXT
  8
0
 62
7
 10
-3.31374690E+01
 20
-7.03963805E+01
 40
3.20000005E+00
  1
35
 41
1.00000000E+00
  7
MONOTXT
  0
TEXT
  8
0
 62
7
 10
-3.15374690E+01
 20
-8.24000031E+01
 40
3.20000005E+00
  1
5
 41
1.00000000E+00
  7
MONOTXT
  0
TEXT
  8
0
 62
7
 10
-3.15374690E+01
 20
-8.84000011E+01
 40
3.20000005E+00
  1
5
 41
1.00000000E+00
  7
MONOTXT
  0
TEXT
  8
0
 62
7
 10
-2.11374690E+01
 20
-7.03963805E+01
 40
3.20000005E+00
  1
40
 41
1.00000000E+00
  7
MONOTXT
  0
TEXT
  8
0
 62
7
 10
-2.11374690E+01
 20
-8.24000031E+01
 40
3.20000005E+00
  1
10
 41
1.00000000E+00
  7
MONOTXT
  0
TEXT
  8
0
 62
7
 10
-2.11374690E+01
 20
-8.84000011E+01
 40
3.20000005E+00
  1
10
 41
1.00000000E+00
  7
MONOTXT
  0
TEXT
  8
0
 62
7
 10
-9.13746902E+00
 20
-7.03963805E+01
 40
3.20000005E+00
  1
45
 41
1.00000000E+00
  7
MONOTXT
  0
TEXT
  8
0
 62
7
 10
-9.13746902E+00
 20
-8.24000031E+01
 40
3.20000005E+00
  1
15
 41
1.00000000E+00
  7
MONOTXT
  0
TEXT
  8
0
 62
7
 10
-9.13746902E+00
 20
-8.84000011E+01
 40
3.20000005E+00
  1
15
 41
1.00000000E+00
  7
MONOTXT
  0
TEXT
  8
0
 62
7
 10
2.86253098E+00
 20
-7.03963805E+01
 40
3.20000005E+00
  1
50
 41
1.00000000E+00
  7
MONOTXT
  0
TEXT
  8
0
 62
7
 10
2.86253098E+00
 20
-8.24000031E+01
 40
3.20000005E+00
  1
20
 41
1.00000000E+00
  7
MONOTXT
  0
TEXT
  8
0
 62
7
 10
2.86253098E+00
 20
-8.84000011E+01
 40
3.20000005E+00
  1
20
 41
1.00000000E+00
  7
MONOTXT
  0
TEXT
  8
0
 62
7
 10
1.48625310E+01
 20
-7.03963805E+01
 40
3.20000005E+00
  1
55
 41
1.00000000E+00
  7
MONOTXT
  0
TEXT
  8
0
 62
7
 10
1.48625310E+01
 20
-8.24000031E+01
 40
3.20000005E+00
  1
25
 41
1.00000000E+00
  7
MONOTXT
  0
TEXT
  8
0
 62
7
 10
1.48625310E+01
 20
-8.84000011E+01
 40
3.20000005E+00
  1
25
 41
1.00000000E+00
  7
MONOTXT
  0
TEXT
  8
0
 62
7
 10
2.68625310E+01
 20
-7.03963805E+01
 40
3.20000005E+00
  1
60
 41
1.00000000E+00
  7
MONOTXT
  0
TEXT
  8
0
 62
7
 10
2.68625310E+01
 20
-8.24000031E+01
 40
3.20000005E+00
  1
30
 41
1.00000000E+00
  7
MONOTXT
  0
TEXT
  8
0
 62
7
 10
2.68625310E+01
 20
-8.84000011E+01
 40
3.20000005E+00
  1
30
 41
1.00000000E+00
  7
MONOTXT
  0
TEXT
  8
0
 62
7
 10
3.88625310E+01
 20
-7.03963805E+01
 40
3.20000005E+00
  1
75
 41
1.00000000E+00
  7
MONOTXT
  0
TEXT
  8
0
 62
7
 10
3.88625310E+01
 20
-8.24000031E+01
 40
3.20000005E+00
  1
45
 41
1.00000000E+00
  7
MONOTXT
  0
TEXT
  8
0
 62
7
 10
3.88625310E+01
 20
-8.84000011E+01
 40
3.20000005E+00
  1
45
 41
1.00000000E+00
  7
MONOTXT
  0
TEXT
  8
0
 62
7
 10
4.92625309E+01
 20
-7.03963805E+01
 40
3.20000005E+00
  1
100
 41
1.00000000E+00
  7
MONOTXT
  0
TEXT
  8
0
 62
7
 10
5.08625310E+01
 20
-8.24000031E+01
 40
3.20000005E+00
  1
70
 41
1.00000000E+00
  7
MONOTXT
  0
TEXT
  8
0
 62
7
 10
5.08625310E+01
 20
-8.84000011E+01
 40
3.20000005E+00
  1
70
 41
1.00000000E+00
  7
MONOTXT
  0
LINE
  8
0
 62
7
 10
-4.83999939E+01
 20
-5.98000031E+01
 11
-4.83999939E+01
 21
-8.98000031E+01
  0
LINE
  8
0
 62
7
 10
-3.63999939E+01
 20
-5.98000031E+01
 11
-3.63999939E+01
 21
-8.98000031E+01
  0
LINE
  8
0
 62
7
 10
-2.43999939E+01
 20
-5.98000031E+01
 11
-2.43999939E+01
 21
-8.98000031E+01
  0
LINE
  8
0
 62
7
 10
-1.23999939E+01
 20
-5.98000031E+01
 11
-1.23999939E+01
 21
-8.98000031E+01
  0
LINE
  8
0
 62
7
 10
-3.99993896E-01
 20
-5.98000031E+01
 11
-3.99993896E-01
 21
-8.98000031E+01
  0
LINE
  8
0
 62
7
 10
1.16000061E+01
 20
-5.98000031E+01
 11
1.16000061E+01
 21
-8.98000031E+01
  0
LINE
  8
0
 62
7
 10
2.36000061E+01
 20
-5.98000031E+01
 11
2.36000061E+01
 21
-8.98000031E+01
  0
LINE
  8
0
 62
7
 10
3.56000061E+01
 20
-5.98000031E+01
 11
3.56000061E+01
 21
-8.98000031E+01
  0
LINE
  8
0
 62
7
 10
4.76000061E+01
 20
-5.98000031E+01
 11
4.76000061E+01
 21
-8.98000031E+01
  0
LINE
  8
0
 62
7
 10
5.96000061E+01
 20
-5.98000031E+01
 11
5.96000061E+01
 21
-8.98000031E+01
  0
TEXT
  8
0
 62
7
 10
-5.30687812E+01
 20
-5.80976406E+01
 40
3.20000005E+00
  1
STRETCH LIST
 41
1.05263158E+00
  7
MONOTXT
  0
TEXT
  8
0
 62
7
 10
4.76160459E+01
 20
-5.80976406E+01
 40
3.20000005E+00
  1
(mm)
 41
1.00000000E+00
  7
MONOTXT
  0
TEXT
  8
0
 10
3.69276710E+01
 20
5.72579943E+01
 40
3.20000005E+00
  1
STRETCH LINE B
 41
1.09375000E+00
  7
MONOTXT
  0
TEXT
  8
0
 10
-3.30723290E+01
 20
5.72579943E+01
 40
3.20000005E+00
  1
STRETCH LINE A
 41
1.09375000E+00
  7
MONOTXT
  0
LINE
  8
0
 62
7
 10
-1.38399994E+02
 20
9.45000000E+01
 11
1.38350006E+02
 21
9.45000000E+01
  0
LINE
  8
0
 62
7
 10
1.38350006E+02
 20
9.45000000E+01
 11
1.38350006E+02
 21
-9.48000031E+01
  0
LINE
  8
0
 62
7
 10
-1.38399994E+02
 20
-9.48000031E+01
 11
1.38350006E+02
 21
-9.48000031E+01
  0
LINE
  8
0
 62
7
 10
-1.38399994E+02
 20
9.45000000E+01
 11
-1.38399994E+02
 21
-9.48000031E+01
  0
LINE
  8
0
 62
7
 10
7.33500061E+01
 20
-8.48000031E+01
 11
1.38350006E+02
 21
-8.48000031E+01
  0
LINE
  8
0
 62
7
 10
-1.38399994E+02
 20
8.45000000E+01
 11
-7.33999939E+01
 21
8.45000000E+01
  0
LINE
  8
0
 62
7
 10
7.33500061E+01
 20
8.45000000E+01
 11
1.38350006E+02
 21
8.45000000E+01
  0
LINE
  8
0
 62
7
 10
7.33500061E+01
 20
-8.48000031E+01
 11
7.33500061E+01
 21
-9.48000031E+01
  0
LINE
  8
0
 62
7
 10
7.33500061E+01
 20
9.45000000E+01
 11
7.33500061E+01
 21
8.45000000E+01
  0
LINE
  8
0
 62
7
 10
-7.33999939E+01
 20
9.45000000E+01
 11
-7.33999939E+01
 21
8.45000000E+01
  0
TEXT
  8
0
 62
7
 10
7.72426624E+01
 20
-9.20500031E+01
 40
4.50000000E+00
  1
KOGANEI CORP.
 41
1.04838710E+00
  7
MONOTXT
  0
TEXT
  8
0
 62
7
 10
9.35071483E+01
 20
8.79000000E+01
 40
3.20000005E+00
  1
Ver. 1.1
 41
1.08108108E+00
  7
MONOTXT
  0
TEXT
  8
0
 62
7
 10
-1.31042852E+02
 20
8.79000000E+01
 40
3.20000005E+00
  1
NEW PEN CYLINDER
 41
1.08108108E+00
  7
MONOTXT
  0
TEXT
  8
0
 62
7
 10
-1.29085994E+02
 20
7.29000000E+01
 40
3.20000005E+00
  1
MODEL:PBDADS16*ST(30)-ZC230
 41
1.00000000E+00
  7
MONOTXT
  0
ENDSEC
  0
EOF
