  0
SECTION
  2
HEADER
  9
$ACADVER
  1
AC1003
  9
$EXTMIN
 10
-1.38399994E+02
 20
-9.48000031E+01
  9
$EXTMAX
 10
1.38350006E+02
 20
9.45000000E+01
  9
$LIMMIN
 10
-1.38400994E+02
 20
-9.48010031E+01
  9
$LIMMAX
 10
1.38351006E+02
 20
9.45010000E+01
  9
$SNAPUNIT
 10
1
 20
1
  9
$SNAPBASE
 10
0
 20
0
  9
$GRIDMODE
 70
0
  9
$GRIDUNIT
 10
0
 20
0
  9
$LTSCALE
 40
4.61250000E+00
  9
$TEXTSIZE
 40
3.2
  9
$DIMTAD
 70
0
  9
$LUNITS
 70
2
  9
$LUPREC
 70
4
  9
$FILLETRAD
 40
0
  9
$AUNITS
 70
0
  9
$AUPREC
 70
0
  0
ENDSEC
  0
SECTION
  2
TABLES
  0
TABLE
  2
LTYPE
 70
2
  0
LTYPE
  2
CONTINUOUS
 70
64
  3
Solid-Line
 72
65
 73
0
 40
0
  0
LTYPE
  2
DASHED
 70
64
  3
DASHED
 72
65
 73
2
 40
.75
 49
.5
 49
-.25
  0
LTYPE
  2
HIDDEN
 70
64
  3
HIDDEN
 72
65
 73
2
 40
.375
 49
.25
 49
-.125
  0
LTYPE
  2
CENTER
 70
64
  3
CENTER
 72
65
 73
4
 40
2
 49
1.25
 49
-.25
 49
.25
 49
-.25
  0
LTYPE
  2
PHANTOM
 70
64
  3
PHANTOM
 72
65
 73
6
 40
2.5
 49
1.25
 49
-.25
 49
.25
 49
-.25
 49
.25
 49
-.25
  0
ENDTAB
  0
TABLE
  2
LAYER
 70
1
  0
LAYER
  2
1
 70
0
 62
7
  6
CONTINUOUS
 0
ENDTAB
  0
TABLE
  2
STYLE
 70
2
  0
STYLE
  2
MONOTXT
 70
0
 40
0
 41
1
 50
0
 71
0
 42
.2
  3
monotxt
  0
STYLE
  2
BIGFONT
 70
0
 40
0
 41
1
 50
0
 71
0
 42
.2
  3
txt
  4
bigfont
  0
ENDTAB
  0
ENDSEC
  0
SECTION
  2
ENTITIES
  0
LINE
  8
0
  6
CENTER
 62
6
 10
-2.47169561E+01
 20
4.60754864E+01
 11
-2.47169561E+01
 21
1.30308273E+01
  0
LINE
  8
0
 62
4
 10
-2.92169561E+01
 20
3.39654864E+01
 11
-2.92169561E+01
 21
4.07654864E+01
  0
LINE
  8
0
 62
4
 10
-2.02169561E+01
 20
3.39654864E+01
 11
-2.02169561E+01
 21
4.07654864E+01
  0
LINE
  8
0
  6
CENTER
 62
6
 10
2.22830439E+01
 20
4.60754864E+01
 11
2.22830439E+01
 21
1.30308273E+01
  0
LINE
  8
0
 62
4
 10
2.67830439E+01
 20
3.39654864E+01
 11
2.67830439E+01
 21
4.07654864E+01
  0
LINE
  8
0
 62
4
 10
1.77830439E+01
 20
3.39654864E+01
 11
1.77830439E+01
 21
4.07654864E+01
  0
LINE
  8
0
 62
4
 10
1.52830439E+01
 20
3.60654864E+01
 11
9.78304386E+00
 21
3.60654864E+01
  0
LINE
  8
0
 62
4
 10
1.52830439E+01
 20
3.20654864E+01
 11
9.78304386E+00
 21
3.20654864E+01
  0
LINE
  8
0
 62
4
 10
2.92830439E+01
 20
3.38654864E+01
 11
2.92830439E+01
 21
3.07973686E+01
  0
LINE
  8
0
 62
4
 10
1.52830439E+01
 20
3.38654864E+01
 11
1.52830439E+01
 21
3.07973686E+01
  0
LINE
  8
0
 62
4
 10
2.67830439E+01
 20
3.42654864E+01
 11
1.77830439E+01
 21
3.42654864E+01
  0
LINE
  8
0
 62
4
 10
2.92830438E+01
 20
3.07973686E+01
 11
2.67830438E+01
 21
3.07973686E+01
  0
LINE
  8
0
 62
4
 10
1.52830439E+01
 20
3.07973686E+01
 11
1.77830439E+01
 21
3.07973686E+01
  0
LINE
  8
0
 62
4
 10
1.77830439E+01
 20
3.38654864E+01
 11
1.52830439E+01
 21
3.38654864E+01
  0
LINE
  8
0
 62
4
 10
1.77830439E+01
 20
3.42654864E+01
 11
1.52830439E+01
 21
3.42654864E+01
  0
LINE
  8
0
 62
4
 10
1.77830439E+01
 20
3.70654864E+01
 11
1.52830439E+01
 21
3.70654864E+01
  0
LINE
  8
0
 62
4
 10
2.92830439E+01
 20
3.38654864E+01
 11
2.67830439E+01
 21
3.38654864E+01
  0
LINE
  8
0
 62
4
 10
2.92830439E+01
 20
3.42654864E+01
 11
2.67830439E+01
 21
3.42654864E+01
  0
LINE
  8
0
 62
4
 10
2.92830439E+01
 20
3.70654864E+01
 11
2.67830439E+01
 21
3.70654864E+01
  0
LINE
  8
0
 62
4
 10
2.67830439E+01
 20
1.41155018E+01
 11
1.77830439E+01
 21
1.41155018E+01
  0
LINE
  8
0
 62
4
 10
1.52830439E+01
 20
3.70654864E+01
 11
1.52830439E+01
 21
3.42654864E+01
  0
LINE
  8
0
 62
4
 10
2.92830439E+01
 20
3.70654864E+01
 11
2.92830439E+01
 21
3.42654864E+01
  0
LINE
  8
0
 62
4
 10
3.47830439E+01
 20
3.50654864E+01
 11
3.37830439E+01
 21
3.60654864E+01
  0
LINE
  8
0
 62
4
 10
3.47830439E+01
 20
3.50654864E+01
 11
3.47830439E+01
 21
3.30654864E+01
  0
LINE
  8
0
 62
4
 10
3.37830439E+01
 20
3.20654864E+01
 11
2.92830439E+01
 21
3.20654864E+01
  0
LINE
  8
0
 62
4
 10
3.37830439E+01
 20
3.60654864E+01
 11
2.92830439E+01
 21
3.60654864E+01
  0
LINE
  8
0
 62
4
 10
3.47830439E+01
 20
3.30654864E+01
 11
3.37830439E+01
 21
3.20654864E+01
  0
LINE
  8
0
 62
4
 10
3.37830439E+01
 20
3.60654864E+01
 11
3.37830439E+01
 21
3.20654864E+01
  0
LINE
  8
0
 62
4
 10
1.77830439E+01
 20
3.39654864E+01
 11
1.77830439E+01
 21
1.41155018E+01
  0
LINE
  8
0
 62
4
 10
2.67830439E+01
 20
3.39654864E+01
 11
2.67830439E+01
 21
1.41155018E+01
  0
LINE
  8
0
 62
4
 10
9.78304386E+00
 20
3.60654864E+01
 11
6.78304386E+00
 21
3.53654864E+01
  0
LINE
  8
0
 62
4
 10
9.78304386E+00
 20
3.20654864E+01
 11
6.78304387E+00
 21
3.27654864E+01
  0
LINE
  8
0
 62
4
 10
9.78304386E+00
 20
3.60654864E+01
 11
9.78304386E+00
 21
3.20654864E+01
  0
LINE
  8
0
 62
6
 10
1.84604479E+00
 20
3.53654864E+01
 11
4.44604479E+00
 21
3.27654864E+01
  0
LINE
  8
0
 62
4
 10
6.78304387E+00
 20
3.27654864E+01
 11
4.44604479E+00
 21
3.27654864E+01
  0
LINE
  8
0
 62
4
 10
6.78304386E+00
 20
3.53654864E+01
 11
6.78304386E+00
 21
3.27654864E+01
  0
LINE
  8
0
 62
4
 10
6.78304387E+00
 20
3.53654864E+01
 11
1.84604479E+00
 21
3.53654864E+01
  0
TEXT
  8
0
 62
7
 10
-1.95528936E+01
 20
1.53655018E+01
 40
1.50000000E+00
  1
PBDAAS16-7
 41
1.00000000E+00
  7
MONOTXT
  0
LINE
  8
0
 62
7
 10
2.67830439E+01
 20
1.42754864E+01
 11
4.07830439E+01
 21
1.42754864E+01
  0
LINE
  8
0
 62
7
 10
2.92830439E+01
 20
3.12654864E+01
 11
4.07830439E+01
 21
3.12654864E+01
  0
LINE
  8
0
 62
7
 10
-2.02169561E+01
 20
1.42754864E+01
 11
1.77830439E+01
 21
1.42754864E+01
  0
LINE
  8
0
 62
7
 10
-1.77169561E+01
 20
3.12654864E+01
 11
1.52830439E+01
 21
3.12654864E+01
  0
LINE
  8
0
 62
4
 10
-1.77169561E+01
 20
3.60654864E+01
 11
-1.22169561E+01
 21
3.60654864E+01
  0
LINE
  8
0
 62
4
 10
-1.77169561E+01
 20
3.20654864E+01
 11
-1.22169561E+01
 21
3.20654864E+01
  0
LINE
  8
0
 62
4
 10
-3.17169561E+01
 20
3.38654864E+01
 11
-3.17169561E+01
 21
3.07973686E+01
  0
LINE
  8
0
 62
4
 10
-1.77169561E+01
 20
3.38654864E+01
 11
-1.77169561E+01
 21
3.07973686E+01
  0
LINE
  8
0
 62
4
 10
-2.92169561E+01
 20
3.42654864E+01
 11
-2.02169561E+01
 21
3.42654864E+01
  0
LINE
  8
0
 62
4
 10
-3.17169561E+01
 20
3.07973686E+01
 11
-2.92169561E+01
 21
3.07973686E+01
  0
LINE
  8
0
 62
4
 10
-1.77169561E+01
 20
3.07973686E+01
 11
-2.02169561E+01
 21
3.07973686E+01
  0
LINE
  8
0
 62
4
 10
-2.02169561E+01
 20
3.38654864E+01
 11
-1.77169561E+01
 21
3.38654864E+01
  0
LINE
  8
0
 62
4
 10
-2.02169561E+01
 20
3.42654864E+01
 11
-1.77169561E+01
 21
3.42654864E+01
  0
LINE
  8
0
 62
4
 10
-2.02169561E+01
 20
3.70654864E+01
 11
-1.77169561E+01
 21
3.70654864E+01
  0
LINE
  8
0
 62
4
 10
-3.17169561E+01
 20
3.38654864E+01
 11
-2.92169561E+01
 21
3.38654864E+01
  0
LINE
  8
0
 62
4
 10
-3.17169561E+01
 20
3.42654864E+01
 11
-2.92169561E+01
 21
3.42654864E+01
  0
LINE
  8
0
 62
4
 10
-3.17169561E+01
 20
3.70654864E+01
 11
-2.92169561E+01
 21
3.70654864E+01
  0
LINE
  8
0
 62
4
 10
-2.92169561E+01
 20
1.41155018E+01
 11
-2.02169561E+01
 21
1.41155018E+01
  0
LINE
  8
0
 62
4
 10
-1.77169561E+01
 20
3.70654864E+01
 11
-1.77169561E+01
 21
3.42654864E+01
  0
LINE
  8
0
 62
4
 10
-3.17169561E+01
 20
3.70654864E+01
 11
-3.17169561E+01
 21
3.42654864E+01
  0
LINE
  8
0
 62
4
 10
-3.72169561E+01
 20
3.50654864E+01
 11
-3.62169561E+01
 21
3.60654864E+01
  0
LINE
  8
0
 62
4
 10
-3.72169561E+01
 20
3.50654864E+01
 11
-3.72169561E+01
 21
3.30654864E+01
  0
LINE
  8
0
 62
4
 10
-3.62169561E+01
 20
3.20654864E+01
 11
-3.17169561E+01
 21
3.20654864E+01
  0
LINE
  8
0
 62
4
 10
-3.62169561E+01
 20
3.60654864E+01
 11
-3.17169561E+01
 21
3.60654864E+01
  0
LINE
  8
0
 62
4
 10
-3.72169561E+01
 20
3.30654864E+01
 11
-3.62169561E+01
 21
3.20654864E+01
  0
LINE
  8
0
 62
4
 10
-3.62169561E+01
 20
3.60654864E+01
 11
-3.62169561E+01
 21
3.20654864E+01
  0
LINE
  8
0
 62
4
 10
-2.02169561E+01
 20
3.39654864E+01
 11
-2.02169561E+01
 21
1.41155018E+01
  0
LINE
  8
0
 62
4
 10
-2.92169561E+01
 20
3.39654864E+01
 11
-2.92169561E+01
 21
1.41155018E+01
  0
LINE
  8
0
 62
4
 10
-1.22169561E+01
 20
3.60654864E+01
 11
-9.21695612E+00
 21
3.53654864E+01
  0
LINE
  8
0
 62
4
 10
-1.22169561E+01
 20
3.20654864E+01
 11
-9.21695613E+00
 21
3.27654864E+01
  0
LINE
  8
0
 62
4
 10
-1.22169561E+01
 20
3.60654864E+01
 11
-1.22169561E+01
 21
3.20654864E+01
  0
LINE
  8
0
 62
6
 10
-4.27995704E+00
 20
3.53654864E+01
 11
-6.87995704E+00
 21
3.27654864E+01
  0
LINE
  8
0
 62
4
 10
-9.21695613E+00
 20
3.27654864E+01
 11
-6.87995704E+00
 21
3.27654864E+01
  0
LINE
  8
0
 62
4
 10
-9.21695612E+00
 20
3.53654864E+01
 11
-9.21695612E+00
 21
3.27654864E+01
  0
LINE
  8
0
 62
4
 10
-9.21695613E+00
 20
3.53654864E+01
 11
-4.27995704E+00
 21
3.53654864E+01
  0
LINE
  8
0
 62
7
 10
6.60830439E+01
 20
1.72154864E+01
 11
6.60830439E+01
 21
1.32654864E+01
  0
ARC
  8
0
 62
7
 10
6.25213586E+01
 20
2.10884360E+01
 40
5.26168612E+00
 50
3.12602610E+02
 51
3.59967881E+02
  0
ARC
  8
0
 62
7
 10
6.25213586E+01
 20
2.44425368E+01
 40
5.26168612E+00
 50
3.21190238E-02
 51
4.73973904E+01
  0
LINE
  8
0
 62
7
 10
6.60830439E+01
 20
2.83154864E+01
 11
6.60830439E+01
 21
3.22654864E+01
  0
LINE
  8
0
 62
7
 10
4.24830439E+01
 20
1.72154864E+01
 11
4.24830439E+01
 21
1.32654864E+01
  0
ARC
  8
0
 62
7
 10
4.60390162E+01
 20
2.10859265E+01
 40
5.25597237E+00
 50
1.80004797E+02
 51
2.27424712E+02
  0
LINE
  8
0
 62
7
 10
6.60830439E+01
 20
1.72154864E+01
 11
4.24830438E+01
 21
1.72154864E+01
  0
ARC
  8
0
 62
7
 10
4.60390162E+01
 20
2.44450464E+01
 40
5.25597237E+00
 50
1.32575287E+02
 51
1.79995203E+02
  0
LINE
  8
0
 62
7
 10
6.60830439E+01
 20
2.83154864E+01
 11
4.24830438E+01
 21
2.83154864E+01
  0
LINE
  8
0
 62
7
 10
4.24830439E+01
 20
2.83154864E+01
 11
4.24830439E+01
 21
3.22654864E+01
  0
ARC
  8
0
 62
7
 10
-4.54786414E+01
 20
2.10884360E+01
 40
5.26168612E+00
 50
3.12602610E+02
 51
3.59967881E+02
  0
LINE
  8
0
 62
7
 10
-4.19169561E+01
 20
1.72154864E+01
 11
-4.19169561E+01
 21
1.32654864E+01
  0
LINE
  8
0
 62
7
 10
-4.19169562E+01
 20
1.72154864E+01
 11
-6.05169562E+01
 21
1.72154864E+01
  0
LINE
  8
0
 62
7
 10
-6.05169561E+01
 20
1.72154864E+01
 11
-6.05169561E+01
 21
1.32654864E+01
  0
ARC
  8
0
 62
7
 10
-5.69609838E+01
 20
2.10859265E+01
 40
5.25597237E+00
 50
1.80004797E+02
 51
2.27424712E+02
  0
ARC
  8
0
 62
7
 10
-4.54786414E+01
 20
2.44425368E+01
 40
5.26168612E+00
 50
3.21190238E-02
 51
4.73973904E+01
  0
ARC
  8
0
 62
7
 10
-5.69609838E+01
 20
2.44450464E+01
 40
5.25597237E+00
 50
1.32575287E+02
 51
1.79995203E+02
  0
LINE
  8
0
 62
7
 10
-4.19169562E+01
 20
2.83154864E+01
 11
-6.05169562E+01
 21
2.83154864E+01
  0
LINE
  8
0
 62
7
 10
-6.22169561E+01
 20
3.22654864E+01
 11
-4.02169561E+01
 21
3.22654864E+01
  0
LINE
  8
0
 62
7
 10
-6.22169561E+01
 20
1.32654864E+01
 11
-4.02169561E+01
 21
1.32654864E+01
  0
CIRCLE
  8
0
 62
7
 10
5.97830439E+01
 20
2.27654864E+01
 40
2.50000000E+00
  0
LINE
  8
0
 62
7
 10
-6.37169561E+01
 20
3.07654864E+01
 11
-6.37169561E+01
 21
1.47754864E+01
  0
LINE
  8
0
  6
CENTER
 62
2
 10
5.97830439E+01
 20
2.80200820E+01
 11
5.97830439E+01
 21
1.78361607E+01
  0
LINE
  8
0
 62
7
 10
6.77830439E+01
 20
1.32754864E+01
 11
6.77830439E+01
 21
3.22654864E+01
  0
LINE
  8
0
 62
7
 10
4.07830439E+01
 20
3.22654864E+01
 11
6.77830439E+01
 21
3.22654864E+01
  0
LINE
  8
0
 62
7
 10
4.07830439E+01
 20
2.27654864E+01
 11
4.07830439E+01
 21
3.22654864E+01
  0
LINE
  8
0
 62
7
 10
-4.02169561E+01
 20
3.12654864E+01
 11
-3.17169561E+01
 21
3.12654864E+01
  0
LINE
  8
0
 62
7
 10
-4.02169561E+01
 20
1.42754864E+01
 11
-2.92169561E+01
 21
1.42754864E+01
  0
LINE
  8
0
 62
7
 10
4.07830439E+01
 20
1.32754864E+01
 11
6.77830439E+01
 21
1.32754864E+01
  0
LINE
  8
0
  6
CENTER
 62
2
 10
4.52830439E+01
 20
3.51790762E+01
 11
4.52830439E+01
 21
2.83154864E+01
  0
LINE
  8
0
 62
7
 10
4.07830439E+01
 20
2.27654864E+01
 11
4.07830439E+01
 21
1.32754864E+01
  0
LINE
  8
0
 62
7
 10
-4.19169561E+01
 20
2.83154864E+01
 11
-4.19169561E+01
 21
3.22654864E+01
  0
LINE
  8
0
 62
7
 10
-4.02169561E+01
 20
1.32654864E+01
 11
-4.02169561E+01
 21
3.22654864E+01
  0
LINE
  8
0
 62
7
 10
-7.34169561E+01
 20
3.07654864E+01
 11
-6.22169561E+01
 21
3.07654864E+01
  0
LINE
  8
0
 62
7
 10
-7.34169561E+01
 20
3.07654864E+01
 11
-7.42169561E+01
 21
2.99654864E+01
  0
LINE
  8
0
 62
7
 10
-6.22169561E+01
 20
3.22654864E+01
 11
-6.22169561E+01
 21
1.32654864E+01
  0
LINE
  8
0
 62
7
 10
-6.05169561E+01
 20
2.83154864E+01
 11
-6.05169561E+01
 21
3.22654864E+01
  0
LINE
  8
0
 62
7
 10
-7.79569561E+01
 20
2.52654864E+01
 11
-7.74569561E+01
 21
2.57654864E+01
  0
LINE
  8
0
 62
7
 10
-7.34169561E+01
 20
2.27654864E+01
 11
-7.34169561E+01
 21
3.07654864E+01
  0
LINE
  8
0
 62
7
 10
-7.74569561E+01
 20
2.57654864E+01
 11
-7.42169561E+01
 21
2.57654864E+01
  0
LINE
  8
0
 62
7
 10
-7.42169561E+01
 20
2.99654864E+01
 11
-7.42169561E+01
 21
1.55754864E+01
  0
LINE
  8
0
 62
7
 10
-7.79569561E+01
 20
2.02654864E+01
 11
-7.79569561E+01
 21
2.52654864E+01
  0
LINE
  8
0
 62
7
 10
-7.79569561E+01
 20
2.02654864E+01
 11
-7.74569561E+01
 21
1.97754864E+01
  0
LINE
  8
0
 62
7
 10
-7.34169561E+01
 20
2.27654864E+01
 11
-7.34169561E+01
 21
1.47754864E+01
  0
LINE
  8
0
 62
7
 10
-7.74569561E+01
 20
1.97754864E+01
 11
-7.42169561E+01
 21
1.97754864E+01
  0
LINE
  8
0
 62
7
 10
-7.34169561E+01
 20
1.47754864E+01
 11
-6.22169561E+01
 21
1.47754864E+01
  0
LINE
  8
0
 62
7
 10
-7.34169561E+01
 20
1.47754864E+01
 11
-7.42169561E+01
 21
1.55754864E+01
  0
LINE
  8
0
  6
CENTER
 62
2
 10
-4.47169561E+01
 20
3.56268538E+01
 11
-4.47169561E+01
 21
2.83154864E+01
  0
LINE
  8
0
 62
2
 10
-7.42169561E+01
 20
2.96829864E+01
 11
-6.22169561E+01
 21
2.96829864E+01
  0
LINE
  8
0
 62
2
 10
-7.42169561E+01
 20
1.58579864E+01
 11
-6.22169561E+01
 21
1.58579864E+01
  0
LINE
  8
0
 62
7
 10
-8.62469561E+01
 20
2.02654864E+01
 11
-7.79569561E+01
 21
2.02654864E+01
  0
LINE
  8
0
 62
7
 10
-8.62469561E+01
 20
2.52654864E+01
 11
-7.79569561E+01
 21
2.52654864E+01
  0
LINE
  8
0
  6
CENTER
 62
2
 10
-9.57757485E+01
 20
2.27654864E+01
 11
6.97301501E+01
 21
2.27654864E+01
  0
LINE
  8
0
 62
2
 10
-8.62469561E+01
 20
2.48324864E+01
 11
-7.92169561E+01
 21
2.48324864E+01
  0
LINE
  8
0
 62
2
 10
-8.62469561E+01
 20
2.06984864E+01
 11
-7.92169561E+01
 21
2.06984864E+01
  0
LINE
  8
0
 62
2
 10
-9.41499561E+01
 20
2.48324864E+01
 11
-9.02469561E+01
 21
2.48324864E+01
  0
LINE
  8
0
 62
2
 10
-9.42169561E+01
 20
2.06984864E+01
 11
-9.02469561E+01
 21
2.06984864E+01
  0
LINE
  8
0
 62
7
 10
-9.37169561E+01
 20
2.52654864E+01
 11
-9.02469561E+01
 21
2.52654864E+01
  0
LINE
  8
0
 62
7
 10
-9.37169561E+01
 20
2.02654864E+01
 11
-9.02469561E+01
 21
2.02654864E+01
  0
LINE
  8
0
 62
7
 10
-9.42169561E+01
 20
2.47654864E+01
 11
-9.42169561E+01
 21
2.07654864E+01
  0
LINE
  8
0
 62
7
 10
-7.92169561E+01
 20
2.52654864E+01
 11
-7.92169561E+01
 21
2.02654864E+01
  0
LINE
  8
0
 62
7
 10
-9.42169561E+01
 20
2.47654864E+01
 11
-9.37169561E+01
 21
2.52654864E+01
  0
LINE
  8
0
 62
7
 10
-9.42169561E+01
 20
2.07654864E+01
 11
-9.37169561E+01
 21
2.02654864E+01
  0
LINE
  8
0
 62
7
 10
-9.37169561E+01
 20
2.52654864E+01
 11
-9.37169561E+01
 21
2.02654864E+01
  0
LINE
  8
0
 62
4
 10
-9.02469561E+01
 20
2.61554864E+01
 11
-9.02469561E+01
 21
1.93854864E+01
  0
LINE
  8
0
 62
4
 10
-8.62469561E+01
 20
2.61554864E+01
 11
-8.62469561E+01
 21
1.93854864E+01
  0
LINE
  8
0
 62
4
 10
-8.97469561E+01
 20
1.82654864E+01
 11
-8.67469561E+01
 21
1.82654864E+01
  0
LINE
  8
0
 62
4
 10
-8.97469561E+01
 20
2.72654864E+01
 11
-8.67469561E+01
 21
2.72654864E+01
  0
LINE
  8
0
 62
4
 10
-8.97469561E+01
 20
2.50454864E+01
 11
-8.67469561E+01
 21
2.50454864E+01
  0
LINE
  8
0
 62
4
 10
-8.97469561E+01
 20
2.04954864E+01
 11
-8.67469561E+01
 21
2.04954864E+01
  0
ARC
  8
0
 62
4
 10
-8.48436674E+01
 20
2.27753792E+01
 40
5.40329773E+00
 50
1.55156975E+02
 51
1.80104902E+02
  0
ARC
  8
0
 62
4
 10
-8.48457637E+01
 20
2.27651103E+01
 40
5.40119241E+00
 50
1.79996010E+02
 51
2.04847715E+02
  0
ARC
  8
0
 62
4
 10
-8.87622626E+01
 20
1.93843181E+01
 40
1.48469402E+00
 50
1.31546676E+02
 51
1.79954915E+02
  0
ARC
  8
0
 62
4
 10
-8.87628763E+01
 20
1.93764149E+01
 40
1.48410757E+00
 50
1.79649782E+02
 51
2.28464917E+02
  0
ARC
  8
0
 62
4
 10
-8.87660097E+01
 20
2.61549668E+01
 40
1.48094647E+00
 50
1.79979895E+02
 51
2.28518513E+02
  0
ARC
  8
0
 62
4
 10
-8.87628515E+01
 20
2.61545834E+01
 40
1.48410487E+00
 50
1.31536451E+02
 51
1.79965140E+02
  0
ARC
  8
0
 62
4
 10
-9.16671966E+01
 20
2.27716617E+01
 40
5.42024398E+00
 50
3.59934723E+02
 51
2.48034007E+01
  0
ARC
  8
0
 62
4
 10
-8.77426960E+01
 20
2.61616305E+01
 40
1.49575246E+00
 50
3.11736944E+02
 51
3.59764647E+02
  0
ARC
  8
0
 62
4
 10
-9.16651000E+01
 20
2.27688441E+01
 40
5.41814492E+00
 50
3.35191781E+02
 51
3.59964493E+02
  0
ARC
  8
0
 62
4
 10
-8.77464061E+01
 20
1.93776711E+01
 40
1.49947035E+00
 50
2.98629638E-01
 51
4.81997792E+01
  0
ARC
  8
0
 62
4
 10
-8.77458426E+01
 20
1.93830250E+01
 40
1.49888853E+00
 50
3.11791214E+02
 51
9.40875246E-02
  0
ARC
  8
0
 62
4
 10
-8.77458229E+01
 20
2.61479338E+01
 40
1.49888586E+00
 50
2.88704672E-01
 51
4.82097042E+01
  0
ARC
  8
0
 62
4
 10
-2.32186218E+01
 20
4.22638208E+01
 40
1.00166704E+00
 50
9.52762946E-02
 51
8.99047236E+01
  0
ARC
  8
0
 62
4
 10
-2.62161646E+01
 20
4.22646949E+01
 40
1.00079180E+00
 50
9.00000002E+01
 51
1.79954687E+02
  0
LINE
  8
0
 62
6
 10
-2.59469561E+01
 20
4.17654864E+01
 11
-2.59469561E+01
 21
4.07654864E+01
  0
LINE
  8
0
 62
6
 10
-2.34869561E+01
 20
4.17654864E+01
 11
-2.34869561E+01
 21
4.07654864E+01
  0
LINE
  8
0
 62
4
 10
-2.62169561E+01
 20
4.17654864E+01
 11
-2.62169561E+01
 21
4.07654864E+01
  0
LINE
  8
0
 62
4
 10
-2.32169561E+01
 20
4.17654864E+01
 11
-2.32169561E+01
 21
4.07654864E+01
  0
LINE
  8
0
 62
4
 10
-2.62169561E+01
 20
4.32654864E+01
 11
-2.32169561E+01
 21
4.32654864E+01
  0
LINE
  8
0
 62
4
 10
-2.72169561E+01
 20
4.17654864E+01
 11
-2.22169561E+01
 21
4.17654864E+01
  0
LINE
  8
0
 62
4
 10
-2.92169561E+01
 20
4.07654864E+01
 11
-2.02169561E+01
 21
4.07654864E+01
  0
LINE
  8
0
 62
4
 10
-2.22169561E+01
 20
4.22654864E+01
 11
-2.22169561E+01
 21
4.17654864E+01
  0
LINE
  8
0
 62
4
 10
-2.72169561E+01
 20
4.22654864E+01
 11
-2.72169561E+01
 21
4.17654864E+01
  0
ARC
  8
0
 62
4
 10
2.07847095E+01
 20
4.22638208E+01
 40
1.00166704E+00
 50
9.00952762E+01
 51
1.79904724E+02
  0
ARC
  8
0
 62
4
 10
2.37822524E+01
 20
4.22646949E+01
 40
1.00079180E+00
 50
4.53129782E-02
 51
9.00000002E+01
  0
LINE
  8
0
 62
6
 10
2.35130439E+01
 20
4.17654864E+01
 11
2.35130439E+01
 21
4.07654864E+01
  0
LINE
  8
0
 62
6
 10
2.10530439E+01
 20
4.17654864E+01
 11
2.10530439E+01
 21
4.07654864E+01
  0
LINE
  8
0
 62
4
 10
2.37830439E+01
 20
4.17654864E+01
 11
2.37830439E+01
 21
4.07654864E+01
  0
LINE
  8
0
 62
4
 10
2.07830439E+01
 20
4.17654864E+01
 11
2.07830439E+01
 21
4.07654864E+01
  0
LINE
  8
0
 62
4
 10
2.37830439E+01
 20
4.32654864E+01
 11
2.07830439E+01
 21
4.32654864E+01
  0
LINE
  8
0
 62
4
 10
2.47830439E+01
 20
4.17654864E+01
 11
1.97830439E+01
 21
4.17654864E+01
  0
LINE
  8
0
 62
4
 10
2.67830439E+01
 20
4.07654864E+01
 11
1.77830439E+01
 21
4.07654864E+01
  0
LINE
  8
0
 62
4
 10
1.97830439E+01
 20
4.22654864E+01
 11
1.97830439E+01
 21
4.17654864E+01
  0
LINE
  8
0
 62
4
 10
2.47830439E+01
 20
4.22654864E+01
 11
2.47830439E+01
 21
4.17654864E+01
  0
LINE
  8
0
  6
PHANTOM
 10
-1.21695613E+00
 20
6.51755356E+00
 11
-1.21695613E+00
 21
4.42461580E+01
  0
LINE
  8
0
  6
CENTER
 62
2
 10
-1.10156956E+02
 20
4.48966511E+01
 11
-1.10156956E+02
 21
1.18254864E+01
  0
LINE
  8
0
 62
4
 10
-1.08106956E+02
 20
3.60654864E+01
 11
-1.09106956E+02
 21
3.50654864E+01
  0
LINE
  8
0
 62
4
 10
-1.08406956E+02
 20
3.22654864E+01
 11
-1.09106956E+02
 21
3.29654864E+01
  0
LINE
  8
0
 62
4
 10
-1.11906956E+02
 20
3.22654864E+01
 11
-1.11206956E+02
 21
3.29654864E+01
  0
LINE
  8
0
 62
4
 10
-1.12206956E+02
 20
3.60654864E+01
 11
-1.11206956E+02
 21
3.50654864E+01
  0
LINE
  8
0
 62
4
 10
-1.09106956E+02
 20
3.29654864E+01
 11
-1.11206956E+02
 21
3.29654864E+01
  0
LINE
  8
0
 62
4
 10
-1.11206956E+02
 20
3.50654864E+01
 11
-1.11206956E+02
 21
3.29654864E+01
  0
LINE
  8
0
 62
4
 10
-1.09106956E+02
 20
3.50654864E+01
 11
-1.09106956E+02
 21
3.29654864E+01
  0
LINE
  8
0
 62
4
 10
-1.09106956E+02
 20
3.50654864E+01
 11
-1.11206956E+02
 21
3.50654864E+01
  0
LINE
  8
0
 62
4
 10
-1.08656956E+02
 20
3.80654864E+01
 11
-1.08956956E+02
 21
3.77654864E+01
  0
LINE
  8
0
 62
4
 10
-1.11656956E+02
 20
3.80654864E+01
 11
-1.11356956E+02
 21
3.77654864E+01
  0
LINE
  8
0
 62
4
 10
-1.08656956E+02
 20
3.80654864E+01
 11
-1.08956956E+02
 21
3.77654864E+01
  0
LINE
  8
0
 62
4
 10
-1.11656956E+02
 20
3.80654864E+01
 11
-1.11356956E+02
 21
3.77654864E+01
  0
LINE
  8
0
 62
4
 10
-1.15822652E+02
 20
3.32877671E+01
 11
-1.15680050E+02
 21
3.32412410E+01
  0
LINE
  8
0
 62
4
 10
-1.15081956E+02
 20
3.71699905E+01
 11
-1.16962544E+02
 21
3.14060090E+01
  0
LINE
  8
0
 62
4
 10
-1.15680065E+02
 20
3.32411962E+01
 11
-1.16073146E+02
 21
3.20364072E+01
  0
LINE
  8
0
 62
4
 10
-1.14581956E+02
 20
3.70904864E+01
 11
-1.16273573E+02
 21
3.19056979E+01
  0
LINE
  8
0
 62
4
 10
-1.06656956E+02
 20
3.42654864E+01
 11
-1.05544103E+02
 21
3.22654864E+01
  0
LINE
  8
0
 62
4
 10
-1.06806956E+02
 20
3.42654864E+01
 11
-1.05699976E+02
 21
3.22654864E+01
  0
LINE
  8
0
 62
4
 10
-1.06656956E+02
 20
4.07654864E+01
 11
-1.13656956E+02
 21
4.07654864E+01
  0
LINE
  8
0
 62
4
 10
-1.13656956E+02
 20
3.94654864E+01
 11
-1.13656956E+02
 21
3.35654864E+01
  0
LINE
  8
0
 62
4
 10
-1.06656956E+02
 20
3.94654864E+01
 11
-1.06656956E+02
 21
3.42654864E+01
  0
LINE
  8
0
 62
4
 10
-1.14456956E+02
 20
3.57632642E+01
 11
-1.14926474E+02
 21
3.60345414E+01
  0
LINE
  8
0
 62
4
 10
-1.15156956E+02
 20
3.90654864E+01
 11
-1.15156956E+02
 21
3.73804864E+01
  0
LINE
  8
0
 62
4
 10
-1.15156956E+02
 20
3.90654864E+01
 11
-1.15956956E+02
 21
3.90654864E+01
  0
LINE
  8
0
 62
4
 10
-1.12441956E+02
 20
3.99654864E+01
 11
-1.12301956E+02
 21
3.91654864E+01
  0
LINE
  8
0
 62
4
 10
-1.07871956E+02
 20
3.99654864E+01
 11
-1.08011956E+02
 21
3.91654864E+01
  0
LINE
  8
0
 62
4
 10
-1.08011956E+02
 20
3.91654864E+01
 11
-1.12301956E+02
 21
3.91654864E+01
  0
LINE
  8
0
 62
6
 10
-1.11386956E+02
 20
4.12654864E+01
 11
-1.11386956E+02
 21
4.07654864E+01
  0
LINE
  8
0
 62
6
 10
-1.08926956E+02
 20
4.12654864E+01
 11
-1.08926956E+02
 21
4.07654864E+01
  0
LINE
  8
0
 62
4
 10
-1.05856956E+02
 20
3.99654864E+01
 11
-1.05856956E+02
 21
3.42654864E+01
  0
LINE
  8
0
 62
4
 10
-1.14456956E+02
 20
3.35654864E+01
 11
-1.14456956E+02
 21
3.99654864E+01
  0
LINE
  8
0
 62
4
 10
-1.07156956E+02
 20
3.99654864E+01
 11
-1.13156956E+02
 21
3.99654864E+01
  0
LINE
  8
0
 62
4
 10
-1.15956956E+02
 20
3.90654864E+01
 11
-1.15956956E+02
 21
3.69204864E+01
  0
LINE
  8
0
 62
4
 10
-1.14456956E+02
 20
3.66894864E+01
 11
-1.14671061E+02
 21
3.68136672E+01
  0
LINE
  8
0
 62
4
 10
-1.06806956E+02
 20
3.94654864E+01
 11
-1.06806956E+02
 21
3.42654864E+01
  0
LINE
  8
0
 62
4
 10
-1.06656956E+02
 20
3.94654864E+01
 11
-1.06806956E+02
 21
3.94654864E+01
  0
LINE
  8
0
 62
4
 10
-1.06906956E+02
 20
3.77654864E+01
 11
-1.13406956E+02
 21
3.77654864E+01
  0
LINE
  8
0
 62
4
 10
-1.06906956E+02
 20
3.70654864E+01
 11
-1.13406956E+02
 21
3.70654864E+01
  0
LINE
  8
0
 62
4
 10
-1.14581956E+02
 20
3.95904864E+01
 11
-1.14581956E+02
 21
3.70904864E+01
  0
LINE
  8
0
 62
4
 10
-1.15081956E+02
 20
3.95904864E+01
 11
-1.15081956E+02
 21
3.71699905E+01
  0
LINE
  8
0
 62
4
 10
-1.14581956E+02
 20
3.95904864E+01
 11
-1.15081956E+02
 21
3.95904864E+01
  0
LINE
  8
0
 62
4
 10
-1.11656956E+02
 20
4.17654864E+01
 11
-1.11656956E+02
 21
4.07654864E+01
  0
LINE
  8
0
 62
4
 10
-1.08656956E+02
 20
4.17654864E+01
 11
-1.08656956E+02
 21
4.07654864E+01
  0
LINE
  8
0
 62
4
 10
-1.05856956E+02
 20
3.42654864E+01
 11
-1.06656956E+02
 21
3.42654864E+01
  0
LINE
  8
0
 62
4
 10
-1.13656956E+02
 20
3.35654864E+01
 11
-1.14456956E+02
 21
3.35654864E+01
  0
LINE
  8
0
 62
4
 10
-1.07656956E+02
 20
4.17654864E+01
 11
-1.12656956E+02
 21
4.17654864E+01
  0
LINE
  8
0
 62
4
 10
-1.08656956E+02
 20
4.32654864E+01
 11
-1.11656956E+02
 21
4.32654864E+01
  0
LINE
  8
0
 62
4
 10
-1.07656956E+02
 20
4.22654864E+01
 11
-1.07656956E+02
 21
4.17654864E+01
  0
LINE
  8
0
 62
4
 10
-1.12656956E+02
 20
4.22654864E+01
 11
-1.12656956E+02
 21
4.17654864E+01
  0
LINE
  8
0
 62
4
 10
-1.08656956E+02
 20
4.12654864E+01
 11
-1.11656956E+02
 21
4.12654864E+01
  0
ARC
  8
0
 62
4
 10
-1.06656959E+02
 20
3.99654832E+01
 40
8.00003254E-01
 50
2.33015759E-04
 51
9.00000002E+01
  0
ARC
  8
0
 62
4
 10
-1.13658619E+02
 20
3.99671490E+01
 40
7.98339134E-01
 50
8.98806771E+01
 51
1.80119323E+02
  0
ARC
  8
0
 62
4
 10
-1.07156960E+02
 20
3.94654821E+01
 40
5.00004290E-01
 50
4.91607912E-04
 51
9.00000002E+01
  0
ARC
  8
0
 62
4
 10
-1.13158619E+02
 20
3.94671490E+01
 40
4.98340176E-01
 50
8.98088454E+01
 51
1.80191155E+02
  0
ARC
  8
0
 62
4
 10
-1.15456752E+02
 20
3.69186207E+01
 40
5.00207143E-01
 50
1.79786293E+02
 51
2.39986760E+02
  0
ARC
  8
0
 62
4
 10
-1.14658104E+02
 20
3.73828421E+01
 40
4.98857363E-01
 50
1.80270562E+02
 51
2.09445368E+02
  0
ARC
  8
0
 62
4
 10
-1.11658368E+02
 20
4.22668987E+01
 40
9.98588677E-01
 50
8.99189656E+01
 51
1.80081034E+02
  0
ARC
  8
0
 62
4
 10
-1.08657209E+02
 20
4.22652336E+01
 40
1.00025280E+00
 50
1.44788446E-02
 51
9.00000002E+01
  0
LINE
  8
0
 62
4
 10
-1.13406956E+02
 20
3.77654864E+01
 11
-1.13406956E+02
 21
3.22654864E+01
  0
LINE
  8
0
 62
4
 10
-1.06906956E+02
 20
3.38654864E+01
 11
-1.06906956E+02
 21
3.22654864E+01
  0
LINE
  8
0
 62
4
 10
-1.06906956E+02
 20
3.38654864E+01
 11
-1.08106956E+02
 21
3.38654864E+01
  0
LINE
  8
0
 62
4
 10
-1.06906956E+02
 20
3.42654864E+01
 11
-1.08106956E+02
 21
3.42654864E+01
  0
LINE
  8
0
 62
4
 10
-1.06906956E+02
 20
3.77654864E+01
 11
-1.06906956E+02
 21
3.42654864E+01
  0
LINE
  8
0
 62
4
 10
-1.08106956E+02
 20
3.60654864E+01
 11
-1.12206956E+02
 21
3.60654864E+01
  0
LINE
  8
0
 62
4
 10
-1.09156956E+02
 20
3.63654864E+01
 11
-1.11156956E+02
 21
3.63654864E+01
  0
LINE
  8
0
 62
4
 10
-1.09156956E+02
 20
3.63654864E+01
 11
-1.09156956E+02
 21
3.60654864E+01
  0
LINE
  8
0
 62
4
 10
-1.08106956E+02
 20
3.60654864E+01
 11
-1.08106956E+02
 21
3.22654864E+01
  0
LINE
  8
0
 62
4
 10
-1.12206956E+02
 20
3.60654864E+01
 11
-1.12206956E+02
 21
3.22654864E+01
  0
LINE
  8
0
 62
4
 10
-1.11156956E+02
 20
3.63654864E+01
 11
-1.11156956E+02
 21
3.60654864E+01
  0
LINE
  8
0
 62
4
 10
-1.08656956E+02
 20
3.91654864E+01
 11
-1.08656956E+02
 21
3.80654864E+01
  0
LINE
  8
0
 62
4
 10
-1.11656956E+02
 20
3.91654864E+01
 11
-1.11656956E+02
 21
3.80654864E+01
  0
LINE
  8
0
 62
6
 10
-1.08926956E+02
 20
3.91654864E+01
 11
-1.08926956E+02
 21
3.77954864E+01
  0
LINE
  8
0
 62
6
 10
-1.11386956E+02
 20
3.91654864E+01
 11
-1.11386956E+02
 21
3.77954864E+01
  0
LINE
  8
0
 62
4
 10
-1.15368995E+02
 20
3.62902199E+01
 11
-1.15706956E+02
 21
3.64854864E+01
  0
CIRCLE
  8
0
 62
2
 10
-1.10156956E+02
 20
2.27654864E+01
 40
6.91750000E+00
  0
CIRCLE
  8
0
 62
2
 10
-1.10156956E+02
 20
2.27654864E+01
 40
2.06700000E+00
  0
LINE
  8
0
 62
7
 10
-1.15696956E+02
 20
1.32754864E+01
 11
-1.04606956E+02
 21
1.32754864E+01
  0
LINE
  8
0
 62
7
 10
-1.15696956E+02
 20
3.22654864E+01
 11
-1.04606956E+02
 21
3.22654864E+01
  0
LINE
  8
0
  6
CENTER
 62
2
 10
-1.21552547E+02
 20
2.27654864E+01
 11
-9.87310620E+01
 21
2.27654864E+01
  0
LINE
  8
0
 62
4
 10
-1.14156956E+02
 20
2.50754864E+01
 11
-1.10156956E+02
 21
2.73854864E+01
  0
LINE
  8
0
 62
4
 10
-1.10156956E+02
 20
1.81554864E+01
 11
-1.06156956E+02
 21
2.04554864E+01
  0
LINE
  8
0
 62
4
 10
-1.14156956E+02
 20
2.50754864E+01
 11
-1.14156956E+02
 21
2.04554864E+01
  0
LINE
  8
0
 62
4
 10
-1.06156956E+02
 20
2.50754864E+01
 11
-1.06156956E+02
 21
2.04554864E+01
  0
LINE
  8
0
 62
4
 10
-1.14156956E+02
 20
2.04554864E+01
 11
-1.10156956E+02
 21
1.81554864E+01
  0
LINE
  8
0
 62
4
 10
-1.10156956E+02
 20
2.73854864E+01
 11
-1.06156956E+02
 21
2.50754864E+01
  0
LINE
  8
0
 62
7
 10
-1.00656956E+02
 20
2.83154864E+01
 11
-1.00656956E+02
 21
1.72254864E+01
  0
LINE
  8
0
 62
7
 10
-1.19656956E+02
 20
2.83154864E+01
 11
-1.19656956E+02
 21
1.72254864E+01
  0
ARC
  8
0
 62
7
 10
-1.10155993E+02
 20
2.27664492E+01
 40
1.10010691E+01
 50
3.02921218E+01
 51
5.97078780E+01
  0
ARC
  8
0
 62
7
 10
-1.10168004E+02
 20
2.27625239E+01
 40
1.09943446E+01
 50
1.20191426E+02
 51
1.49663705E+02
  0
ARC
  8
0
 62
7
 10
-1.10168003E+02
 20
2.27784491E+01
 40
1.09943448E+01
 50
2.10336295E+02
 51
2.39808574E+02
  0
ARC
  8
0
 62
7
 10
-1.10155993E+02
 20
2.27745238E+01
 40
1.10010693E+01
 50
3.00292122E+02
 51
3.29707878E+02
  0
CIRCLE
  8
0
 62
7
 10
-1.10160029E+02
 20
2.27704866E+01
 40
8.00000000E+00
  0
CIRCLE
  8
0
 62
7
 10
-1.10160029E+02
 20
2.27704866E+01
 40
2.50000000E+00
  0
CIRCLE
  8
0
 62
4
 10
-1.10160029E+02
 20
2.27704866E+01
 40
4.00000000E+00
  0
CIRCLE
  8
0
 62
7
 10
-1.10156956E+02
 20
2.27654864E+01
 40
9.50000000E+00
  0
LINE
  8
0
  6
CENTER
 62
2
 10
9.98230439E+01
 20
4.55471443E+01
 11
9.98230439E+01
 21
1.07630882E+01
  0
LINE
  8
0
 62
4
 10
9.83230439E+01
 20
3.80654864E+01
 11
9.86230439E+01
 21
3.77654864E+01
  0
LINE
  8
0
 62
4
 10
1.01323044E+02
 20
3.80654864E+01
 11
1.01023044E+02
 21
3.77654864E+01
  0
LINE
  8
0
 62
4
 10
9.83230439E+01
 20
3.80654864E+01
 11
9.86230439E+01
 21
3.77654864E+01
  0
LINE
  8
0
 62
4
 10
1.01323044E+02
 20
3.80654864E+01
 11
1.01023044E+02
 21
3.77654864E+01
  0
LINE
  8
0
 62
4
 10
9.85230439E+01
 20
3.27654864E+01
 11
1.01123044E+02
 21
3.27654864E+01
  0
LINE
  8
0
 62
4
 10
9.85230439E+01
 20
3.27654864E+01
 11
9.79873296E+01
 21
3.22654864E+01
  0
LINE
  8
0
 62
4
 10
1.05488740E+02
 20
3.32877671E+01
 11
1.05346138E+02
 21
3.32412410E+01
  0
LINE
  8
0
 62
4
 10
1.04748044E+02
 20
3.71699905E+01
 11
1.06626635E+02
 21
3.14121283E+01
  0
LINE
  8
0
 62
4
 10
1.05346152E+02
 20
3.32411962E+01
 11
1.05736979E+02
 21
3.20433174E+01
  0
LINE
  8
0
 62
4
 10
1.04248044E+02
 20
3.70904864E+01
 11
1.05937460E+02
 21
3.19124432E+01
  0
LINE
  8
0
 62
4
 10
9.63230439E+01
 20
3.42654864E+01
 11
9.52101907E+01
 21
3.22654864E+01
  0
LINE
  8
0
 62
4
 10
9.64730439E+01
 20
3.42654864E+01
 11
9.53660635E+01
 21
3.22654864E+01
  0
CIRCLE
  8
0
 62
4
 10
9.98230439E+01
 20
3.40654864E+01
 40
1.30000000E+00
  0
LINE
  8
0
 62
4
 10
9.63230439E+01
 20
4.07654864E+01
 11
1.03323044E+02
 21
4.07654864E+01
  0
LINE
  8
0
 62
4
 10
1.03323044E+02
 20
3.94654864E+01
 11
1.03323044E+02
 21
3.35654864E+01
  0
LINE
  8
0
 62
4
 10
9.63230439E+01
 20
3.94654864E+01
 11
9.63230439E+01
 21
3.42654864E+01
  0
LINE
  8
0
 62
4
 10
1.04123044E+02
 20
3.57632642E+01
 11
1.04592562E+02
 21
3.60345414E+01
  0
LINE
  8
0
 62
4
 10
1.04823044E+02
 20
3.90654864E+01
 11
1.04823044E+02
 21
3.73804864E+01
  0
LINE
  8
0
 62
4
 10
1.04823044E+02
 20
3.90654864E+01
 11
1.05623044E+02
 21
3.90654864E+01
  0
LINE
  8
0
 62
4
 10
1.02108044E+02
 20
3.99654864E+01
 11
1.01968044E+02
 21
3.91654864E+01
  0
LINE
  8
0
 62
4
 10
9.75380439E+01
 20
3.99654864E+01
 11
9.76780439E+01
 21
3.91654864E+01
  0
LINE
  8
0
 62
4
 10
9.76780439E+01
 20
3.91654864E+01
 11
1.01968044E+02
 21
3.91654864E+01
  0
LINE
  8
0
 62
6
 10
1.01053044E+02
 20
4.12654864E+01
 11
1.01053044E+02
 21
4.07654864E+01
  0
LINE
  8
0
 62
6
 10
9.85930439E+01
 20
4.12654864E+01
 11
9.85930439E+01
 21
4.07654864E+01
  0
LINE
  8
0
 62
4
 10
9.55230439E+01
 20
3.99654864E+01
 11
9.55230439E+01
 21
3.42654864E+01
  0
LINE
  8
0
 62
4
 10
1.04123044E+02
 20
3.35654864E+01
 11
1.04123044E+02
 21
3.99654864E+01
  0
LINE
  8
0
 62
4
 10
9.68230439E+01
 20
3.99654864E+01
 11
1.02823044E+02
 21
3.99654864E+01
  0
LINE
  8
0
 62
4
 10
1.05623044E+02
 20
3.90654864E+01
 11
1.05623044E+02
 21
3.69204864E+01
  0
LINE
  8
0
 62
4
 10
1.04123044E+02
 20
3.66894864E+01
 11
1.04337149E+02
 21
3.68136672E+01
  0
LINE
  8
0
 62
4
 10
9.64730439E+01
 20
3.94654864E+01
 11
9.64730439E+01
 21
3.42654864E+01
  0
LINE
  8
0
 62
4
 10
9.63230439E+01
 20
3.94654864E+01
 11
9.64730439E+01
 21
3.94654864E+01
  0
LINE
  8
0
 62
4
 10
9.65730439E+01
 20
3.77654864E+01
 11
1.03073044E+02
 21
3.77654864E+01
  0
LINE
  8
0
 62
4
 10
9.65730439E+01
 20
3.70654864E+01
 11
1.03073044E+02
 21
3.70654864E+01
  0
LINE
  8
0
 62
4
 10
1.04248044E+02
 20
3.95904864E+01
 11
1.04248044E+02
 21
3.70904864E+01
  0
LINE
  8
0
 62
4
 10
1.04748044E+02
 20
3.95904864E+01
 11
1.04748044E+02
 21
3.71699905E+01
  0
LINE
  8
0
 62
4
 10
1.04248044E+02
 20
3.95904864E+01
 11
1.04748044E+02
 21
3.95904864E+01
  0
LINE
  8
0
 62
4
 10
1.01323044E+02
 20
4.17654864E+01
 11
1.01323044E+02
 21
4.07654864E+01
  0
LINE
  8
0
 62
4
 10
9.83230439E+01
 20
4.17654864E+01
 11
9.83230439E+01
 21
4.07654864E+01
  0
LINE
  8
0
 62
4
 10
9.55230439E+01
 20
3.42654864E+01
 11
9.63230439E+01
 21
3.42654864E+01
  0
LINE
  8
0
 62
4
 10
1.03323044E+02
 20
3.35654864E+01
 11
1.04123044E+02
 21
3.35654864E+01
  0
LINE
  8
0
 62
4
 10
9.73230439E+01
 20
4.17654864E+01
 11
1.02323044E+02
 21
4.17654864E+01
  0
LINE
  8
0
 62
4
 10
9.83230439E+01
 20
4.32654864E+01
 11
1.01323044E+02
 21
4.32654864E+01
  0
LINE
  8
0
 62
4
 10
9.73230439E+01
 20
4.22654864E+01
 11
9.73230439E+01
 21
4.17654864E+01
  0
LINE
  8
0
 62
4
 10
1.02323044E+02
 20
4.22654864E+01
 11
1.02323044E+02
 21
4.17654864E+01
  0
LINE
  8
0
 62
4
 10
9.83230439E+01
 20
4.12654864E+01
 11
1.01323044E+02
 21
4.12654864E+01
  0
ARC
  8
0
 62
4
 10
9.63230471E+01
 20
3.99654832E+01
 40
8.00003254E-01
 50
9.00000002E+01
 51
1.79999767E+02
  0
ARC
  8
0
 62
4
 10
1.03324706E+02
 20
3.99671490E+01
 40
7.98339134E-01
 50
3.59880678E+02
 51
9.01193227E+01
  0
ARC
  8
0
 62
4
 10
9.68230482E+01
 20
3.94654821E+01
 40
5.00004290E-01
 50
9.00000002E+01
 51
1.79999508E+02
  0
ARC
  8
0
 62
4
 10
1.02824706E+02
 20
3.94671490E+01
 40
4.98340176E-01
 50
3.59808845E+02
 51
9.01911544E+01
  0
ARC
  8
0
 62
4
 10
1.05122840E+02
 20
3.69186207E+01
 40
5.00207143E-01
 50
3.00013240E+02
 51
2.13706628E-01
  0
ARC
  8
0
 62
4
 10
1.04324192E+02
 20
3.73828421E+01
 40
4.98857363E-01
 50
3.30554632E+02
 51
3.59729437E+02
  0
ARC
  8
0
 62
4
 10
1.01324456E+02
 20
4.22668987E+01
 40
9.98588677E-01
 50
3.59918966E+02
 51
9.00810348E+01
  0
ARC
  8
0
 62
4
 10
9.83232966E+01
 20
4.22652336E+01
 40
1.00025280E+00
 50
9.00000002E+01
 51
1.79985521E+02
  0
LINE
  8
0
 62
4
 10
1.03073044E+02
 20
3.77654864E+01
 11
1.03073044E+02
 21
3.22654864E+01
  0
LINE
  8
0
 62
4
 10
9.65730439E+01
 20
3.38654864E+01
 11
9.65730439E+01
 21
3.22654864E+01
  0
LINE
  8
0
 62
4
 10
9.65730439E+01
 20
3.38654864E+01
 11
9.77730439E+01
 21
3.38654864E+01
  0
LINE
  8
0
 62
4
 10
9.65730439E+01
 20
3.42654864E+01
 11
9.77730439E+01
 21
3.42654864E+01
  0
LINE
  8
0
 62
4
 10
9.65730439E+01
 20
3.77654864E+01
 11
9.65730439E+01
 21
3.42654864E+01
  0
LINE
  8
0
 62
4
 10
9.77730439E+01
 20
3.60654864E+01
 11
1.01873044E+02
 21
3.60654864E+01
  0
LINE
  8
0
 62
4
 10
9.88230439E+01
 20
3.63654864E+01
 11
1.00823044E+02
 21
3.63654864E+01
  0
LINE
  8
0
 62
4
 10
9.85230439E+01
 20
3.53654864E+01
 11
1.01123044E+02
 21
3.53654864E+01
  0
LINE
  8
0
 62
4
 10
9.88230439E+01
 20
3.63654864E+01
 11
9.88230439E+01
 21
3.60654864E+01
  0
LINE
  8
0
 62
4
 10
9.77730439E+01
 20
3.60654864E+01
 11
9.77730439E+01
 21
3.22654864E+01
  0
LINE
  8
0
 62
4
 10
9.85230439E+01
 20
3.53654864E+01
 11
9.85230439E+01
 21
3.27654864E+01
  0
LINE
  8
0
 62
4
 10
9.77730439E+01
 20
3.60654864E+01
 11
9.85230439E+01
 21
3.53654864E+01
  0
LINE
  8
0
 62
4
 10
1.01873044E+02
 20
3.60654864E+01
 11
1.01873044E+02
 21
3.22654864E+01
  0
LINE
  8
0
 62
4
 10
1.00823044E+02
 20
3.63654864E+01
 11
1.00823044E+02
 21
3.60654864E+01
  0
LINE
  8
0
 62
4
 10
1.01123044E+02
 20
3.53654864E+01
 11
1.01123044E+02
 21
3.27654864E+01
  0
LINE
  8
0
 62
4
 10
1.01123044E+02
 20
3.53654864E+01
 11
1.01873044E+02
 21
3.60654864E+01
  0
LINE
  8
0
 62
4
 10
1.01123044E+02
 20
3.27654864E+01
 11
1.01658758E+02
 21
3.22654864E+01
  0
LINE
  8
0
 62
4
 10
9.83230439E+01
 20
3.91654864E+01
 11
9.83230439E+01
 21
3.80654864E+01
  0
LINE
  8
0
 62
4
 10
1.01323044E+02
 20
3.91654864E+01
 11
1.01323044E+02
 21
3.80654864E+01
  0
LINE
  8
0
 62
6
 10
9.85930439E+01
 20
3.91654864E+01
 11
9.85930439E+01
 21
3.77954864E+01
  0
LINE
  8
0
 62
6
 10
1.01053044E+02
 20
3.91654864E+01
 11
1.01053044E+02
 21
3.77954864E+01
  0
LINE
  8
0
 62
4
 10
1.05035083E+02
 20
3.62902199E+01
 11
1.05373044E+02
 21
3.64854864E+01
  0
LINE
  8
0
 62
7
 10
9.65730439E+01
 20
3.22654864E+01
 11
9.65730439E+01
 21
1.32754864E+01
  0
LINE
  8
0
 62
7
 10
1.03073044E+02
 20
3.22654864E+01
 11
1.03073044E+02
 21
1.32754864E+01
  0
ARC
  8
0
 62
7
 10
9.98240065E+01
 20
2.27745238E+01
 40
1.10010693E+01
 50
3.00292122E+02
 51
3.29707878E+02
  0
ARC
  8
0
 62
7
 10
9.98119966E+01
 20
2.27784491E+01
 40
1.09943448E+01
 50
2.10336295E+02
 51
2.39808574E+02
  0
ARC
  8
0
 62
7
 10
9.98119964E+01
 20
2.27625239E+01
 40
1.09943446E+01
 50
1.20191426E+02
 51
1.49663705E+02
  0
ARC
  8
0
 62
7
 10
9.98240067E+01
 20
2.27664492E+01
 40
1.10010691E+01
 50
3.02921218E+01
 51
5.97078780E+01
  0
LINE
  8
0
 62
7
 10
9.03230439E+01
 20
2.83154864E+01
 11
9.03230439E+01
 21
1.72254864E+01
  0
LINE
  8
0
 62
7
 10
1.09323044E+02
 20
2.83154864E+01
 11
1.09323044E+02
 21
1.72254864E+01
  0
LINE
  8
0
  6
CENTER
 62
2
 10
8.80682575E+01
 20
2.27654864E+01
 11
1.11413044E+02
 21
2.27654864E+01
  0
LINE
  8
0
 62
7
 10
9.42830439E+01
 20
3.22654864E+01
 11
1.05373044E+02
 21
3.22654864E+01
  0
LINE
  8
0
 62
7
 10
9.42830439E+01
 20
1.32754864E+01
 11
1.05373044E+02
 21
1.32754864E+01
  0
ARC
  8
0
 62
7
 10
9.98230439E+01
 20
2.27654864E+01
 40
9.50000000E+00
 50
2.90005190E+02
 51
6.99948098E+01
  0
ARC
  8
0
 62
7
 10
9.98230439E+01
 20
2.27654864E+01
 40
9.50000000E+00
 50
1.10005190E+02
 51
2.49994810E+02
  0
LINE
  8
0
  6
CENTER
 62
2
 10
5.97830439E+01
 20
7.14986296E+01
 11
5.97830439E+01
 21
4.80633304E+01
  0
ARC
  8
0
 62
7
 10
4.52830439E+01
 20
5.97654864E+01
 40
2.06700000E+00
 50
2.34878692E+02
 51
3.21206767E+02
  0
ARC
  8
0
 62
2
 10
4.52896229E+01
 20
5.97704866E+01
 40
2.50000000E+00
 50
2.26627589E+02
 51
3.28667749E+02
  0
LINE
  8
0
 62
4
 10
1.77896229E+01
 20
5.11204866E+01
 11
1.77896229E+01
 21
6.84204866E+01
  0
LINE
  8
0
  6
CENTER
 62
6
 10
2.22896229E+01
 20
6.97704853E+01
 11
2.22896229E+01
 21
4.97704866E+01
  0
LINE
  8
0
 62
4
 10
2.67896228E+01
 20
6.40704866E+01
 11
1.77896228E+01
 21
6.40704866E+01
  0
LINE
  8
0
 62
4
 10
2.67896228E+01
 20
6.46954866E+01
 11
1.77896228E+01
 21
6.46954866E+01
  0
LINE
  8
0
 62
4
 10
2.67896228E+01
 20
6.41954866E+01
 11
1.77896228E+01
 21
6.41954866E+01
  0
LINE
  8
0
 62
4
 10
2.67896228E+01
 20
6.71454866E+01
 11
1.77896229E+01
 21
6.71454866E+01
  0
LINE
  8
0
 62
4
 10
2.42896228E+01
 20
6.55704866E+01
 11
2.02896228E+01
 21
6.55704866E+01
  0
LINE
  8
0
 62
4
 10
2.42896228E+01
 20
6.47704866E+01
 11
2.02896229E+01
 21
6.47704866E+01
  0
LINE
  8
0
 62
4
 10
2.67896229E+01
 20
6.84204866E+01
 11
1.77896229E+01
 21
6.84204866E+01
  0
LINE
  8
0
 62
4
 10
2.02896229E+01
 20
6.55704866E+01
 11
2.02896229E+01
 21
6.46954866E+01
  0
LINE
  8
0
 62
4
 10
2.67896228E+01
 20
5.54704866E+01
 11
1.77896229E+01
 21
5.54704866E+01
  0
LINE
  8
0
 62
4
 10
2.67896229E+01
 20
5.11204866E+01
 11
1.77896229E+01
 21
5.11204866E+01
  0
LINE
  8
0
 62
6
 10
1.85262378E+00
 20
6.10704866E+01
 11
4.45262378E+00
 21
5.84704866E+01
  0
LINE
  8
0
 62
4
 10
6.78962287E+00
 20
5.84704866E+01
 11
4.45262378E+00
 21
5.84704866E+01
  0
LINE
  8
0
 62
4
 10
9.78962286E+00
 20
5.77704866E+01
 11
6.78962287E+00
 21
5.84704866E+01
  0
LINE
  8
0
 62
4
 10
6.78962286E+00
 20
6.10704866E+01
 11
6.78962286E+00
 21
5.84704866E+01
  0
LINE
  8
0
 62
4
 10
6.78962287E+00
 20
6.10704866E+01
 11
1.85262378E+00
 21
6.10704866E+01
  0
LINE
  8
0
 62
4
 10
9.78962286E+00
 20
6.17704866E+01
 11
6.78962286E+00
 21
6.10704866E+01
  0
LINE
  8
0
 62
4
 10
9.78962286E+00
 20
6.17704866E+01
 11
9.78962286E+00
 21
5.77704866E+01
  0
LINE
  8
0
 62
4
 10
1.77896229E+01
 20
6.30204866E+01
 11
1.52896229E+01
 21
6.30204866E+01
  0
LINE
  8
0
 62
4
 10
1.52896229E+01
 20
5.65204866E+01
 11
1.52896229E+01
 21
6.30204866E+01
  0
LINE
  8
0
 62
4
 10
1.52896229E+01
 20
6.17704866E+01
 11
9.78962286E+00
 21
6.17704866E+01
  0
LINE
  8
0
 62
4
 10
1.52896229E+01
 20
5.77704866E+01
 11
9.78962286E+00
 21
5.77704866E+01
  0
LINE
  8
0
 62
4
 10
1.77896229E+01
 20
5.65204866E+01
 11
1.52896229E+01
 21
5.65204866E+01
  0
LINE
  8
0
 62
4
 10
2.67896229E+01
 20
5.11204866E+01
 11
2.67896229E+01
 21
6.84204866E+01
  0
LINE
  8
0
 62
4
 10
2.42896229E+01
 20
6.46954866E+01
 11
2.42896229E+01
 21
6.55704866E+01
  0
LINE
  8
0
 62
4
 10
2.12796229E+01
 20
5.87704866E+01
 11
2.33496229E+01
 21
6.08304866E+01
  0
LINE
  8
0
 62
4
 10
2.33496229E+01
 20
5.87104866E+01
 11
2.12296229E+01
 21
6.08304866E+01
  0
CIRCLE
  8
0
 62
4
 10
2.22904981E+01
 20
5.97680281E+01
 40
2.50000000E+00
  0
LINE
  8
0
 62
4
 10
2.92896229E+01
 20
5.65204866E+01
 11
2.67896229E+01
 21
5.65204866E+01
  0
LINE
  8
0
 62
4
 10
3.37896229E+01
 20
5.77704866E+01
 11
2.92896229E+01
 21
5.77704866E+01
  0
LINE
  8
0
 62
4
 10
3.47896229E+01
 20
5.87704866E+01
 11
3.37896229E+01
 21
5.77704866E+01
  0
LINE
  8
0
 62
4
 10
3.47896229E+01
 20
6.07704866E+01
 11
3.47896229E+01
 21
5.87704866E+01
  0
LINE
  8
0
 62
4
 10
2.92896229E+01
 20
6.30204866E+01
 11
2.67896229E+01
 21
6.30204866E+01
  0
LINE
  8
0
 62
4
 10
3.37896229E+01
 20
6.17704866E+01
 11
2.92896229E+01
 21
6.17704866E+01
  0
LINE
  8
0
 62
4
 10
3.37896229E+01
 20
6.17704866E+01
 11
3.37896229E+01
 21
5.77704866E+01
  0
LINE
  8
0
 62
4
 10
2.92896229E+01
 20
5.65204866E+01
 11
2.92896229E+01
 21
6.30204866E+01
  0
LINE
  8
0
 62
4
 10
3.47896229E+01
 20
6.07704866E+01
 11
3.37896229E+01
 21
6.17704866E+01
  0
LINE
  8
0
 62
7
 10
2.67896229E+01
 20
5.12754864E+01
 11
4.07830439E+01
 21
5.12754864E+01
  0
LINE
  8
0
 62
7
 10
2.67896229E+01
 20
6.82654864E+01
 11
4.07830439E+01
 21
6.82654864E+01
  0
LINE
  8
0
 62
7
 10
-2.02169561E+01
 20
6.82654864E+01
 11
1.77896229E+01
 21
6.82654864E+01
  0
LINE
  8
0
 62
7
 10
-2.02169561E+01
 20
5.12754864E+01
 11
1.77896229E+01
 21
5.12754864E+01
  0
LINE
  8
0
 62
4
 10
-2.02169561E+01
 20
5.11154864E+01
 11
-2.02169561E+01
 21
6.84154864E+01
  0
LINE
  8
0
  6
CENTER
 62
6
 10
-2.47169561E+01
 20
6.97654851E+01
 11
-2.47169561E+01
 21
4.97654864E+01
  0
LINE
  8
0
 62
4
 10
-2.92169561E+01
 20
6.40654864E+01
 11
-2.02169561E+01
 21
6.40654864E+01
  0
LINE
  8
0
 62
4
 10
-2.92169561E+01
 20
6.46904864E+01
 11
-2.02169561E+01
 21
6.46904864E+01
  0
LINE
  8
0
 62
4
 10
-2.92169561E+01
 20
6.41904864E+01
 11
-2.02169561E+01
 21
6.41904864E+01
  0
LINE
  8
0
 62
4
 10
-2.92169561E+01
 20
6.71404864E+01
 11
-2.02169561E+01
 21
6.71404864E+01
  0
LINE
  8
0
 62
4
 10
-2.67169561E+01
 20
6.55654864E+01
 11
-2.27169561E+01
 21
6.55654864E+01
  0
LINE
  8
0
 62
4
 10
-2.67169561E+01
 20
6.47654864E+01
 11
-2.27169561E+01
 21
6.47654864E+01
  0
LINE
  8
0
 62
4
 10
-2.92169561E+01
 20
6.84154864E+01
 11
-2.02169561E+01
 21
6.84154864E+01
  0
LINE
  8
0
 62
4
 10
-2.27169561E+01
 20
6.55654864E+01
 11
-2.27169561E+01
 21
6.46904864E+01
  0
LINE
  8
0
 62
4
 10
-2.92169561E+01
 20
5.54654864E+01
 11
-2.02169561E+01
 21
5.54654864E+01
  0
LINE
  8
0
 62
4
 10
-2.92169561E+01
 20
5.11154864E+01
 11
-2.02169561E+01
 21
5.11154864E+01
  0
LINE
  8
0
 62
6
 10
-4.27995704E+00
 20
6.10654864E+01
 11
-6.87995704E+00
 21
5.84654864E+01
  0
LINE
  8
0
 62
4
 10
-9.21695613E+00
 20
5.84654864E+01
 11
-6.87995704E+00
 21
5.84654864E+01
  0
LINE
  8
0
 62
4
 10
-1.22169561E+01
 20
5.77654864E+01
 11
-9.21695613E+00
 21
5.84654864E+01
  0
LINE
  8
0
 62
4
 10
-9.21695612E+00
 20
6.10654864E+01
 11
-9.21695612E+00
 21
5.84654864E+01
  0
LINE
  8
0
 62
4
 10
-9.21695613E+00
 20
6.10654864E+01
 11
-4.27995704E+00
 21
6.10654864E+01
  0
LINE
  8
0
 62
4
 10
-1.22169561E+01
 20
6.17654864E+01
 11
-9.21695612E+00
 21
6.10654864E+01
  0
LINE
  8
0
 62
4
 10
-1.22169561E+01
 20
6.17654864E+01
 11
-1.22169561E+01
 21
5.77654864E+01
  0
LINE
  8
0
 62
4
 10
-2.02169561E+01
 20
6.30154864E+01
 11
-1.77169561E+01
 21
6.30154864E+01
  0
LINE
  8
0
 62
4
 10
-1.77169561E+01
 20
5.65154864E+01
 11
-1.77169561E+01
 21
6.30154864E+01
  0
LINE
  8
0
 62
4
 10
-1.77169561E+01
 20
6.17654864E+01
 11
-1.22169561E+01
 21
6.17654864E+01
  0
LINE
  8
0
 62
4
 10
-1.77169561E+01
 20
5.77654864E+01
 11
-1.22169561E+01
 21
5.77654864E+01
  0
LINE
  8
0
 62
4
 10
-2.02169561E+01
 20
5.65154864E+01
 11
-1.77169561E+01
 21
5.65154864E+01
  0
LINE
  8
0
 62
4
 10
-2.92169561E+01
 20
5.11154864E+01
 11
-2.92169561E+01
 21
6.84154864E+01
  0
LINE
  8
0
 62
4
 10
-2.67169561E+01
 20
6.46904864E+01
 11
-2.67169561E+01
 21
6.55654864E+01
  0
LINE
  8
0
 62
4
 10
-2.37069561E+01
 20
5.87654864E+01
 11
-2.57769561E+01
 21
6.08254864E+01
  0
LINE
  8
0
 62
4
 10
-2.57769561E+01
 20
5.87054864E+01
 11
-2.36569561E+01
 21
6.08254864E+01
  0
CIRCLE
  8
0
 62
4
 10
-2.47178314E+01
 20
5.97630279E+01
 40
2.50000000E+00
  0
LINE
  8
0
 62
4
 10
-3.17169561E+01
 20
5.65154864E+01
 11
-2.92169561E+01
 21
5.65154864E+01
  0
LINE
  8
0
 62
4
 10
-3.62169561E+01
 20
5.77654864E+01
 11
-3.17169561E+01
 21
5.77654864E+01
  0
LINE
  8
0
 62
4
 10
-3.72169561E+01
 20
5.87654864E+01
 11
-3.62169561E+01
 21
5.77654864E+01
  0
LINE
  8
0
 62
4
 10
-3.72169561E+01
 20
6.07654864E+01
 11
-3.72169561E+01
 21
5.87654864E+01
  0
LINE
  8
0
 62
4
 10
-3.17169561E+01
 20
6.30154864E+01
 11
-2.92169561E+01
 21
6.30154864E+01
  0
LINE
  8
0
 62
4
 10
-3.62169561E+01
 20
6.17654864E+01
 11
-3.17169561E+01
 21
6.17654864E+01
  0
LINE
  8
0
 62
4
 10
-3.62169561E+01
 20
6.17654864E+01
 11
-3.62169561E+01
 21
5.77654864E+01
  0
LINE
  8
0
 62
4
 10
-3.17169561E+01
 20
5.65154864E+01
 11
-3.17169561E+01
 21
6.30154864E+01
  0
LINE
  8
0
 62
4
 10
-3.72169561E+01
 20
6.07654864E+01
 11
-3.62169561E+01
 21
6.17654864E+01
  0
LINE
  8
0
 62
7
 10
6.60830439E+01
 20
5.42154864E+01
 11
6.60830439E+01
 21
5.02654864E+01
  0
ARC
  8
0
 62
7
 10
6.25213586E+01
 20
5.80884360E+01
 40
5.26168612E+00
 50
3.12602610E+02
 51
3.42148792E+02
  0
ARC
  8
0
 62
7
 10
6.25213586E+01
 20
6.14425368E+01
 40
5.26168612E+00
 50
1.79656451E+01
 51
4.73973904E+01
  0
LINE
  8
0
 62
7
 10
6.60830439E+01
 20
6.53154864E+01
 11
6.60830439E+01
 21
6.92654864E+01
  0
LINE
  8
0
 62
7
 10
4.24830439E+01
 20
5.42154864E+01
 11
4.24830439E+01
 21
5.02654864E+01
  0
LINE
  8
0
 62
7
 10
6.60830439E+01
 20
5.42154864E+01
 11
4.24830438E+01
 21
5.42154864E+01
  0
ARC
  8
0
 62
7
 10
4.60390162E+01
 20
6.14450464E+01
 40
5.25597237E+00
 50
1.32575287E+02
 51
1.76450079E+02
  0
LINE
  8
0
 62
7
 10
6.60830439E+01
 20
6.53154864E+01
 11
4.24830438E+01
 21
6.53154864E+01
  0
LINE
  8
0
 62
7
 10
4.24830439E+01
 20
6.53154864E+01
 11
4.24830439E+01
 21
6.92654864E+01
  0
LINE
  8
0
 62
7
 10
-6.22169561E+01
 20
6.92654864E+01
 11
-6.22169561E+01
 21
5.02654864E+01
  0
LINE
  8
0
 62
7
 10
-6.05169561E+01
 20
5.42154864E+01
 11
-6.05169561E+01
 21
5.02654864E+01
  0
ARC
  8
0
 62
7
 10
-5.69609838E+01
 20
5.80859265E+01
 40
5.25597237E+00
 50
1.80004797E+02
 51
2.27424712E+02
  0
LINE
  8
0
 62
7
 10
-6.22169561E+01
 20
5.02654864E+01
 11
-4.02169561E+01
 21
5.02654864E+01
  0
ARC
  8
0
 62
7
 10
-4.54786414E+01
 20
5.80884360E+01
 40
5.26168612E+00
 50
3.12602610E+02
 51
3.59967881E+02
  0
LINE
  8
0
 62
7
 10
-4.19169561E+01
 20
5.42154864E+01
 11
-4.19169561E+01
 21
5.02654864E+01
  0
LINE
  8
0
 62
7
 10
-4.19169562E+01
 20
5.42154864E+01
 11
-6.05169562E+01
 21
5.42154864E+01
  0
ARC
  8
0
 62
7
 10
-4.54786414E+01
 20
6.14425368E+01
 40
5.26168612E+00
 50
3.21190238E-02
 51
4.73973904E+01
  0
LINE
  8
0
 62
7
 10
-4.19169561E+01
 20
6.53154864E+01
 11
-4.19169561E+01
 21
6.92654864E+01
  0
LINE
  8
0
 62
7
 10
-4.02169561E+01
 20
5.02654864E+01
 11
-4.02169561E+01
 21
6.92654864E+01
  0
LINE
  8
0
 62
7
 10
-6.05169561E+01
 20
6.53154864E+01
 11
-6.05169561E+01
 21
6.92654864E+01
  0
ARC
  8
0
 62
7
 10
-5.69609838E+01
 20
6.14450464E+01
 40
5.25597237E+00
 50
1.32575287E+02
 51
1.79995203E+02
  0
LINE
  8
0
 62
7
 10
-4.19169562E+01
 20
6.53154864E+01
 11
-6.05169562E+01
 21
6.53154864E+01
  0
LINE
  8
0
 62
7
 10
-6.22169561E+01
 20
6.92654864E+01
 11
-4.02169561E+01
 21
6.92654864E+01
  0
LINE
  8
0
  6
CENTER
 62
2
 10
-4.47169561E+01
 20
6.50205794E+01
 11
-4.47169561E+01
 21
5.42154864E+01
  0
CIRCLE
  8
0
 62
7
 10
-4.47169561E+01
 20
5.97654864E+01
 40
2.06700000E+00
  0
CIRCLE
  8
0
 62
2
 10
-4.47103771E+01
 20
5.97704866E+01
 40
2.50000000E+00
  0
CIRCLE
  8
0
 62
7
 10
4.52830439E+01
 20
5.97654864E+01
 40
2.06700000E+00
  0
LINE
  8
0
 62
2
 10
-7.42169561E+01
 20
5.28579864E+01
 11
-6.22169561E+01
 21
5.28579864E+01
  0
LINE
  8
0
 62
2
 10
-7.42169561E+01
 20
6.66829864E+01
 11
-6.22169561E+01
 21
6.66829864E+01
  0
LINE
  8
0
 62
2
 10
-8.62469561E+01
 20
5.76984864E+01
 11
-7.92169561E+01
 21
5.76984864E+01
  0
LINE
  8
0
 62
2
 10
-8.62469561E+01
 20
6.18324864E+01
 11
-7.92169561E+01
 21
6.18324864E+01
  0
LINE
  8
0
 62
7
 10
-7.34169561E+01
 20
5.17754864E+01
 11
-7.42169561E+01
 21
5.25754864E+01
  0
LINE
  8
0
 62
7
 10
-7.34169561E+01
 20
5.17754864E+01
 11
-6.22169561E+01
 21
5.17754864E+01
  0
LINE
  8
0
 62
7
 10
-7.74569561E+01
 20
5.67754864E+01
 11
-7.42169561E+01
 21
5.67754864E+01
  0
LINE
  8
0
 62
7
 10
-7.34169561E+01
 20
5.97654864E+01
 11
-7.34169561E+01
 21
5.17754864E+01
  0
LINE
  8
0
 62
7
 10
-7.92169561E+01
 20
5.72654864E+01
 11
-7.92169561E+01
 21
6.22654864E+01
  0
LINE
  8
0
 62
7
 10
-7.79569561E+01
 20
5.72654864E+01
 11
-7.74569561E+01
 21
5.67754864E+01
  0
LINE
  8
0
 62
7
 10
-7.79569561E+01
 20
5.72654864E+01
 11
-7.79569561E+01
 21
6.22654864E+01
  0
LINE
  8
0
 62
7
 10
-8.62469561E+01
 20
5.72654864E+01
 11
-7.79569561E+01
 21
5.72654864E+01
  0
LINE
  8
0
 62
7
 10
-8.62469561E+01
 20
6.22654864E+01
 11
-7.79569561E+01
 21
6.22654864E+01
  0
LINE
  8
0
 62
7
 10
-7.42169561E+01
 20
6.69654864E+01
 11
-7.42169561E+01
 21
5.25754864E+01
  0
LINE
  8
0
 62
7
 10
-7.74569561E+01
 20
6.27654864E+01
 11
-7.42169561E+01
 21
6.27654864E+01
  0
LINE
  8
0
 62
7
 10
-7.34169561E+01
 20
5.97654864E+01
 11
-7.34169561E+01
 21
6.77654864E+01
  0
LINE
  8
0
 62
7
 10
-7.79569561E+01
 20
6.22654864E+01
 11
-7.74569561E+01
 21
6.27654864E+01
  0
LINE
  8
0
 62
7
 10
-7.34169561E+01
 20
6.77654864E+01
 11
-7.42169561E+01
 21
6.69654864E+01
  0
LINE
  8
0
 62
7
 10
-7.34169561E+01
 20
6.77654864E+01
 11
-6.22169561E+01
 21
6.77654864E+01
  0
LINE
  8
0
 62
7
 10
4.07830439E+01
 20
6.92654864E+01
 11
4.07830439E+01
 21
5.02754864E+01
  0
LINE
  8
0
  6
CENTER
 62
2
 10
4.52830439E+01
 20
6.53154864E+01
 11
4.52830439E+01
 21
5.42154864E+01
  0
LINE
  8
0
 62
7
 10
4.07830439E+01
 20
5.02754864E+01
 11
6.77830439E+01
 21
5.02754864E+01
  0
LINE
  8
0
 62
7
 10
4.97830439E+01
 20
6.30654864E+01
 11
4.97830439E+01
 21
5.64754864E+01
  0
LINE
  8
0
 62
7
 10
-4.02169561E+01
 20
5.12754864E+01
 11
-2.92169561E+01
 21
5.12754864E+01
  0
LINE
  8
0
 62
7
 10
-4.02169561E+01
 20
6.82654864E+01
 11
-2.92169561E+01
 21
6.82654864E+01
  0
LINE
  8
0
 62
7
 10
4.07830439E+01
 20
6.92654864E+01
 11
6.77830439E+01
 21
6.92654864E+01
  0
LINE
  8
0
 62
7
 10
6.77830439E+01
 20
6.92654864E+01
 11
6.77830439E+01
 21
6.30654864E+01
  0
LINE
  8
0
 62
7
 10
-6.37169561E+01
 20
6.77654864E+01
 11
-6.37169561E+01
 21
5.17754864E+01
  0
LINE
  8
0
 62
7
 10
4.97830439E+01
 20
6.30654864E+01
 11
6.77830439E+01
 21
6.30654864E+01
  0
LINE
  8
0
 62
7
 10
4.97830439E+01
 20
5.64754864E+01
 11
6.77830439E+01
 21
5.64754864E+01
  0
LINE
  8
0
 62
7
 10
6.77830439E+01
 20
5.64754864E+01
 11
6.77830439E+01
 21
5.02754864E+01
  0
LINE
  8
0
  6
CENTER
 62
2
 10
-9.69399951E+01
 20
5.97654864E+01
 11
5.12950043E+01
 21
5.97654864E+01
  0
CIRCLE
  8
0
 62
2
 10
4.52896229E+01
 20
5.97704866E+01
 40
2.50000000E+00
  0
ARC
  8
0
 62
4
 10
-9.04969555E+01
 20
5.77654866E+01
 40
4.24999934E+00
 50
3.31927511E+02
 51
2.80724892E+01
  0
ARC
  8
0
 62
4
 10
-9.04969555E+01
 20
6.17654862E+01
 40
4.24999934E+00
 50
3.31927511E+02
 51
2.80724892E+01
  0
ARC
  8
0
 62
4
 10
-8.59969568E+01
 20
5.77654866E+01
 40
4.24999934E+00
 50
1.51927511E+02
 51
2.08072489E+02
  0
ARC
  8
0
 62
4
 10
-8.59969568E+01
 20
6.17654862E+01
 40
4.24999934E+00
 50
1.51927511E+02
 51
2.08072489E+02
  0
LINE
  8
0
 62
4
 10
-8.97469561E+01
 20
5.97654864E+01
 11
-8.67469561E+01
 21
5.97654864E+01
  0
LINE
  8
0
 62
4
 10
-9.02469561E+01
 20
5.57654867E+01
 11
-8.62469561E+01
 21
5.57654867E+01
  0
LINE
  8
0
 62
4
 10
-9.02469561E+01
 20
6.37654861E+01
 11
-8.62469561E+01
 21
6.37654861E+01
  0
LINE
  8
0
 62
7
 10
-9.37169561E+01
 20
6.22654864E+01
 11
-9.02469561E+01
 21
6.22654864E+01
  0
LINE
  8
0
 62
7
 10
-9.37169561E+01
 20
5.72654864E+01
 11
-9.02469561E+01
 21
5.72654864E+01
  0
LINE
  8
0
 62
7
 10
-9.42169561E+01
 20
6.17654864E+01
 11
-9.42169561E+01
 21
5.77654864E+01
  0
LINE
  8
0
 62
7
 10
-9.42169561E+01
 20
6.17654864E+01
 11
-9.37169561E+01
 21
6.22654864E+01
  0
LINE
  8
0
 62
7
 10
-9.42169561E+01
 20
5.77654864E+01
 11
-9.37169561E+01
 21
5.72654864E+01
  0
LINE
  8
0
 62
7
 10
-9.37169561E+01
 20
6.22654864E+01
 11
-9.37169561E+01
 21
5.72654864E+01
  0
LINE
  8
0
 62
4
 10
-9.02469561E+01
 20
6.37654861E+01
 11
-9.02469561E+01
 21
5.57654867E+01
  0
LINE
  8
0
 62
4
 10
-8.62469561E+01
 20
5.57654867E+01
 11
-8.62469561E+01
 21
6.37654861E+01
  0
LINE
  8
0
 62
2
 10
-9.41499561E+01
 20
5.76984864E+01
 11
-9.02469561E+01
 21
5.76984864E+01
  0
LINE
  8
0
 62
2
 10
-9.41499561E+01
 20
6.18324864E+01
 11
-9.02469561E+01
 21
6.18324864E+01
  0
TEXT
  8
0
 62
7
 10
-1.95528936E+01
 20
5.23654864E+01
 40
1.50000000E+00
  1
PBDAAS16-7
 41
1.00000000E+00
  7
MONOTXT
  0
ARC
  8
0
 62
7
 10
4.60390162E+01
 20
5.80859265E+01
 40
5.25597237E+00
 50
1.83549921E+02
 51
2.27424712E+02
  0
LINE
  8
0
  6
PHANTOM
 10
-1.21366663E+00
 20
4.42461580E+01
 11
-1.21366663E+00
 21
7.61203238E+01
  0
LINE
  8
0
  6
CENTER
 62
6
 10
-7.83130643E+01
 20
-4.83952593E+01
 11
-7.83130643E+01
 21
-3.38461910E+01
  0
CIRCLE
  8
0
 62
4
 10
-7.83130643E+01
 20
-4.13080918E+01
 40
4.00000000E+00
  0
CIRCLE
  8
0
 62
4
 10
-7.83130643E+01
 20
-4.13080918E+01
 40
2.00000000E+00
  0
CIRCLE
  8
0
 62
4
 10
-7.83130643E+01
 20
-4.13080918E+01
 40
2.50000000E+00
  0
LINE
  8
0
  6
CENTER
 62
6
 10
-8.54487326E+01
 20
-4.13080918E+01
 11
-7.09713345E+01
 21
-4.13080918E+01
  0
LINE
  8
0
  6
CENTER
 62
6
 10
-5.32924617E+01
 20
-4.13080918E+01
 11
-2.68479740E+01
 21
-4.13080918E+01
  0
LINE
  8
0
 62
4
 10
-3.05004025E+01
 20
-4.53080918E+01
 11
-3.05004025E+01
 21
-3.73080918E+01
  0
LINE
  8
0
 62
4
 10
-4.94904025E+01
 20
-4.53080918E+01
 11
-4.94904025E+01
 21
-3.73080918E+01
  0
LINE
  8
0
 62
4
 10
-5.04904025E+01
 20
-3.88080918E+01
 11
-4.99904025E+01
 21
-3.88080918E+01
  0
LINE
  8
0
 62
4
 10
-5.04904025E+01
 20
-4.38080918E+01
 11
-4.99904025E+01
 21
-4.38080918E+01
  0
LINE
  8
0
 62
4
 10
-4.94904025E+01
 20
-4.38080918E+01
 11
-3.05004025E+01
 21
-4.38080918E+01
  0
LINE
  8
0
 62
4
 10
-4.94904025E+01
 20
-3.88080918E+01
 11
-3.05004025E+01
 21
-3.88080918E+01
  0
LINE
  8
0
 62
4
 10
-3.00004025E+01
 20
-4.53080918E+01
 11
-3.00004025E+01
 21
-3.73080918E+01
  0
LINE
  8
0
 62
4
 10
-4.99904025E+01
 20
-4.53080918E+01
 11
-4.99904025E+01
 21
-3.73080918E+01
  0
LINE
  8
0
 62
4
 10
-5.09904025E+01
 20
-4.33080918E+01
 11
-5.09904025E+01
 21
-3.93080918E+01
  0
LINE
  8
0
 62
4
 10
-2.90004025E+01
 20
-4.33080918E+01
 11
-2.90004025E+01
 21
-3.93080918E+01
  0
LINE
  8
0
 62
4
 10
-3.00004025E+01
 20
-4.38080918E+01
 11
-2.95004025E+01
 21
-4.38080918E+01
  0
LINE
  8
0
 62
4
 10
-3.00004025E+01
 20
-3.88080918E+01
 11
-2.95004025E+01
 21
-3.88080918E+01
  0
LINE
  8
0
 62
4
 10
-4.99904025E+01
 20
-4.53080918E+01
 11
-4.94904025E+01
 21
-4.53080918E+01
  0
LINE
  8
0
 62
4
 10
-4.99904025E+01
 20
-3.73080918E+01
 11
-4.94904025E+01
 21
-3.73080918E+01
  0
LINE
  8
0
 62
4
 10
-3.05004025E+01
 20
-4.53080918E+01
 11
-3.00004025E+01
 21
-4.53080918E+01
  0
LINE
  8
0
 62
4
 10
-3.05004025E+01
 20
-3.73080918E+01
 11
-3.00004025E+01
 21
-3.73080918E+01
  0
LINE
  8
0
 62
4
 10
-5.04904025E+01
 20
-4.38080918E+01
 11
-5.09904025E+01
 21
-4.33080918E+01
  0
LINE
  8
0
 62
4
 10
-5.09904025E+01
 20
-3.93080918E+01
 11
-5.04904025E+01
 21
-3.88080918E+01
  0
LINE
  8
0
 62
4
 10
-2.95004025E+01
 20
-4.38080918E+01
 11
-2.90004025E+01
 21
-4.33080918E+01
  0
LINE
  8
0
 62
4
 10
-2.90004025E+01
 20
-3.93080918E+01
 11
-2.95004025E+01
 21
-3.88080918E+01
  0
LINE
  8
0
 62
4
 10
-5.04904025E+01
 20
-4.38080918E+01
 11
-5.04904025E+01
 21
-3.88080918E+01
  0
LINE
  8
0
 62
4
 10
-2.95004025E+01
 20
-4.38080918E+01
 11
-2.95004025E+01
 21
-3.88080918E+01
  0
LINE
  8
0
 62
4
 10
4.83234426E+01
 20
-7.82702324E+01
 11
6.13234426E+01
 21
-7.82702324E+01
  0
LINE
  8
0
 62
4
 10
4.83234426E+01
 20
-7.62702324E+01
 11
6.13234426E+01
 21
-7.62702324E+01
  0
ARC
  8
0
 62
4
 10
6.53234426E+01
 20
-7.12702324E+01
 40
3.00000000E+00
 50
9.00000002E+01
 51
1.80000000E+02
  0
ARC
  8
0
 62
4
 10
7.93234426E+01
 20
-7.12702324E+01
 40
3.00000000E+00
 50
0.00000000E+00
 51
9.00000002E+01
  0
ARC
  8
0
 62
4
 10
6.13234426E+01
 20
-7.52702324E+01
 40
3.00000000E+00
 50
2.70000000E+02
 51
0.00000000E+00
  0
ARC
  8
0
 62
4
 10
8.33234426E+01
 20
-7.52702324E+01
 40
3.00000000E+00
 50
1.80000000E+02
 51
2.70000000E+02
  0
ARC
  8
0
 62
4
 10
7.93234426E+01
 20
-7.12702324E+01
 40
1.00000000E+00
 50
0.00000000E+00
 51
9.00000002E+01
  0
ARC
  8
0
 62
4
 10
8.33234426E+01
 20
-7.52702324E+01
 40
1.00000000E+00
 50
1.80000000E+02
 51
2.70000000E+02
  0
ARC
  8
0
 62
4
 10
6.53234426E+01
 20
-7.12702324E+01
 40
1.00000000E+00
 50
9.00000002E+01
 51
1.80000000E+02
  0
ARC
  8
0
 62
4
 10
6.13234426E+01
 20
-7.52702324E+01
 40
1.00000000E+00
 50
2.70000000E+02
 51
0.00000000E+00
  0
LINE
  8
0
  6
CENTER
 62
6
 10
5.47234426E+01
 20
-7.32702324E+01
 11
5.47234426E+01
 21
-8.12702324E+01
  0
LINE
  8
0
 62
4
 10
8.33234426E+01
 20
-7.62702324E+01
 11
9.63234426E+01
 21
-7.62702324E+01
  0
LINE
  8
0
 62
4
 10
8.33234426E+01
 20
-7.82702324E+01
 11
9.63234426E+01
 21
-7.82702324E+01
  0
LINE
  8
0
 62
4
 10
9.63234426E+01
 20
-7.62702324E+01
 11
9.63234426E+01
 21
-7.82702324E+01
  0
LINE
  8
0
 62
4
 10
8.23234426E+01
 20
-7.12702324E+01
 11
8.23234426E+01
 21
-7.52702324E+01
  0
LINE
  8
0
 62
4
 10
8.03234426E+01
 20
-7.12702324E+01
 11
8.03234426E+01
 21
-7.52702324E+01
  0
LINE
  8
0
 62
4
 10
6.43234426E+01
 20
-7.12702324E+01
 11
6.43234426E+01
 21
-7.52702324E+01
  0
LINE
  8
0
 62
4
 10
6.23234426E+01
 20
-7.12702324E+01
 11
6.23234426E+01
 21
-7.52702324E+01
  0
LINE
  8
0
  6
CENTER
 62
6
 10
8.99234426E+01
 20
-7.32702324E+01
 11
8.99234426E+01
 21
-8.12702324E+01
  0
LINE
  8
0
 62
4
 10
6.53234426E+01
 20
-7.02702324E+01
 11
7.93234426E+01
 21
-7.02702324E+01
  0
LINE
  8
0
 62
4
 10
6.91234426E+01
 20
-3.78802324E+01
 11
7.55234426E+01
 21
-3.78802324E+01
  0
LINE
  8
0
 62
4
 10
6.82234426E+01
 20
-7.12702324E+01
 11
7.64234426E+01
 21
-7.12702324E+01
  0
LINE
  8
0
 62
4
 10
7.64234426E+01
 20
-7.02702324E+01
 11
7.64234426E+01
 21
-7.62702324E+01
  0
LINE
  8
0
 62
4
 10
6.82234426E+01
 20
-7.02702324E+01
 11
6.82234426E+01
 21
-7.62702324E+01
  0
LINE
  8
0
 62
4
 10
6.82234426E+01
 20
-7.62702324E+01
 11
7.64234426E+01
 21
-7.62702324E+01
  0
LINE
  8
0
 62
4
 10
6.63234426E+01
 20
-5.72702324E+01
 11
6.63234426E+01
 21
-6.82702324E+01
  0
LINE
  8
0
 62
4
 10
6.91234426E+01
 20
-5.72702324E+01
 11
6.63234426E+01
 21
-5.72702324E+01
  0
LINE
  8
0
 62
4
 10
6.91234426E+01
 20
-3.62702324E+01
 11
6.91234426E+01
 21
-5.72702324E+01
  0
LINE
  8
0
 62
4
 10
6.53234426E+01
 20
-6.82702324E+01
 11
7.93234426E+01
 21
-6.82702324E+01
  0
LINE
  8
0
 62
4
 10
7.55234426E+01
 20
-3.62702324E+01
 11
7.55234426E+01
 21
-5.72702324E+01
  0
LINE
  8
0
 62
4
 10
7.83234426E+01
 20
-5.72702324E+01
 11
7.83234426E+01
 21
-6.82702324E+01
  0
LINE
  8
0
  6
CENTER
 62
6
 10
7.23234426E+01
 20
-3.43460724E+01
 11
7.23234426E+01
 21
-8.12702324E+01
  0
LINE
  8
0
 62
4
 10
6.91234426E+01
 20
-3.62702324E+01
 11
7.55234426E+01
 21
-3.62702324E+01
  0
LINE
  8
0
  6
CENTER
 62
6
 10
6.77734426E+01
 20
-4.32702324E+01
 11
7.68734426E+01
 21
-4.32702324E+01
  0
LINE
  8
0
 62
4
 10
7.55234426E+01
 20
-5.72702324E+01
 11
7.83234426E+01
 21
-5.72702324E+01
  0
LINE
  8
0
 62
4
 10
4.83234426E+01
 20
-7.62702324E+01
 11
4.83234426E+01
 21
-7.82702324E+01
  0
LINE
  8
0
  6
CENTER
 62
6
 10
1.93234426E+01
 20
-3.43460724E+01
 11
1.93234426E+01
 21
-8.12702324E+01
  0
LINE
  8
0
  6
CENTER
 62
6
 10
1.13234426E+01
 20
-7.32702324E+01
 11
1.13234426E+01
 21
-8.12702324E+01
  0
LINE
  8
0
  6
CENTER
 62
6
 10
2.73234426E+01
 20
-7.32702324E+01
 11
2.73234426E+01
 21
-8.12702324E+01
  0
LINE
  8
0
  6
CENTER
 62
6
 10
1.03234426E+01
 20
-4.32702324E+01
 11
2.83234426E+01
 21
-4.32702324E+01
  0
LINE
  8
0
 62
4
 10
5.32344262E+00
 20
-6.82702324E+01
 11
3.33234426E+01
 21
-6.82702324E+01
  0
LINE
  8
0
 62
4
 10
5.32344262E+00
 20
-7.82702324E+01
 11
3.33234426E+01
 21
-7.82702324E+01
  0
LINE
  8
0
 62
4
 10
5.32344262E+00
 20
-7.62702324E+01
 11
3.33234426E+01
 21
-7.62702324E+01
  0
LINE
  8
0
 62
4
 10
2.99234426E+01
 20
-7.62702324E+01
 11
2.99234426E+01
 21
-7.82702324E+01
  0
LINE
  8
0
 62
4
 10
3.33234426E+01
 20
-6.82702324E+01
 11
3.33234426E+01
 21
-7.82702324E+01
  0
ARC
  8
0
 62
4
 10
1.93234426E+01
 20
-4.82702343E+01
 40
1.19980057E+01
 50
5.99945013E+01
 51
1.20005499E+02
  0
CIRCLE
  8
0
 62
4
 10
1.93234426E+01
 20
-4.32702324E+01
 40
2.54999924E+00
  0
LINE
  8
0
 62
4
 10
8.72344262E+00
 20
-7.62702324E+01
 11
8.72344262E+00
 21
-7.82702324E+01
  0
LINE
  8
0
 62
4
 10
1.39234426E+01
 20
-7.62702324E+01
 11
1.39234426E+01
 21
-7.82702324E+01
  0
LINE
  8
0
 62
4
 10
2.47234426E+01
 20
-7.62702324E+01
 11
2.47234426E+01
 21
-7.82702324E+01
  0
LINE
  8
0
 62
4
 10
5.32344262E+00
 20
-6.82702324E+01
 11
5.32344262E+00
 21
-7.82702324E+01
  0
LINE
  8
0
 62
4
 10
1.33234426E+01
 20
-3.78802324E+01
 11
1.33234426E+01
 21
-6.82702324E+01
  0
LINE
  8
0
 62
4
 10
2.53234426E+01
 20
-3.78802324E+01
 11
2.53234426E+01
 21
-6.82702324E+01
  0
LINE
  8
0
 62
4
 10
1.33234426E+01
 20
-5.72702324E+01
 11
2.53234426E+01
 21
-5.72702324E+01
  0
LINE
  8
0
  6
CENTER
 62
6
 10
7.23234426E+01
 20
1.64704872E+00
 11
7.23234426E+01
 21
-3.00187629E+01
  0
LINE
  8
0
 62
4
 10
4.83234426E+01
 20
-2.70238098E-01
 11
4.83234426E+01
 21
-3.67023810E+00
  0
LINE
  8
0
 62
4
 10
4.83234426E+01
 20
-3.67023810E+00
 11
5.47234426E+01
 21
-3.67023810E+00
  0
LINE
  8
0
 62
4
 10
9.63234426E+01
 20
-3.67023810E+00
 11
8.99234426E+01
 21
-3.67023810E+00
  0
LINE
  8
0
 62
4
 10
9.63234426E+01
 20
-2.70238098E-01
 11
9.63234426E+01
 21
-3.67023810E+00
  0
LINE
  8
0
 62
4
 10
9.63234426E+01
 20
-2.70238098E-01
 11
4.83234426E+01
 21
-2.70238098E-01
  0
ARC
  8
0
 62
4
 10
8.99234426E+01
 20
-2.22702381E+01
 40
2.60000000E+00
 50
9.00000002E+01
 51
2.70000000E+02
  0
ARC
  8
0
 62
4
 10
5.47234426E+01
 20
-2.22702381E+01
 40
2.60000000E+00
 50
2.70000000E+02
 51
9.00000002E+01
  0
LINE
  8
0
 62
4
 10
9.63234426E+01
 20
-8.87023810E+00
 11
9.63234426E+01
 21
-1.96702381E+01
  0
LINE
  8
0
 62
4
 10
9.63234426E+01
 20
-2.48702381E+01
 11
9.63234426E+01
 21
-2.82702381E+01
  0
LINE
  8
0
 62
4
 10
4.83234426E+01
 20
-2.48702381E+01
 11
4.83234426E+01
 21
-2.82702381E+01
  0
LINE
  8
0
 62
4
 10
4.83234426E+01
 20
-8.87023810E+00
 11
4.83234426E+01
 21
-1.96702381E+01
  0
LINE
  8
0
  6
CENTER
 62
6
 10
4.80722258E+01
 20
-6.27023810E+00
 11
6.03234426E+01
 21
-6.27023810E+00
  0
LINE
  8
0
 62
4
 10
4.83234426E+01
 20
-8.87023810E+00
 11
5.47234426E+01
 21
-8.87023810E+00
  0
LINE
  8
0
  6
CENTER
 62
6
 10
5.47234426E+01
 20
-1.66702381E+01
 11
5.47234426E+01
 21
-2.78702381E+01
  0
LINE
  8
0
 62
4
 10
4.83234426E+01
 20
-2.48702381E+01
 11
5.47234426E+01
 21
-2.48702381E+01
  0
LINE
  8
0
  6
CENTER
 62
6
 10
4.80722258E+01
 20
-2.22702381E+01
 11
6.03234426E+01
 21
-2.22702381E+01
  0
LINE
  8
0
 62
4
 10
4.83234426E+01
 20
-1.96702381E+01
 11
5.47234426E+01
 21
-1.96702381E+01
  0
LINE
  8
0
  6
CENTER
 62
6
 10
9.68502912E+01
 20
-6.27023810E+00
 11
8.43234426E+01
 21
-6.27023810E+00
  0
LINE
  8
0
 62
4
 10
9.63234426E+01
 20
-8.87023810E+00
 11
8.99234426E+01
 21
-8.87023810E+00
  0
LINE
  8
0
 62
4
 10
9.63234426E+01
 20
-2.48702381E+01
 11
8.99234426E+01
 21
-2.48702381E+01
  0
LINE
  8
0
 62
4
 10
9.63234426E+01
 20
-1.96702381E+01
 11
8.99234426E+01
 21
-1.96702381E+01
  0
LINE
  8
0
  6
CENTER
 62
6
 10
8.99234426E+01
 20
-1.66702381E+01
 11
8.99234426E+01
 21
-2.78702381E+01
  0
LINE
  8
0
  6
CENTER
 62
6
 10
9.68502912E+01
 20
-2.22702381E+01
 11
8.43234426E+01
 21
-2.22702381E+01
  0
LINE
  8
0
 62
4
 10
6.91234426E+01
 20
-8.27023810E+00
 11
6.91234426E+01
 21
-2.02702381E+01
  0
LINE
  8
0
 62
4
 10
7.55234426E+01
 20
-8.27023810E+00
 11
7.55234426E+01
 21
-2.02702381E+01
  0
LINE
  8
0
 62
4
 10
7.83234426E+01
 20
-8.27023810E+00
 11
6.63234426E+01
 21
-8.27023810E+00
  0
LINE
  8
0
 62
4
 10
9.63234426E+01
 20
-2.82702381E+01
 11
4.83234426E+01
 21
-2.82702381E+01
  0
LINE
  8
0
 62
4
 10
7.83234426E+01
 20
-2.02702381E+01
 11
6.63234426E+01
 21
-2.02702381E+01
  0
LINE
  8
0
 62
4
 10
7.83234426E+01
 20
-8.27023810E+00
 11
7.83234426E+01
 21
-2.02702381E+01
  0
LINE
  8
0
 62
4
 10
6.63234426E+01
 20
-8.27023810E+00
 11
6.63234426E+01
 21
-2.02702381E+01
  0
LINE
  8
0
  6
CENTER
 62
6
 10
9.93234426E+01
 20
-1.42702381E+01
 11
4.53234426E+01
 21
-1.42702381E+01
  0
LINE
  8
0
 62
4
 10
6.23234426E+01
 20
-2.70238098E-01
 11
6.23234426E+01
 21
-2.82702381E+01
  0
LINE
  8
0
 62
4
 10
8.23234426E+01
 20
-2.70238098E-01
 11
8.23234426E+01
 21
-2.82702381E+01
  0
LINE
  8
0
  6
CENTER
 62
6
 10
8.99234426E+01
 20
-1.18702381E+01
 11
8.99234426E+01
 21
-6.70238098E-01
  0
LINE
  8
0
  6
CENTER
 62
6
 10
5.47234426E+01
 20
-1.18702381E+01
 11
5.47234426E+01
 21
-6.70238098E-01
  0
ARC
  8
0
 62
4
 10
8.99234426E+01
 20
-6.27023810E+00
 40
2.60000000E+00
 50
9.00000002E+01
 51
2.70000000E+02
  0
ARC
  8
0
 62
4
 10
5.47234426E+01
 20
-6.27023810E+00
 40
2.60000000E+00
 50
2.70000000E+02
 51
9.00000002E+01
  0
TEXT
  8
0
 10
-2.16395902E+01
 20
7.87485294E+01
 40
3.20000005E+00
  1
STRETCH LINE
 41
1.05263158E+00
  7
MONOTXT
  0
TEXT
  8
0
 62
7
 10
-7.82499940E+01
 20
-8.24000031E+01
 40
3.20000005E+00
  1
100
 41
1.00000000E+00
  7
MONOTXT
  0
TEXT
  8
0
 62
7
 10
-8.62499939E+01
 20
-8.24000031E+01
 40
3.20000005E+00
  1
75
 41
1.00000000E+00
  7
MONOTXT
  0
TEXT
  8
0
 62
7
 10
-1.29649994E+02
 20
-8.24000031E+01
 40
3.20000005E+00
  1
STROKE
 41
1.00000000E+00
  7
MONOTXT
  0
TEXT
  8
0
 62
7
 10
-1.31249994E+02
 20
-8.84000031E+01
 40
3.20000005E+00
  1
STRETCH
 41
1.00000000E+00
  7
MONOTXT
  0
TEXT
  8
0
 62
7
 10
-9.58499939E+01
 20
-8.24000031E+01
 40
3.20000005E+00
  1
50
 41
1.00000000E+00
  7
MONOTXT
  0
TEXT
  8
0
 62
7
 10
-1.05449994E+02
 20
-8.24000031E+01
 40
3.20000005E+00
  1
25
 41
1.00000000E+00
  7
MONOTXT
  0
LINE
  8
0
 62
7
 10
-6.89999939E+01
 20
-8.98000031E+01
 11
-6.89999939E+01
 21
-7.78000031E+01
  0
LINE
  8
0
 62
7
 10
-7.85999939E+01
 20
-8.98000031E+01
 11
-7.85999939E+01
 21
-7.78000031E+01
  0
LINE
  8
0
 62
7
 10
-8.81999939E+01
 20
-8.98000031E+01
 11
-8.81999939E+01
 21
-7.78000031E+01
  0
LINE
  8
0
 62
7
 10
-1.33399994E+02
 20
-7.78000031E+01
 11
-6.89999939E+01
 21
-7.78000031E+01
  0
LINE
  8
0
 62
7
 10
-9.77999939E+01
 20
-8.98000031E+01
 11
-9.77999939E+01
 21
-7.78000031E+01
  0
LINE
  8
0
 62
7
 10
-1.07399994E+02
 20
-8.98000031E+01
 11
-1.07399994E+02
 21
-7.78000031E+01
  0
LINE
  8
0
 62
7
 10
-1.33399994E+02
 20
-8.38000031E+01
 11
-6.89999939E+01
 21
-8.38000031E+01
  0
LINE
  8
0
 62
7
 10
-1.33399994E+02
 20
-8.98000031E+01
 11
-1.33399994E+02
 21
-7.78000031E+01
  0
LINE
  8
0
 62
7
 10
-1.33399994E+02
 20
-8.98000031E+01
 11
-6.89999939E+01
 21
-8.98000031E+01
  0
TEXT
  8
0
 62
7
 10
-1.07049994E+02
 20
-8.84000031E+01
 40
3.20000005E+00
  1
-25
 41
1.00000000E+00
  7
MONOTXT
  0
TEXT
  8
0
 62
7
 10
-9.42499939E+01
 20
-8.84000031E+01
 40
3.20000005E+00
  1
0
 41
1.00000000E+00
  7
MONOTXT
  0
TEXT
  8
0
 62
7
 10
-8.62499939E+01
 20
-8.84000031E+01
 40
3.20000005E+00
  1
25
 41
1.00000000E+00
  7
MONOTXT
  0
TEXT
  8
0
 62
7
 10
-7.66499939E+01
 20
-8.84000031E+01
 40
3.20000005E+00
  1
50
 41
1.00000000E+00
  7
MONOTXT
  0
TEXT
  8
0
 62
7
 10
-1.20049994E+02
 20
-7.59181426E+01
 40
3.20000005E+00
  1
STRETCH LIST
 41
1.05263158E+00
  7
MONOTXT
  0
TEXT
  8
0
 62
7
 10
-7.91358436E+01
 20
-7.62642101E+01
 40
3.20000005E+00
  1
(mm)
 41
1.00000000E+00
  7
MONOTXT
  0
LINE
  8
0
 62
7
 10
-1.38399994E+02
 20
9.45000000E+01
 11
1.38350006E+02
 21
9.45000000E+01
  0
LINE
  8
0
 62
7
 10
1.38350006E+02
 20
9.45000000E+01
 11
1.38350006E+02
 21
-9.48000031E+01
  0
LINE
  8
0
 62
7
 10
-1.38399994E+02
 20
-9.48000031E+01
 11
1.38350006E+02
 21
-9.48000031E+01
  0
LINE
  8
0
 62
7
 10
-1.38399994E+02
 20
9.45000000E+01
 11
-1.38399994E+02
 21
-9.48000031E+01
  0
LINE
  8
0
 62
7
 10
7.33500061E+01
 20
-8.48000031E+01
 11
1.38350006E+02
 21
-8.48000031E+01
  0
LINE
  8
0
 62
7
 10
-1.38399994E+02
 20
8.45000000E+01
 11
-7.33999939E+01
 21
8.45000000E+01
  0
LINE
  8
0
 62
7
 10
7.33500061E+01
 20
8.45000000E+01
 11
1.38350006E+02
 21
8.45000000E+01
  0
LINE
  8
0
 62
7
 10
7.33500061E+01
 20
-8.48000031E+01
 11
7.33500061E+01
 21
-9.48000031E+01
  0
LINE
  8
0
 62
7
 10
7.33500061E+01
 20
9.45000000E+01
 11
7.33500061E+01
 21
8.45000000E+01
  0
LINE
  8
0
 62
7
 10
-7.33999939E+01
 20
9.45000000E+01
 11
-7.33999939E+01
 21
8.45000000E+01
  0
TEXT
  8
0
 62
7
 10
7.72426624E+01
 20
-9.20500031E+01
 40
4.50000000E+00
  1
KOGANEI CORP.
 41
1.04838710E+00
  7
MONOTXT
  0
TEXT
  8
0
 62
7
 10
9.35071483E+01
 20
8.79000000E+01
 40
3.20000005E+00
  1
Ver. 1.1
 41
1.08108108E+00
  7
MONOTXT
  0
TEXT
  8
0
 62
7
 10
-1.31042852E+02
 20
8.79000000E+01
 40
3.20000005E+00
  1
NEW PEN CYLINDER
 41
1.08108108E+00
  7
MONOTXT
  0
TEXT
  8
0
 62
7
 10
-1.29085994E+02
 20
7.29000000E+01
 40
3.20000005E+00
  1
MODEL:PBDAAS16*ST(50)-7-ZC230
 41
1.00000000E+00
  7
MONOTXT
  0
ENDSEC
  0
EOF
