  0
SECTION
  2
HEADER
  9
$ACADVER
  1
AC1003
  9
$EXTMIN
 10
-1.38399994E+02
 20
-9.48000031E+01
  9
$EXTMAX
 10
1.38350006E+02
 20
9.45000000E+01
  9
$LIMMIN
 10
-1.38400994E+02
 20
-9.48010031E+01
  9
$LIMMAX
 10
1.38351006E+02
 20
9.45010000E+01
  9
$SNAPUNIT
 10
1
 20
1
  9
$SNAPBASE
 10
0
 20
0
  9
$GRIDMODE
 70
0
  9
$GRIDUNIT
 10
0
 20
0
  9
$LTSCALE
 40
4.61250000E+00
  9
$TEXTSIZE
 40
3.2
  9
$DIMTAD
 70
0
  9
$LUNITS
 70
2
  9
$LUPREC
 70
4
  9
$FILLETRAD
 40
0
  9
$AUNITS
 70
0
  9
$AUPREC
 70
0
  0
ENDSEC
  0
SECTION
  2
TABLES
  0
TABLE
  2
LTYPE
 70
2
  0
LTYPE
  2
CONTINUOUS
 70
64
  3
Solid-Line
 72
65
 73
0
 40
0
  0
LTYPE
  2
DASHED
 70
64
  3
DASHED
 72
65
 73
2
 40
.75
 49
.5
 49
-.25
  0
LTYPE
  2
HIDDEN
 70
64
  3
HIDDEN
 72
65
 73
2
 40
.375
 49
.25
 49
-.125
  0
LTYPE
  2
CENTER
 70
64
  3
CENTER
 72
65
 73
4
 40
2
 49
1.25
 49
-.25
 49
.25
 49
-.25
  0
LTYPE
  2
PHANTOM
 70
64
  3
PHANTOM
 72
65
 73
6
 40
2.5
 49
1.25
 49
-.25
 49
.25
 49
-.25
 49
.25
 49
-.25
  0
ENDTAB
  0
TABLE
  2
LAYER
 70
1
  0
LAYER
  2
1
 70
0
 62
7
  6
CONTINUOUS
 0
ENDTAB
  0
TABLE
  2
STYLE
 70
2
  0
STYLE
  2
MONOTXT
 70
0
 40
0
 41
1
 50
0
 71
0
 42
.2
  3
monotxt
  0
STYLE
  2
BIGFONT
 70
0
 40
0
 41
1
 50
0
 71
0
 42
.2
  3
txt
  4
bigfont
  0
ENDTAB
  0
ENDSEC
  0
SECTION
  2
ENTITIES
  0
ARC
  8
0
 62
4
 10
-1.64170958E+01
 20
3.60909192E+01
 40
1.00166704E+00
 50
9.52762946E-02
 51
8.99047236E+01
  0
ARC
  8
0
 62
4
 10
-1.94146387E+01
 20
3.60917934E+01
 40
1.00079180E+00
 50
9.00000002E+01
 51
1.79954687E+02
  0
LINE
  8
0
  6
CENTER
 62
6
 10
-1.79154302E+01
 20
3.96025849E+01
 11
-1.79154302E+01
 21
1.21725849E+01
  0
ARC
  8
0
 62
4
 10
2.75762355E+01
 20
3.60909192E+01
 40
1.00166704E+00
 50
9.00952762E+01
 51
1.79904724E+02
  0
ARC
  8
0
 62
4
 10
3.05737784E+01
 20
3.60917934E+01
 40
1.00079180E+00
 50
4.53129782E-02
 51
9.00000002E+01
  0
LINE
  8
0
  6
CENTER
 62
6
 10
2.90745699E+01
 20
3.96025849E+01
 11
2.90745699E+01
 21
1.21725849E+01
  0
LINE
  8
0
 62
4
 10
2.20745699E+01
 20
2.98925849E+01
 11
1.65745699E+01
 21
2.98925849E+01
  0
LINE
  8
0
 62
4
 10
2.20745699E+01
 20
2.58925849E+01
 11
1.65745699E+01
 21
2.58925849E+01
  0
LINE
  8
0
 62
4
 10
3.60745699E+01
 20
2.76925849E+01
 11
3.60745699E+01
 21
2.45925849E+01
  0
LINE
  8
0
 62
4
 10
2.20745699E+01
 20
2.76925849E+01
 11
2.20745699E+01
 21
2.45925849E+01
  0
LINE
  8
0
 62
4
 10
3.35745699E+01
 20
2.80925849E+01
 11
2.45745699E+01
 21
2.80925849E+01
  0
LINE
  8
0
 62
4
 10
3.35745699E+01
 20
2.80925849E+01
 11
3.35745699E+01
 21
3.45925849E+01
  0
LINE
  8
0
 62
4
 10
2.45745699E+01
 20
2.80925849E+01
 11
2.45745699E+01
 21
3.45925849E+01
  0
LINE
  8
0
 62
4
 10
2.45745699E+01
 20
2.76925849E+01
 11
2.20745699E+01
 21
2.76925849E+01
  0
LINE
  8
0
 62
4
 10
2.45745699E+01
 20
3.08925849E+01
 11
2.20745699E+01
 21
3.08925849E+01
  0
LINE
  8
0
 62
4
 10
3.60745699E+01
 20
3.08925849E+01
 11
3.35745699E+01
 21
3.08925849E+01
  0
LINE
  8
0
 62
4
 10
3.60745699E+01
 20
2.80925849E+01
 11
3.35745699E+01
 21
2.80925849E+01
  0
LINE
  8
0
 62
4
 10
3.60745699E+01
 20
2.76925849E+01
 11
3.35745699E+01
 21
2.76925849E+01
  0
LINE
  8
0
 62
6
 10
3.03045699E+01
 20
3.55925849E+01
 11
3.03045699E+01
 21
3.45925849E+01
  0
LINE
  8
0
 62
6
 10
2.78445699E+01
 20
3.55925849E+01
 11
2.78445699E+01
 21
3.45925849E+01
  0
LINE
  8
0
 62
4
 10
3.05745699E+01
 20
3.55925849E+01
 11
3.05745699E+01
 21
3.45925849E+01
  0
LINE
  8
0
 62
4
 10
2.75745699E+01
 20
3.55925849E+01
 11
2.75745699E+01
 21
3.45925849E+01
  0
LINE
  8
0
 62
4
 10
3.60745699E+01
 20
2.98925849E+01
 11
4.05745699E+01
 21
2.98925849E+01
  0
LINE
  8
0
 62
4
 10
2.45745699E+01
 20
2.80925849E+01
 11
2.45745699E+01
 21
1.39425849E+01
  0
LINE
  8
0
 62
4
 10
3.35745699E+01
 20
2.80925849E+01
 11
3.35745699E+01
 21
1.39425849E+01
  0
LINE
  8
0
 62
4
 10
3.35745699E+01
 20
3.45925849E+01
 11
2.45745699E+01
 21
3.45925849E+01
  0
LINE
  8
0
 62
4
 10
2.45745699E+01
 20
2.80925849E+01
 11
2.20745699E+01
 21
2.80925849E+01
  0
LINE
  8
0
 62
4
 10
3.35745699E+01
 20
1.39425849E+01
 11
2.45745699E+01
 21
1.39425849E+01
  0
LINE
  8
0
 62
4
 10
4.15745699E+01
 20
2.88925849E+01
 11
4.15745699E+01
 21
2.68925849E+01
  0
LINE
  8
0
 62
4
 10
4.05745699E+01
 20
2.58925849E+01
 11
3.60745699E+01
 21
2.58925849E+01
  0
LINE
  8
0
 62
4
 10
3.15745699E+01
 20
3.55925849E+01
 11
2.65745699E+01
 21
3.55925849E+01
  0
LINE
  8
0
 62
4
 10
2.65745699E+01
 20
3.60925849E+01
 11
2.65745699E+01
 21
3.55925849E+01
  0
LINE
  8
0
 62
4
 10
3.15745699E+01
 20
3.60925849E+01
 11
3.15745699E+01
 21
3.55925849E+01
  0
LINE
  8
0
 62
4
 10
4.05745699E+01
 20
2.98925849E+01
 11
4.05745699E+01
 21
2.58925849E+01
  0
LINE
  8
0
 62
4
 10
4.15745699E+01
 20
2.88925849E+01
 11
4.05745699E+01
 21
2.98925849E+01
  0
LINE
  8
0
 62
4
 10
4.15745699E+01
 20
2.68925849E+01
 11
4.05745699E+01
 21
2.58925849E+01
  0
LINE
  8
0
 62
4
 10
2.20745699E+01
 20
3.08925849E+01
 11
2.20745699E+01
 21
2.80925849E+01
  0
LINE
  8
0
 62
4
 10
3.60745699E+01
 20
3.08925849E+01
 11
3.60745699E+01
 21
2.80925849E+01
  0
LINE
  8
0
 62
4
 10
3.60745699E+01
 20
2.45925849E+01
 11
3.35745699E+01
 21
2.45925849E+01
  0
LINE
  8
0
 62
4
 10
2.45745699E+01
 20
2.45925849E+01
 11
2.20745699E+01
 21
2.45925849E+01
  0
LINE
  8
0
 62
4
 10
1.35745699E+01
 20
2.91925849E+01
 11
8.63757078E+00
 21
2.91925849E+01
  0
LINE
  8
0
 62
4
 10
5.25745698E+01
 20
2.65925849E+01
 11
5.49115689E+01
 21
2.65925849E+01
  0
LINE
  8
0
 62
4
 10
1.65745699E+01
 20
2.58925849E+01
 11
1.35745699E+01
 21
2.65925849E+01
  0
LINE
  8
0
 62
4
 10
1.65745699E+01
 20
2.98925849E+01
 11
1.35745699E+01
 21
2.91925849E+01
  0
LINE
  8
0
 62
4
 10
1.65745699E+01
 20
2.98925849E+01
 11
1.65745699E+01
 21
2.58925849E+01
  0
LINE
  8
0
 62
4
 10
1.35745699E+01
 20
2.91925849E+01
 11
1.35745699E+01
 21
2.65925849E+01
  0
LINE
  8
0
 62
6
 10
8.63757078E+00
 20
2.91925849E+01
 11
1.12375708E+01
 21
2.65925849E+01
  0
LINE
  8
0
 62
7
 10
3.60745699E+01
 20
2.50925849E+01
 11
4.65745698E+01
 21
2.50925849E+01
  0
LINE
  8
0
 62
7
 10
3.35745699E+01
 20
1.41025849E+01
 11
4.65745698E+01
 21
1.41025849E+01
  0
LINE
  8
0
 62
7
 10
-4.74991121E+01
 20
1.36025849E+01
 11
-4.64154302E+01
 21
1.36025849E+01
  0
LINE
  8
0
 62
7
 10
-1.09154302E+01
 20
2.50925849E+01
 11
2.20745699E+01
 21
2.50925849E+01
  0
LINE
  8
0
 62
7
 10
-1.34154302E+01
 20
1.41025849E+01
 11
2.45745699E+01
 21
1.41025849E+01
  0
LINE
  8
0
 62
4
 10
-1.09154302E+01
 20
2.98925849E+01
 11
-5.41543016E+00
 21
2.98925849E+01
  0
LINE
  8
0
 62
4
 10
-1.09154302E+01
 20
2.58925849E+01
 11
-5.41543016E+00
 21
2.58925849E+01
  0
LINE
  8
0
 62
4
 10
-2.49154302E+01
 20
2.76925849E+01
 11
-2.49154302E+01
 21
2.45925849E+01
  0
LINE
  8
0
 62
4
 10
-1.09154302E+01
 20
2.76925849E+01
 11
-1.09154302E+01
 21
2.45925849E+01
  0
LINE
  8
0
 62
4
 10
-2.24154302E+01
 20
2.80925849E+01
 11
-1.34154302E+01
 21
2.80925849E+01
  0
LINE
  8
0
 62
4
 10
-2.24154302E+01
 20
2.80925849E+01
 11
-2.24154302E+01
 21
3.45925849E+01
  0
LINE
  8
0
 62
4
 10
-1.34154302E+01
 20
2.80925849E+01
 11
-1.34154302E+01
 21
3.45925849E+01
  0
LINE
  8
0
 62
4
 10
-1.34154302E+01
 20
2.76925849E+01
 11
-1.09154302E+01
 21
2.76925849E+01
  0
LINE
  8
0
 62
4
 10
-1.34154302E+01
 20
3.08925849E+01
 11
-1.09154302E+01
 21
3.08925849E+01
  0
LINE
  8
0
 62
4
 10
-2.49154302E+01
 20
3.08925849E+01
 11
-2.24154302E+01
 21
3.08925849E+01
  0
LINE
  8
0
 62
4
 10
-2.49154302E+01
 20
2.80925849E+01
 11
-2.24154302E+01
 21
2.80925849E+01
  0
LINE
  8
0
 62
4
 10
-2.49154302E+01
 20
2.76925849E+01
 11
-2.24154302E+01
 21
2.76925849E+01
  0
LINE
  8
0
 62
4
 10
-2.24154302E+01
 20
1.39465322E+01
 11
-1.34154302E+01
 21
1.39465322E+01
  0
LINE
  8
0
 62
6
 10
-1.91454302E+01
 20
3.55925849E+01
 11
-1.91454302E+01
 21
3.45925849E+01
  0
LINE
  8
0
 62
6
 10
-1.66854302E+01
 20
3.55925849E+01
 11
-1.66854302E+01
 21
3.45925849E+01
  0
LINE
  8
0
 62
4
 10
-1.94154302E+01
 20
3.55925849E+01
 11
-1.94154302E+01
 21
3.45925849E+01
  0
LINE
  8
0
 62
4
 10
-1.64154302E+01
 20
3.55925849E+01
 11
-1.64154302E+01
 21
3.45925849E+01
  0
LINE
  8
0
 62
4
 10
-2.49154302E+01
 20
2.98925849E+01
 11
-2.94154302E+01
 21
2.98925849E+01
  0
LINE
  8
0
 62
4
 10
-1.34154302E+01
 20
2.80925849E+01
 11
-1.34154302E+01
 21
1.39425849E+01
  0
LINE
  8
0
 62
4
 10
-2.24154302E+01
 20
2.80925849E+01
 11
-2.24154302E+01
 21
1.39425849E+01
  0
LINE
  8
0
 62
4
 10
-2.24154302E+01
 20
3.45925849E+01
 11
-1.34154302E+01
 21
3.45925849E+01
  0
LINE
  8
0
 62
4
 10
-1.34154302E+01
 20
2.80925849E+01
 11
-1.09154302E+01
 21
2.80925849E+01
  0
LINE
  8
0
 62
4
 10
-2.24154302E+01
 20
1.39425849E+01
 11
-1.34154302E+01
 21
1.39425849E+01
  0
LINE
  8
0
 62
4
 10
-3.04154302E+01
 20
2.88925849E+01
 11
-3.04154302E+01
 21
2.68925849E+01
  0
LINE
  8
0
 62
4
 10
-2.94154302E+01
 20
2.58925849E+01
 11
-2.49154302E+01
 21
2.58925849E+01
  0
LINE
  8
0
 62
4
 10
-2.04154302E+01
 20
3.55925849E+01
 11
-1.54154302E+01
 21
3.55925849E+01
  0
LINE
  8
0
 62
4
 10
-1.54154302E+01
 20
3.60925849E+01
 11
-1.54154302E+01
 21
3.55925849E+01
  0
LINE
  8
0
 62
4
 10
-2.04154302E+01
 20
3.60925849E+01
 11
-2.04154302E+01
 21
3.55925849E+01
  0
LINE
  8
0
 62
4
 10
-2.94154302E+01
 20
2.98925849E+01
 11
-2.94154302E+01
 21
2.58925849E+01
  0
LINE
  8
0
 62
4
 10
-3.04154302E+01
 20
2.88925849E+01
 11
-2.94154302E+01
 21
2.98925849E+01
  0
LINE
  8
0
 62
4
 10
-3.04154302E+01
 20
2.68925849E+01
 11
-2.94154302E+01
 21
2.58925849E+01
  0
LINE
  8
0
 62
4
 10
-1.09154302E+01
 20
3.08925849E+01
 11
-1.09154302E+01
 21
2.80925849E+01
  0
LINE
  8
0
 62
4
 10
-2.49154302E+01
 20
3.08925849E+01
 11
-2.49154302E+01
 21
2.80925849E+01
  0
LINE
  8
0
 62
4
 10
-2.49154302E+01
 20
2.45925849E+01
 11
-2.24154302E+01
 21
2.45925849E+01
  0
LINE
  8
0
 62
4
 10
-1.34154302E+01
 20
2.45925849E+01
 11
-1.09154302E+01
 21
2.45925849E+01
  0
LINE
  8
0
 62
4
 10
-2.41543016E+00
 20
2.91925849E+01
 11
2.52156892E+00
 21
2.91925849E+01
  0
LINE
  8
0
 62
4
 10
-2.41543016E+00
 20
2.65925849E+01
 11
-7.84310781E-02
 21
2.65925849E+01
  0
LINE
  8
0
 62
4
 10
-5.41543016E+00
 20
2.58925849E+01
 11
-2.41543016E+00
 21
2.65925849E+01
  0
LINE
  8
0
 62
4
 10
-5.41543016E+00
 20
2.98925849E+01
 11
-2.41543016E+00
 21
2.91925849E+01
  0
LINE
  8
0
 62
4
 10
-5.41543016E+00
 20
2.98925849E+01
 11
-5.41543016E+00
 21
2.58925849E+01
  0
LINE
  8
0
 62
4
 10
-2.41543016E+00
 20
2.91925849E+01
 11
-2.41543016E+00
 21
2.65925849E+01
  0
LINE
  8
0
 62
6
 10
2.52156892E+00
 20
2.91925849E+01
 11
-7.84310781E-02
 21
2.65925849E+01
  0
ARC
  8
0
 62
4
 10
-7.07865857E+01
 20
1.97686833E+01
 40
2.18318658E+01
 50
3.46528201E+02
 51
3.59537840E+02
  0
ARC
  8
0
 62
4
 10
-3.21351674E+01
 20
1.97673522E+01
 40
2.18209627E+01
 50
1.80458895E+02
 51
1.93475063E+02
  0
CIRCLE
  8
0
 62
7
 10
-3.69154302E+01
 20
1.95925849E+01
 40
2.06700000E+00
  0
LINE
  8
0
 62
2
 10
5.70745698E+01
 20
1.45495849E+01
 11
5.81145698E+01
 21
1.45495849E+01
  0
LINE
  8
0
 62
2
 10
5.70745698E+01
 20
2.46455849E+01
 11
5.81145698E+01
 21
2.46455849E+01
  0
LINE
  8
0
 62
2
 10
6.31145698E+01
 20
2.46455849E+01
 11
6.55215698E+01
 21
2.46455849E+01
  0
LINE
  8
0
 62
2
 10
6.31145698E+01
 20
1.45495849E+01
 11
6.55215698E+01
 21
1.45495849E+01
  0
CIRCLE
  8
0
 62
7
 10
5.10745698E+01
 20
1.95925849E+01
 40
2.06700000E+00
  0
LINE
  8
0
 62
2
 10
-4.89554302E+01
 20
1.45495849E+01
 11
-4.79154302E+01
 21
1.45495849E+01
  0
LINE
  8
0
 62
2
 10
-4.89554302E+01
 20
2.46455849E+01
 11
-4.79154302E+01
 21
2.46455849E+01
  0
LINE
  8
0
 62
2
 10
-5.64154302E+01
 20
1.45495849E+01
 11
-5.39554302E+01
 21
1.45495849E+01
  0
LINE
  8
0
 62
2
 10
-5.64154302E+01
 20
2.46455849E+01
 11
-5.39554302E+01
 21
2.46455849E+01
  0
LINE
  8
0
 62
2
 10
-7.20944302E+01
 20
2.12135849E+01
 11
-6.78354302E+01
 21
2.12135849E+01
  0
LINE
  8
0
 62
2
 10
-7.20944302E+01
 20
1.79715849E+01
 11
-6.78354302E+01
 21
1.79715849E+01
  0
LINE
  8
0
 62
2
 10
-6.46354302E+01
 20
2.12135849E+01
 11
-6.04154302E+01
 21
2.12135849E+01
  0
LINE
  8
0
 62
2
 10
-6.46354302E+01
 20
1.79715849E+01
 11
-6.04154302E+01
 21
1.79715849E+01
  0
LINE
  8
0
 62
7
 10
-3.24154302E+01
 20
1.41025849E+01
 11
-2.24154302E+01
 21
1.41025849E+01
  0
LINE
  8
0
 62
7
 10
-7.24154302E+01
 20
2.08925849E+01
 11
-7.24154302E+01
 21
1.82925849E+01
  0
LINE
  8
0
 62
7
 10
-6.04154302E+01
 20
2.15925849E+01
 11
-6.04154302E+01
 21
1.75925849E+01
  0
LINE
  8
0
 62
7
 10
-7.17154302E+01
 20
1.75925849E+01
 11
-6.78354302E+01
 21
1.75925849E+01
  0
LINE
  8
0
 62
7
 10
-7.24154302E+01
 20
1.82925849E+01
 11
-7.17154302E+01
 21
1.75925849E+01
  0
LINE
  8
0
 62
7
 10
-7.17154302E+01
 20
2.15925849E+01
 11
-7.17154302E+01
 21
1.75925849E+01
  0
LINE
  8
0
 62
4
 10
-6.78354302E+01
 20
2.29925849E+01
 11
-6.78354302E+01
 21
1.61925849E+01
  0
LINE
  8
0
 62
4
 10
-6.46354302E+01
 20
2.29925849E+01
 11
-6.46354302E+01
 21
1.61925849E+01
  0
LINE
  8
0
 62
4
 10
-6.74654302E+01
 20
1.55625849E+01
 11
-6.50054302E+01
 21
1.55625849E+01
  0
LINE
  8
0
 62
4
 10
-6.74654302E+01
 20
1.75725849E+01
 11
-6.50054302E+01
 21
1.75725849E+01
  0
LINE
  8
0
 62
7
 10
-6.46354302E+01
 20
1.75925849E+01
 11
-5.64154302E+01
 21
1.75925849E+01
  0
LINE
  8
0
 62
4
 10
-6.78354302E+01
 20
1.61925849E+01
 11
-6.74654302E+01
 21
1.55625849E+01
  0
LINE
  8
0
 62
4
 10
-6.50054302E+01
 20
1.55625849E+01
 11
-6.46354302E+01
 21
1.61925849E+01
  0
LINE
  8
0
 62
7
 10
4.65745698E+01
 20
1.95925849E+01
 11
4.65745698E+01
 21
1.26025849E+01
  0
LINE
  8
0
 62
7
 10
4.65745698E+01
 20
1.26025849E+01
 11
5.55745698E+01
 21
1.26025849E+01
  0
LINE
  8
0
 62
7
 10
5.55745698E+01
 20
2.65925849E+01
 11
5.55745698E+01
 21
1.26025849E+01
  0
LINE
  8
0
 62
7
 10
5.55745698E+01
 20
1.36025849E+01
 11
5.81145698E+01
 21
1.36025849E+01
  0
LINE
  8
0
 62
7
 10
6.55745698E+01
 20
2.45925849E+01
 11
6.55745698E+01
 21
1.46025849E+01
  0
LINE
  8
0
 62
7
 10
6.45745698E+01
 20
1.36025849E+01
 11
6.55745698E+01
 21
1.46025849E+01
  0
LINE
  8
0
 62
7
 10
-5.64154302E+01
 20
1.44025849E+01
 11
-5.64154302E+01
 21
1.95925849E+01
  0
LINE
  8
0
 62
7
 10
-5.56154302E+01
 20
1.36025849E+01
 11
-5.64154302E+01
 21
1.44025849E+01
  0
LINE
  8
0
 62
7
 10
-5.56154302E+01
 20
1.36025849E+01
 11
-5.39554302E+01
 21
1.36025849E+01
  0
LINE
  8
0
 62
7
 10
-4.64154302E+01
 20
1.26025849E+01
 11
-3.24154302E+01
 21
1.26025849E+01
  0
LINE
  8
0
 62
7
 10
-5.56154302E+01
 20
1.95925849E+01
 11
-5.56154302E+01
 21
1.36025849E+01
  0
LINE
  8
0
 62
7
 10
6.45745698E+01
 20
1.95925849E+01
 11
6.45745698E+01
 21
1.36025849E+01
  0
LINE
  8
0
 62
7
 10
5.38745698E+01
 20
1.47825849E+01
 11
5.38745698E+01
 21
1.26025849E+01
  0
LINE
  8
0
 62
7
 10
4.82745698E+01
 20
1.47825849E+01
 11
4.82745698E+01
 21
1.26025849E+01
  0
LINE
  8
0
 62
7
 10
-3.41154302E+01
 20
1.47825849E+01
 11
-3.41154302E+01
 21
1.26025849E+01
  0
LINE
  8
0
 62
7
 10
-4.47154302E+01
 20
1.47825849E+01
 11
-4.47154302E+01
 21
1.26025849E+01
  0
LINE
  8
0
 62
4
 10
-5.33554302E+01
 20
9.80258489E+00
 11
-4.95554302E+01
 21
9.80258489E+00
  0
LINE
  8
0
 62
4
 10
-5.33578238E+01
 20
1.46925849E+01
 11
-4.95554302E+01
 21
1.46925849E+01
  0
LINE
  8
0
 62
7
 10
-4.89554302E+01
 20
1.36025849E+01
 11
-4.74991121E+01
 21
1.36025849E+01
  0
LINE
  8
0
 62
4
 10
6.25145698E+01
 20
1.46925849E+01
 11
5.87145698E+01
 21
1.46925849E+01
  0
LINE
  8
0
 62
4
 10
6.25145698E+01
 20
9.80258489E+00
 11
5.87145698E+01
 21
9.80258489E+00
  0
LINE
  8
0
 62
7
 10
6.31145698E+01
 20
1.36025849E+01
 11
6.45745698E+01
 21
1.36025849E+01
  0
LINE
  8
0
 62
7
 10
-7.24154302E+01
 20
2.08925849E+01
 11
-7.17154302E+01
 21
2.15925849E+01
  0
LINE
  8
0
  6
CENTER
 62
2
 10
-7.47345538E+01
 20
1.95925849E+01
 11
6.82387902E+01
 21
1.95925849E+01
  0
LINE
  8
0
 62
7
 10
-3.24154302E+01
 20
1.26025849E+01
 11
-3.24154302E+01
 21
2.65925849E+01
  0
LINE
  8
0
 62
7
 10
4.65745698E+01
 20
1.95925849E+01
 11
4.65745698E+01
 21
2.65925849E+01
  0
LINE
  8
0
 62
7
 10
-5.64154302E+01
 20
2.47925849E+01
 11
-5.64154302E+01
 21
1.95925849E+01
  0
LINE
  8
0
 62
7
 10
-4.64154302E+01
 20
2.65925849E+01
 11
-4.64154302E+01
 21
1.26025849E+01
  0
LINE
  8
0
 62
7
 10
-4.79154302E+01
 20
2.55925849E+01
 11
-4.79154302E+01
 21
1.36025849E+01
  0
LINE
  8
0
 62
7
 10
-5.56154302E+01
 20
1.95925849E+01
 11
-5.56154302E+01
 21
2.55925849E+01
  0
LINE
  8
0
 62
7
 10
6.45745698E+01
 20
1.95925849E+01
 11
6.45745698E+01
 21
2.55925849E+01
  0
LINE
  8
0
 62
7
 10
5.70745698E+01
 20
1.36025849E+01
 11
5.70745698E+01
 21
2.55925849E+01
  0
LINE
  8
0
 62
4
 10
-5.39554302E+01
 20
1.22419927E+01
 11
-5.39554302E+01
 21
2.69425849E+01
  0
LINE
  8
0
 62
4
 10
-4.89554302E+01
 20
1.22498436E+01
 11
-4.89554302E+01
 21
2.69425849E+01
  0
LINE
  8
0
 62
4
 10
6.31145698E+01
 20
1.22525849E+01
 11
6.31145698E+01
 21
2.69425849E+01
  0
LINE
  8
0
 62
4
 10
5.81145698E+01
 20
1.22525849E+01
 11
5.81145698E+01
 21
2.69425849E+01
  0
LINE
  8
0
 62
7
 10
-3.24154302E+01
 20
2.50925849E+01
 11
-2.49154302E+01
 21
2.50925849E+01
  0
LINE
  8
0
 62
7
 10
4.65745698E+01
 20
2.65925849E+01
 11
5.55745698E+01
 21
2.65925849E+01
  0
LINE
  8
0
 62
7
 10
5.55745698E+01
 20
2.55925849E+01
 11
5.81145698E+01
 21
2.55925849E+01
  0
LINE
  8
0
 62
7
 10
6.45745698E+01
 20
2.55925849E+01
 11
6.55745698E+01
 21
2.45925849E+01
  0
LINE
  8
0
 62
7
 10
-4.64154302E+01
 20
2.65925849E+01
 11
-3.24154302E+01
 21
2.65925849E+01
  0
LINE
  8
0
 62
7
 10
5.38745698E+01
 20
2.44125849E+01
 11
5.38745698E+01
 21
2.65925849E+01
  0
LINE
  8
0
 62
7
 10
4.82745698E+01
 20
2.44125849E+01
 11
4.82745698E+01
 21
2.65925849E+01
  0
LINE
  8
0
 62
7
 10
-3.41154302E+01
 20
2.44125849E+01
 11
-3.41154302E+01
 21
2.65925849E+01
  0
LINE
  8
0
 62
7
 10
-4.47154302E+01
 20
2.44125849E+01
 11
-4.47154302E+01
 21
2.65925849E+01
  0
LINE
  8
0
 62
4
 10
6.25145698E+01
 20
2.45025849E+01
 11
5.87145698E+01
 21
2.45025849E+01
  0
LINE
  8
0
 62
4
 10
6.25145698E+01
 20
2.93925849E+01
 11
5.87145698E+01
 21
2.93925849E+01
  0
LINE
  8
0
 62
7
 10
6.31145698E+01
 20
2.55925849E+01
 11
6.45745698E+01
 21
2.55925849E+01
  0
LINE
  8
0
 62
7
 10
-7.17154302E+01
 20
2.15925849E+01
 11
-6.78354302E+01
 21
2.15925849E+01
  0
LINE
  8
0
 62
4
 10
-6.74654302E+01
 20
2.16125849E+01
 11
-6.50054302E+01
 21
2.16125849E+01
  0
LINE
  8
0
 62
4
 10
-6.74654302E+01
 20
2.36325849E+01
 11
-6.50054302E+01
 21
2.36325849E+01
  0
LINE
  8
0
 62
4
 10
-6.78354302E+01
 20
2.29925849E+01
 11
-6.74654302E+01
 21
2.36325849E+01
  0
LINE
  8
0
 62
4
 10
-6.50054302E+01
 20
2.36325849E+01
 11
-6.46354302E+01
 21
2.29925849E+01
  0
LINE
  8
0
 62
7
 10
-6.46354302E+01
 20
2.15925849E+01
 11
-5.64154302E+01
 21
2.15925849E+01
  0
LINE
  8
0
 62
7
 10
-5.56154302E+01
 20
2.55925849E+01
 11
-5.64154302E+01
 21
2.47925849E+01
  0
LINE
  8
0
 62
7
 10
-5.56154302E+01
 20
2.55925849E+01
 11
-5.39554302E+01
 21
2.55925849E+01
  0
LINE
  8
0
 62
4
 10
-5.33554302E+01
 20
2.45025849E+01
 11
-4.95554302E+01
 21
2.45025849E+01
  0
LINE
  8
0
 62
7
 10
-4.89554302E+01
 20
2.55925849E+01
 11
-4.64154302E+01
 21
2.55925849E+01
  0
LINE
  8
0
 62
4
 10
-5.33554302E+01
 20
2.93925849E+01
 11
-4.95554302E+01
 21
2.93925849E+01
  0
LINE
  8
0
  6
CENTER
 62
2
 10
5.10745698E+01
 20
1.61525849E+01
 11
5.10745698E+01
 21
2.30367856E+01
  0
LINE
  8
0
  6
CENTER
 62
2
 10
-3.69154302E+01
 20
1.61325849E+01
 11
-3.69154302E+01
 21
2.32025849E+01
  0
LINE
  8
0
 62
7
 10
4.82745698E+01
 20
2.44125849E+01
 11
5.38745698E+01
 21
2.44125849E+01
  0
LINE
  8
0
 62
7
 10
4.82745698E+01
 20
1.47825849E+01
 11
5.38745698E+01
 21
1.47825849E+01
  0
LINE
  8
0
 62
7
 10
-4.47154302E+01
 20
2.44125849E+01
 11
-3.41154302E+01
 21
2.44125849E+01
  0
LINE
  8
0
 62
7
 10
-4.47154302E+01
 20
1.47825849E+01
 11
-3.41154302E+01
 21
1.47825849E+01
  0
ARC
  8
0
 62
4
 10
-6.21440688E+01
 20
1.95925849E+01
 40
5.69186140E+00
 50
1.59213132E+02
 51
2.00786868E+02
  0
ARC
  8
0
 62
4
 10
-7.03402552E+01
 20
1.95925849E+01
 40
5.70445074E+00
 50
3.39261125E+02
 51
2.07388754E+01
  0
ARC
  8
0
 62
4
 10
-6.62787599E+01
 20
1.65675849E+01
 40
1.55505987E+00
 50
1.39738484E+02
 51
2.20261516E+02
  0
ARC
  8
0
 62
4
 10
-6.62055641E+01
 20
1.65675849E+01
 40
1.56535827E+00
 50
3.20056974E+02
 51
3.99430258E+01
  0
ARC
  8
0
 62
4
 10
-4.86749726E+01
 20
1.22472888E+01
 40
5.28046022E+00
 50
1.79942534E+02
 51
2.07579036E+02
  0
ARC
  8
0
 62
4
 10
-5.42463198E+01
 20
1.22498436E+01
 40
5.29089033E+00
 50
3.32448744E+02
 51
2.96861140E-02
  0
ARC
  8
0
 62
4
 10
-4.86732416E+01
 20
1.22474566E+01
 40
5.28219101E+00
 50
1.52425576E+02
 51
1.79944373E+02
  0
ARC
  8
0
 62
4
 10
-5.42480425E+01
 20
1.22448933E+01
 40
5.29261790E+00
 50
8.32657270E-02
 51
2.75467850E+01
  0
ARC
  8
0
 62
4
 10
5.78353731E+01
 20
1.22481922E+01
 40
5.27919862E+00
 50
4.76740076E-02
 51
2.75823767E+01
  0
ARC
  8
0
 62
4
 10
5.78371064E+01
 20
1.22465555E+01
 40
5.27746691E+00
 50
3.32412971E+02
 51
6.54587952E-02
  0
ARC
  8
0
 62
4
 10
6.34084684E+01
 20
1.22505805E+01
 40
5.29389895E+00
 50
1.79978306E+02
 51
2.07543264E+02
  0
ARC
  8
0
 62
4
 10
6.34101887E+01
 20
1.22441540E+01
 40
5.29562560E+00
 50
1.52461167E+02
 51
1.79908783E+02
  0
ARC
  8
0
 62
4
 10
-6.62055729E+01
 20
2.26225849E+01
 40
1.56857978E+00
 50
3.19917156E+02
 51
4.00828446E+01
  0
ARC
  8
0
 62
4
 10
6.34084683E+01
 20
2.69445893E+01
 40
5.29389886E+00
 50
1.52456735E+02
 51
1.80021694E+02
  0
ARC
  8
0
 62
4
 10
5.78353730E+01
 20
2.69469776E+01
 40
5.27919871E+00
 50
3.32417623E+02
 51
3.59952325E+02
  0
ARC
  8
0
 62
4
 10
-3.21351674E+01
 20
1.94178175E+01
 40
2.18209627E+01
 50
1.66524937E+02
 51
1.79541105E+02
  0
ARC
  8
0
 62
4
 10
-7.07865857E+01
 20
1.94164864E+01
 40
2.18318658E+01
 50
4.62159621E-01
 51
1.34717988E+01
  0
ARC
  8
0
 62
4
 10
4.12974449E+01
 20
1.94182010E+01
 40
2.18178219E+01
 50
3.47443662E+02
 51
1.34760041E+01
  0
ARC
  8
0
 62
4
 10
7.99488670E+01
 20
1.94161025E+01
 40
2.18350104E+01
 50
1.66529142E+02
 51
1.92541111E+02
  0
ARC
  8
0
 62
4
 10
6.34101888E+01
 20
2.69510158E+01
 40
5.29562569E+00
 50
1.80091218E+02
 51
2.07538833E+02
  0
ARC
  8
0
 62
4
 10
5.78371065E+01
 20
2.69486143E+01
 40
5.27746683E+00
 50
3.59934541E+02
 51
2.75870292E+01
  0
ARC
  8
0
 62
4
 10
-6.62787512E+01
 20
2.26225849E+01
 40
1.55830260E+00
 50
1.39598403E+02
 51
2.20401597E+02
  0
ARC
  8
0
 62
4
 10
-5.42463197E+01
 20
2.69453262E+01
 40
5.29089024E+00
 50
3.59970313E+02
 51
2.75512566E+01
  0
ARC
  8
0
 62
4
 10
-4.86732415E+01
 20
2.69477132E+01
 40
5.28219110E+00
 50
1.80055627E+02
 51
2.07574424E+02
  0
ARC
  8
0
 62
4
 10
-5.42480426E+01
 20
2.69502765E+01
 40
5.29261799E+00
 50
3.32453216E+02
 51
3.59916734E+02
  0
ARC
  8
0
 62
4
 10
-4.86749727E+01
 20
2.69478810E+01
 40
5.28046014E+00
 50
1.52420964E+02
 51
1.80057466E+02
  0
ARC
  8
0
 62
7
 10
5.42693812E+01
 20
1.95975849E+01
 40
7.68908244E+00
 50
1.41228758E+02
 51
2.18771241E+02
  0
ARC
  8
0
 62
7
 10
4.78929164E+01
 20
1.95975849E+01
 40
7.67882822E+00
 50
3.21167278E+02
 51
3.88327222E+01
  0
ARC
  8
0
 62
7
 10
-3.87306188E+01
 20
1.95975849E+01
 40
7.68128847E+00
 50
1.41182048E+02
 51
2.18817952E+02
  0
ARC
  8
0
 62
7
 10
-4.01070683E+01
 20
1.95975849E+01
 40
7.68660869E+00
 50
3.21213947E+02
 51
3.87860535E+01
  0
CIRCLE
  8
0
 62
2
 10
-3.69188359E+01
 20
1.95975851E+01
 40
2.50000000E+00
  0
CIRCLE
  8
0
 62
2
 10
5.10811488E+01
 20
1.95975851E+01
 40
2.50000000E+00
  0
LINE
  8
0
 62
4
 10
3.05745699E+01
 20
3.70925849E+01
 11
2.75745699E+01
 21
3.70925849E+01
  0
LINE
  8
0
 62
4
 10
-1.94154302E+01
 20
3.70925849E+01
 11
-1.64154302E+01
 21
3.70925849E+01
  0
TEXT
  8
0
 62
7
 10
-1.12513677E+01
 20
1.51965322E+01
 40
1.50000000E+00
  1
PBDAAS10
 41
1.00000000E+00
  7
MONOTXT
  0
LINE
  8
0
 62
4
 10
1.35745699E+01
 20
2.65925849E+01
 11
1.12375708E+01
 21
2.65925849E+01
  0
LINE
  8
0
  6
PHANTOM
 10
5.57956985E+00
 20
6.37585191E+00
 11
5.57956985E+00
 21
4.03036753E+01
  0
LINE
  8
0
 62
4
 10
-9.98719056E+01
 20
2.98925849E+01
 11
-1.00871906E+02
 21
2.88925849E+01
  0
LINE
  8
0
 62
4
 10
-1.03971906E+02
 20
2.98925849E+01
 11
-1.02971906E+02
 21
2.88925849E+01
  0
LINE
  8
0
 62
4
 10
-1.02822109E+02
 20
2.88925849E+01
 11
-1.02971906E+02
 21
2.88925849E+01
  0
LINE
  8
0
 62
4
 10
-1.00871906E+02
 20
2.88925849E+01
 11
-1.01021702E+02
 21
2.88925849E+01
  0
LINE
  8
0
 62
4
 10
-1.00871906E+02
 20
2.88925849E+01
 11
-1.00871906E+02
 21
2.88060555E+01
  0
LINE
  8
0
 62
4
 10
-1.02971906E+02
 20
2.88925849E+01
 11
-1.02971906E+02
 21
2.88060555E+01
  0
LINE
  8
0
 62
4
 10
-1.00421906E+02
 20
3.18925849E+01
 11
-1.00721906E+02
 21
3.15925849E+01
  0
LINE
  8
0
 62
4
 10
-1.03421906E+02
 20
3.18925849E+01
 11
-1.03121906E+02
 21
3.15925849E+01
  0
LINE
  8
0
 62
4
 10
-1.06271453E+02
 20
3.32265393E+01
 11
-1.06769101E+02
 21
3.32749814E+01
  0
LINE
  8
0
 62
4
 10
-1.06769101E+02
 20
3.32749814E+01
 11
-1.07456268E+02
 21
2.62156766E+01
  0
LINE
  8
0
 62
4
 10
-1.06751906E+02
 20
2.67425849E+01
 11
-1.06901200E+02
 21
2.67571175E+01
  0
LINE
  8
0
 62
4
 10
-1.06271453E+02
 20
3.32265393E+01
 11
-1.06923974E+02
 21
2.65231546E+01
  0
LINE
  8
0
 62
4
 10
-1.06751906E+02
 20
2.67425849E+01
 11
-1.06764286E+02
 21
2.66153979E+01
  0
LINE
  8
0
 62
4
 10
-9.84219056E+01
 20
2.80925849E+01
 11
-9.81893125E+01
 21
2.72564635E+01
  0
LINE
  8
0
 62
4
 10
-9.85719056E+01
 20
2.80925849E+01
 11
-9.83687381E+01
 21
2.73601081E+01
  0
LINE
  8
0
 62
4
 10
-1.05171906E+02
 20
3.15925849E+01
 11
-1.05171906E+02
 21
2.75352319E+01
  0
LINE
  8
0
 62
4
 10
-9.86719056E+01
 20
3.15925849E+01
 11
-9.86719056E+01
 21
2.80925849E+01
  0
LINE
  8
0
 62
4
 10
-9.86719056E+01
 20
3.15925849E+01
 11
-1.05171906E+02
 21
3.15925849E+01
  0
LINE
  8
0
 62
4
 10
-1.03971906E+02
 20
2.98925849E+01
 11
-1.03971906E+02
 21
2.82284084E+01
  0
LINE
  8
0
 62
4
 10
-9.98719056E+01
 20
2.98925849E+01
 11
-1.03971906E+02
 21
2.98925849E+01
  0
LINE
  8
0
 62
4
 10
-1.00921906E+02
 20
3.01925849E+01
 11
-1.00921906E+02
 21
2.98925849E+01
  0
LINE
  8
0
 62
4
 10
-1.02921906E+02
 20
3.01925849E+01
 11
-1.02921906E+02
 21
2.98925849E+01
  0
LINE
  8
0
 62
4
 10
-1.00921906E+02
 20
3.01925849E+01
 11
-1.02921906E+02
 21
3.01925849E+01
  0
LINE
  8
0
 62
4
 10
-9.86719056E+01
 20
3.08925849E+01
 11
-1.05171906E+02
 21
3.08925849E+01
  0
LINE
  8
0
 62
4
 10
-9.86719056E+01
 20
2.76925849E+01
 11
-9.89443089E+01
 21
2.76925849E+01
  0
LINE
  8
0
 62
4
 10
-9.86719056E+01
 20
2.80925849E+01
 11
-9.96367732E+01
 21
2.80925849E+01
  0
LINE
  8
0
 62
4
 10
-9.86719056E+01
 20
2.76925849E+01
 11
-9.86719056E+01
 21
2.75352319E+01
  0
LINE
  8
0
 62
4
 10
-9.98719056E+01
 20
2.98925849E+01
 11
-9.98719056E+01
 21
2.82284084E+01
  0
LINE
  8
0
 62
4
 10
-1.05421906E+02
 20
3.32925849E+01
 11
-1.05421906E+02
 21
2.73925849E+01
  0
LINE
  8
0
 62
4
 10
-9.84219056E+01
 20
3.32925849E+01
 11
-9.84219056E+01
 21
2.80925849E+01
  0
LINE
  8
0
 62
4
 10
-9.94219056E+01
 20
3.55925849E+01
 11
-1.04421906E+02
 21
3.55925849E+01
  0
LINE
  8
0
 62
4
 10
-9.84219056E+01
 20
3.45925849E+01
 11
-1.05421906E+02
 21
3.45925849E+01
  0
LINE
  8
0
 62
4
 10
-9.99219056E+01
 20
3.30925849E+01
 11
-1.03921906E+02
 21
3.30925849E+01
  0
LINE
  8
0
 62
4
 10
-9.89219056E+01
 20
3.37925849E+01
 11
-1.04921906E+02
 21
3.37925849E+01
  0
LINE
  8
0
 62
4
 10
-1.06221906E+02
 20
3.37925849E+01
 11
-1.06221906E+02
 21
2.73925849E+01
  0
LINE
  8
0
 62
4
 10
-9.76219056E+01
 20
3.37925849E+01
 11
-9.76219056E+01
 21
2.80925849E+01
  0
LINE
  8
0
 62
4
 10
-1.03981906E+02
 20
3.37925849E+01
 11
-1.03921906E+02
 21
3.30925849E+01
  0
LINE
  8
0
 62
4
 10
-9.98619056E+01
 20
3.37925849E+01
 11
-9.99219056E+01
 21
3.30925849E+01
  0
LINE
  8
0
 62
4
 10
-9.76219056E+01
 20
2.80925849E+01
 11
-9.84219056E+01
 21
2.80925849E+01
  0
LINE
  8
0
 62
4
 10
-1.05421906E+02
 20
2.73925849E+01
 11
-1.06221906E+02
 21
2.73925849E+01
  0
LINE
  8
0
 62
4
 10
-1.06221906E+02
 20
2.95925849E+01
 11
-1.06603520E+02
 21
2.98151935E+01
  0
LINE
  8
0
 62
4
 10
-1.07821906E+02
 20
3.28925849E+01
 11
-1.07821906E+02
 21
3.05225849E+01
  0
LINE
  8
0
 62
4
 10
-1.07021906E+02
 20
3.28925849E+01
 11
-1.07821906E+02
 21
3.28925849E+01
  0
LINE
  8
0
 62
4
 10
-1.07021906E+02
 20
3.28925849E+01
 11
-1.07021906E+02
 21
3.09825849E+01
  0
LINE
  8
0
 62
4
 10
-1.06221906E+02
 20
3.05225849E+01
 11
-1.06518616E+02
 21
3.06874238E+01
  0
LINE
  8
0
 62
4
 10
-9.85719056E+01
 20
3.32925849E+01
 11
-9.85719056E+01
 21
2.80925849E+01
  0
LINE
  8
0
 62
4
 10
-9.84219056E+01
 20
3.32925849E+01
 11
-9.85719056E+01
 21
3.32925849E+01
  0
LINE
  8
0
 62
4
 10
-1.06994055E+02
 20
3.09640176E+01
 11
-1.07021906E+02
 21
3.09825849E+01
  0
LINE
  8
0
 62
4
 10
-1.07079797E+02
 20
3.00831787E+01
 11
-1.07821906E+02
 21
3.05225849E+01
  0
LINE
  8
0
 62
4
 10
-1.00421906E+02
 20
3.55925849E+01
 11
-1.00421906E+02
 21
3.45925849E+01
  0
LINE
  8
0
 62
4
 10
-1.03421906E+02
 20
3.55925849E+01
 11
-1.03421906E+02
 21
3.45925849E+01
  0
LINE
  8
0
 62
6
 10
-1.03151906E+02
 20
3.55925849E+01
 11
-1.03151906E+02
 21
3.45925849E+01
  0
LINE
  8
0
 62
6
 10
-1.00691906E+02
 20
3.55925849E+01
 11
-1.00691906E+02
 21
3.45925849E+01
  0
LINE
  8
0
 62
4
 10
-1.04421906E+02
 20
3.60925849E+01
 11
-1.04421906E+02
 21
3.55925849E+01
  0
LINE
  8
0
 62
4
 10
-9.94219056E+01
 20
3.60925849E+01
 11
-9.94219056E+01
 21
3.55925849E+01
  0
LINE
  8
0
 62
4
 10
-1.00421906E+02
 20
3.70925849E+01
 11
-1.03421906E+02
 21
3.70925849E+01
  0
LINE
  8
0
 62
4
 10
-1.00421906E+02
 20
3.30925849E+01
 11
-1.00421906E+02
 21
3.18925849E+01
  0
LINE
  8
0
 62
6
 10
-1.00691906E+02
 20
3.30925849E+01
 11
-1.00691906E+02
 21
3.16225849E+01
  0
LINE
  8
0
 62
6
 10
-1.03151906E+02
 20
3.30925849E+01
 11
-1.03151906E+02
 21
3.16225849E+01
  0
LINE
  8
0
 62
4
 10
-1.03421906E+02
 20
3.30925849E+01
 11
-1.03421906E+02
 21
3.18925849E+01
  0
ARC
  8
0
 62
4
 10
-9.89220657E+01
 20
3.32924247E+01
 40
5.00160181E-01
 50
1.83465799E-02
 51
9.00000002E+01
  0
ARC
  8
0
 62
4
 10
-1.04929531E+02
 20
3.33002101E+01
 40
4.92433852E-01
 50
8.91127567E+01
 51
1.80887243E+02
  0
ARC
  8
0
 62
4
 10
-9.84220439E+01
 20
3.37924465E+01
 40
8.00138358E-01
 50
9.90662024E-03
 51
9.00000002E+01
  0
ARC
  8
0
 62
4
 10
-1.05429531E+02
 20
3.38002101E+01
 40
7.92411497E-01
 50
8.94486475E+01
 51
1.80551352E+02
  0
ARC
  8
0
 62
4
 10
-1.00422035E+02
 20
3.60924553E+01
 40
1.00012957E+00
 50
7.42247612E-03
 51
9.00000002E+01
  0
ARC
  8
0
 62
4
 10
-1.03429532E+02
 20
3.61002116E+01
 40
9.92402587E-01
 50
8.95596718E+01
 51
1.80440329E+02
  0
CIRCLE
  8
0
 62
2
 10
-1.01921906E+02
 20
1.95925849E+01
 40
1.62100000E+00
  0
CIRCLE
  8
0
 62
2
 10
-1.01921906E+02
 20
1.95925849E+01
 40
5.05300000E+00
  0
LINE
  8
0
 62
4
 10
-1.05421906E+02
 20
2.16125849E+01
 11
-1.01921906E+02
 21
2.36325849E+01
  0
LINE
  8
0
 62
4
 10
-1.01921906E+02
 20
1.55625849E+01
 11
-9.84219056E+01
 21
1.75725849E+01
  0
LINE
  8
0
 62
4
 10
-1.01921906E+02
 20
9.78258489E+00
 11
-9.34219056E+01
 21
1.46925849E+01
  0
LINE
  8
0
 62
4
 10
-1.10421906E+02
 20
2.45025849E+01
 11
-1.01921906E+02
 21
2.94125849E+01
  0
LINE
  8
0
 62
4
 10
-1.05421906E+02
 20
2.16125849E+01
 11
-1.05421906E+02
 21
1.75725849E+01
  0
LINE
  8
0
 62
4
 10
-9.84219056E+01
 20
2.16125849E+01
 11
-9.84219056E+01
 21
1.75725849E+01
  0
LINE
  8
0
 62
4
 10
-1.10421906E+02
 20
2.45025849E+01
 11
-1.10421906E+02
 21
1.46925849E+01
  0
LINE
  8
0
 62
4
 10
-9.34219056E+01
 20
2.45025849E+01
 11
-9.34219056E+01
 21
1.46925849E+01
  0
LINE
  8
0
 62
4
 10
-1.05421906E+02
 20
1.75725849E+01
 11
-1.01921906E+02
 21
1.55625849E+01
  0
LINE
  8
0
 62
4
 10
-1.01921906E+02
 20
2.36325849E+01
 11
-9.84219056E+01
 21
2.16125849E+01
  0
LINE
  8
0
 62
4
 10
-1.10421906E+02
 20
1.46925849E+01
 11
-1.01921906E+02
 21
9.78258489E+00
  0
LINE
  8
0
 62
4
 10
-1.01921906E+02
 20
2.94125849E+01
 11
-9.34219056E+01
 21
2.45025849E+01
  0
LINE
  8
0
  6
CENTER
 62
2
 10
-1.11901906E+02
 20
1.95925849E+01
 11
-9.16419056E+01
 21
1.95925849E+01
  0
LINE
  8
0
  6
CENTER
 62
2
 10
-1.01921906E+02
 20
3.13725849E+01
 11
-1.01921906E+02
 21
8.66258489E+00
  0
CIRCLE
  8
0
 62
7
 10
-1.01928953E+02
 20
1.95975851E+01
 40
2.00000000E+00
  0
CIRCLE
  8
0
 62
4
 10
-1.01928953E+02
 20
1.95975851E+01
 40
3.50000000E+00
  0
CIRCLE
  8
0
 62
7
 10
-1.01928953E+02
 20
1.95975851E+01
 40
6.00000000E+00
  0
CIRCLE
  8
0
 62
4
 10
-1.01921906E+02
 20
1.95925849E+01
 40
8.50000000E+00
  0
LINE
  8
0
  6
CENTER
 62
2
 10
9.69680944E+01
 20
3.87848106E+01
 11
9.69680944E+01
 21
7.62728047E+00
  0
LINE
  8
0
 62
4
 10
9.73489498E+01
 20
2.91925849E+01
 11
9.82680944E+01
 21
2.91925849E+01
  0
LINE
  8
0
 62
4
 10
9.54680944E+01
 20
3.18925849E+01
 11
9.57680944E+01
 21
3.15925849E+01
  0
LINE
  8
0
 62
4
 10
9.84680944E+01
 20
3.18925849E+01
 11
9.81680944E+01
 21
3.15925849E+01
  0
LINE
  8
0
 62
4
 10
1.01317642E+02
 20
3.32265393E+01
 11
1.01815289E+02
 21
3.32749814E+01
  0
LINE
  8
0
 62
4
 10
1.01815289E+02
 20
3.32749814E+01
 11
1.02502457E+02
 21
2.62156766E+01
  0
LINE
  8
0
 62
4
 10
1.01798094E+02
 20
2.67425849E+01
 11
1.01947389E+02
 21
2.67571175E+01
  0
LINE
  8
0
 62
4
 10
1.01317642E+02
 20
3.32265393E+01
 11
1.01970163E+02
 21
2.65231546E+01
  0
LINE
  8
0
 62
4
 10
1.01798094E+02
 20
2.67425849E+01
 11
1.01810475E+02
 21
2.66153979E+01
  0
LINE
  8
0
 62
4
 10
9.34680944E+01
 20
2.80925849E+01
 11
9.32355013E+01
 21
2.72564635E+01
  0
LINE
  8
0
 62
4
 10
9.36180944E+01
 20
2.80925849E+01
 11
9.34149269E+01
 21
2.73601081E+01
  0
LINE
  8
0
 62
4
 10
1.00218094E+02
 20
3.15925849E+01
 11
1.00218094E+02
 21
2.75352319E+01
  0
LINE
  8
0
 62
4
 10
9.37180944E+01
 20
3.15925849E+01
 11
9.37180944E+01
 21
2.80925849E+01
  0
LINE
  8
0
 62
4
 10
9.37180944E+01
 20
3.15925849E+01
 11
1.00218094E+02
 21
3.15925849E+01
  0
LINE
  8
0
 62
4
 10
9.90180944E+01
 20
2.98925849E+01
 11
9.90180944E+01
 21
2.82284084E+01
  0
LINE
  8
0
 62
4
 10
9.49180944E+01
 20
2.98925849E+01
 11
9.90180944E+01
 21
2.98925849E+01
  0
LINE
  8
0
 62
4
 10
9.59680944E+01
 20
3.01925849E+01
 11
9.59680944E+01
 21
2.98925849E+01
  0
LINE
  8
0
 62
4
 10
9.79680944E+01
 20
3.01925849E+01
 11
9.79680944E+01
 21
2.98925849E+01
  0
LINE
  8
0
 62
4
 10
9.59680944E+01
 20
3.01925849E+01
 11
9.79680944E+01
 21
3.01925849E+01
  0
LINE
  8
0
 62
4
 10
9.37180944E+01
 20
3.08925849E+01
 11
1.00218094E+02
 21
3.08925849E+01
  0
LINE
  8
0
 62
4
 10
9.37180944E+01
 20
2.80925849E+01
 11
9.46829620E+01
 21
2.80925849E+01
  0
LINE
  8
0
 62
4
 10
9.49180944E+01
 20
2.98925849E+01
 11
9.49180944E+01
 21
2.82284084E+01
  0
LINE
  8
0
 62
4
 10
1.00468094E+02
 20
3.32925849E+01
 11
1.00468094E+02
 21
2.73925849E+01
  0
LINE
  8
0
 62
4
 10
9.34680944E+01
 20
3.32925849E+01
 11
9.34680944E+01
 21
2.80925849E+01
  0
LINE
  8
0
 62
4
 10
9.44680944E+01
 20
3.55925849E+01
 11
9.94680944E+01
 21
3.55925849E+01
  0
LINE
  8
0
 62
4
 10
9.34680944E+01
 20
3.45925849E+01
 11
1.00468094E+02
 21
3.45925849E+01
  0
LINE
  8
0
 62
4
 10
9.49680944E+01
 20
3.30925849E+01
 11
9.89680944E+01
 21
3.30925849E+01
  0
LINE
  8
0
 62
4
 10
9.39680944E+01
 20
3.37925849E+01
 11
9.99680944E+01
 21
3.37925849E+01
  0
LINE
  8
0
 62
4
 10
1.01268094E+02
 20
3.37925849E+01
 11
1.01268094E+02
 21
2.73925849E+01
  0
LINE
  8
0
 62
4
 10
9.26680944E+01
 20
3.37925849E+01
 11
9.26680944E+01
 21
2.80925849E+01
  0
LINE
  8
0
 62
4
 10
9.90280944E+01
 20
3.37925849E+01
 11
9.89680944E+01
 21
3.30925849E+01
  0
LINE
  8
0
 62
4
 10
9.49080944E+01
 20
3.37925849E+01
 11
9.49680944E+01
 21
3.30925849E+01
  0
LINE
  8
0
 62
4
 10
9.26680944E+01
 20
2.80925849E+01
 11
9.34680944E+01
 21
2.80925849E+01
  0
LINE
  8
0
 62
4
 10
1.00468094E+02
 20
2.73925849E+01
 11
1.01268094E+02
 21
2.73925849E+01
  0
LINE
  8
0
 62
4
 10
1.01268094E+02
 20
2.95925849E+01
 11
1.01649709E+02
 21
2.98151935E+01
  0
LINE
  8
0
 62
4
 10
1.02868094E+02
 20
3.28925849E+01
 11
1.02868094E+02
 21
3.05225849E+01
  0
LINE
  8
0
 62
4
 10
1.02068094E+02
 20
3.28925849E+01
 11
1.02868094E+02
 21
3.28925849E+01
  0
LINE
  8
0
 62
4
 10
1.02068094E+02
 20
3.28925849E+01
 11
1.02068094E+02
 21
3.09825849E+01
  0
LINE
  8
0
 62
4
 10
1.01268094E+02
 20
3.05225849E+01
 11
1.01564804E+02
 21
3.06874238E+01
  0
LINE
  8
0
 62
4
 10
9.36180944E+01
 20
3.32925849E+01
 11
9.36180944E+01
 21
2.80925849E+01
  0
LINE
  8
0
 62
4
 10
9.34680944E+01
 20
3.32925849E+01
 11
9.36180944E+01
 21
3.32925849E+01
  0
LINE
  8
0
 62
4
 10
1.02040243E+02
 20
3.09640176E+01
 11
1.02068094E+02
 21
3.09825849E+01
  0
LINE
  8
0
 62
4
 10
1.02125986E+02
 20
3.00831787E+01
 11
1.02868094E+02
 21
3.05225849E+01
  0
LINE
  8
0
 62
4
 10
9.54680944E+01
 20
3.55925849E+01
 11
9.54680944E+01
 21
3.45925849E+01
  0
LINE
  8
0
 62
4
 10
9.84680944E+01
 20
3.55925849E+01
 11
9.84680944E+01
 21
3.45925849E+01
  0
LINE
  8
0
 62
6
 10
9.81980944E+01
 20
3.55925849E+01
 11
9.81980944E+01
 21
3.45925849E+01
  0
LINE
  8
0
 62
6
 10
9.57380944E+01
 20
3.55925849E+01
 11
9.57380944E+01
 21
3.45925849E+01
  0
LINE
  8
0
 62
4
 10
9.94680944E+01
 20
3.60925849E+01
 11
9.94680944E+01
 21
3.55925849E+01
  0
LINE
  8
0
 62
4
 10
9.44680944E+01
 20
3.60925849E+01
 11
9.44680944E+01
 21
3.55925849E+01
  0
LINE
  8
0
 62
4
 10
9.54680944E+01
 20
3.70925849E+01
 11
9.84680944E+01
 21
3.70925849E+01
  0
LINE
  8
0
 62
4
 10
9.54680944E+01
 20
3.30925849E+01
 11
9.54680944E+01
 21
3.18925849E+01
  0
LINE
  8
0
 62
6
 10
9.57380944E+01
 20
3.30925849E+01
 11
9.57380944E+01
 21
3.16225849E+01
  0
LINE
  8
0
 62
6
 10
9.81980944E+01
 20
3.30925849E+01
 11
9.81980944E+01
 21
3.16225849E+01
  0
LINE
  8
0
 62
4
 10
9.84680944E+01
 20
3.30925849E+01
 11
9.84680944E+01
 21
3.18925849E+01
  0
LINE
  8
0
 62
4
 10
9.56680944E+01
 20
2.91925849E+01
 11
9.65872390E+01
 21
2.91925849E+01
  0
LINE
  8
0
 62
4
 10
9.82680944E+01
 20
2.91925849E+01
 11
9.82680944E+01
 21
2.86616437E+01
  0
LINE
  8
0
 62
4
 10
9.56680944E+01
 20
2.91925849E+01
 11
9.56680944E+01
 21
2.86616437E+01
  0
LINE
  8
0
 62
4
 10
9.49180944E+01
 20
2.98925849E+01
 11
9.56680944E+01
 21
2.91925849E+01
  0
LINE
  8
0
 62
4
 10
9.82680944E+01
 20
2.91925849E+01
 11
9.90180944E+01
 21
2.98925849E+01
  0
ARC
  8
0
 62
4
 10
9.39682546E+01
 20
3.32924247E+01
 40
5.00160181E-01
 50
9.00000002E+01
 51
1.79981654E+02
  0
ARC
  8
0
 62
4
 10
9.99757196E+01
 20
3.33002101E+01
 40
4.92433852E-01
 50
3.59112757E+02
 51
9.08872431E+01
  0
ARC
  8
0
 62
4
 10
9.34682328E+01
 20
3.37924465E+01
 40
8.00138358E-01
 50
9.00000002E+01
 51
1.79990093E+02
  0
ARC
  8
0
 62
4
 10
1.00475720E+02
 20
3.38002101E+01
 40
7.92411497E-01
 50
3.59448647E+02
 51
9.05513523E+01
  0
ARC
  8
0
 62
4
 10
9.54682240E+01
 20
3.60924553E+01
 40
1.00012957E+00
 50
9.00000002E+01
 51
1.79992578E+02
  0
ARC
  8
0
 62
4
 10
9.84757211E+01
 20
3.61002116E+01
 40
9.92402587E-01
 50
3.59559672E+02
 51
9.04403286E+01
  0
CIRCLE
  8
0
 62
2
 10
9.69680944E+01
 20
1.95925849E+01
 40
5.05300000E+00
  0
CIRCLE
  8
0
 62
7
 10
9.69610473E+01
 20
1.95975851E+01
 40
6.00000000E+00
  0
LINE
  8
0
 62
4
 10
1.05468094E+02
 20
2.45025849E+01
 11
1.05468094E+02
 21
1.46925849E+01
  0
LINE
  8
0
 62
4
 10
9.69680944E+01
 20
9.78258489E+00
 11
1.05468094E+02
 21
1.46925849E+01
  0
LINE
  8
0
 62
4
 10
8.84680944E+01
 20
1.46925849E+01
 11
9.69680944E+01
 21
9.78258489E+00
  0
LINE
  8
0
 62
4
 10
8.84680944E+01
 20
2.45025849E+01
 11
8.84680944E+01
 21
1.46925849E+01
  0
LINE
  8
0
 62
4
 10
8.84680944E+01
 20
2.45025849E+01
 11
9.69680944E+01
 21
2.94125849E+01
  0
LINE
  8
0
 62
4
 10
9.69680944E+01
 20
2.94125849E+01
 11
1.05468094E+02
 21
2.45025849E+01
  0
LINE
  8
0
  6
CENTER
 62
2
 10
8.61382969E+01
 20
1.95925849E+01
 11
1.07650763E+02
 21
1.95925849E+01
  0
CIRCLE
  8
0
 62
4
 10
9.69680944E+01
 20
1.95925849E+01
 40
8.50000000E+00
  0
LINE
  8
0
  6
CENTER
 62
6
 10
2.90745699E+01
 20
7.43225849E+01
 11
2.90745699E+01
 21
5.96025849E+01
  0
LINE
  8
0
 62
4
 10
2.45745699E+01
 20
6.13725849E+01
 11
3.35745699E+01
 21
6.13725849E+01
  0
LINE
  8
0
 62
4
 10
2.70745699E+01
 20
7.18697798E+01
 11
2.70745699E+01
 21
7.28870638E+01
  0
LINE
  8
0
 62
4
 10
2.45745699E+01
 20
7.28870638E+01
 11
3.35745699E+01
 21
7.28870638E+01
  0
LINE
  8
0
 62
4
 10
2.70745698E+01
 20
7.21225849E+01
 11
3.10745698E+01
 21
7.21225849E+01
  0
CIRCLE
  8
0
 62
4
 10
2.90736946E+01
 20
6.70201264E+01
 40
2.50000000E+00
  0
LINE
  8
0
 62
4
 10
3.60745699E+01
 20
6.50225849E+01
 11
4.15745699E+01
 21
6.50225849E+01
  0
LINE
  8
0
 62
4
 10
3.60745699E+01
 20
6.90225849E+01
 11
4.15745699E+01
 21
6.90225849E+01
  0
LINE
  8
0
 62
4
 10
3.35745699E+01
 20
6.37725849E+01
 11
3.60745699E+01
 21
6.37725849E+01
  0
LINE
  8
0
 62
4
 10
3.35745699E+01
 20
7.02725849E+01
 11
3.60745699E+01
 21
7.02725849E+01
  0
LINE
  8
0
 62
4
 10
3.60745699E+01
 20
6.37725849E+01
 11
3.60745699E+01
 21
7.02725849E+01
  0
LINE
  8
0
 62
4
 10
2.20745699E+01
 20
7.02725849E+01
 11
2.45745699E+01
 21
7.02725849E+01
  0
LINE
  8
0
 62
4
 10
2.20745699E+01
 20
6.37725849E+01
 11
2.45745699E+01
 21
6.37725849E+01
  0
LINE
  8
0
 62
4
 10
1.65745699E+01
 20
6.60225849E+01
 11
1.75745699E+01
 21
6.50225849E+01
  0
LINE
  8
0
 62
4
 10
1.65745699E+01
 20
6.80225849E+01
 11
1.75745699E+01
 21
6.90225849E+01
  0
LINE
  8
0
 62
4
 10
1.75745699E+01
 20
6.90225849E+01
 11
1.75745699E+01
 21
6.50225849E+01
  0
LINE
  8
0
 62
4
 10
1.75745699E+01
 20
6.90225849E+01
 11
2.20745699E+01
 21
6.90225849E+01
  0
LINE
  8
0
 62
4
 10
1.75745699E+01
 20
6.50225849E+01
 11
2.20745699E+01
 21
6.50225849E+01
  0
LINE
  8
0
 62
4
 10
1.65745699E+01
 20
6.80225849E+01
 11
1.65745699E+01
 21
6.60225849E+01
  0
LINE
  8
0
 62
4
 10
4.15745699E+01
 20
6.90225849E+01
 11
4.15745699E+01
 21
6.50225849E+01
  0
LINE
  8
0
 62
4
 10
3.00820033E+01
 20
6.60200183E+01
 11
2.80120033E+01
 21
6.80800183E+01
  0
LINE
  8
0
 62
4
 10
2.80120033E+01
 20
6.59600183E+01
 11
3.01320033E+01
 21
6.80800183E+01
  0
LINE
  8
0
 62
4
 10
3.01845699E+01
 20
6.59225849E+01
 11
3.01345699E+01
 21
6.59625849E+01
  0
LINE
  8
0
 62
4
 10
2.20745699E+01
 20
6.37725849E+01
 11
2.20745699E+01
 21
7.02725849E+01
  0
LINE
  8
0
 62
4
 10
2.45745698E+01
 20
6.27225849E+01
 11
3.35745699E+01
 21
6.27225849E+01
  0
LINE
  8
0
 62
4
 10
2.45745698E+01
 20
7.13226216E+01
 11
3.35745699E+01
 21
7.13226216E+01
  0
LINE
  8
0
 62
4
 10
4.15745699E+01
 20
6.90225849E+01
 11
4.45745699E+01
 21
6.83225849E+01
  0
LINE
  8
0
 62
4
 10
4.45745698E+01
 20
6.83225849E+01
 11
4.95115689E+01
 21
6.83225849E+01
  0
LINE
  8
0
 62
4
 10
4.45745698E+01
 20
6.57225849E+01
 11
4.69115689E+01
 21
6.57225849E+01
  0
LINE
  8
0
 62
4
 10
4.15745699E+01
 20
6.50225849E+01
 11
4.45745698E+01
 21
6.57225849E+01
  0
LINE
  8
0
 62
6
 10
4.95115689E+01
 20
6.83225849E+01
 11
4.69115689E+01
 21
6.57225849E+01
  0
LINE
  8
0
 62
4
 10
2.45745699E+01
 20
7.18697798E+01
 11
3.35745699E+01
 21
7.18697798E+01
  0
LINE
  8
0
 62
4
 10
3.10745699E+01
 20
7.28870638E+01
 11
3.10745699E+01
 21
7.18697798E+01
  0
LINE
  8
0
  6
CENTER
 62
6
 10
1.44404931E+01
 20
6.70225849E+01
 11
5.07461459E+01
 21
6.70225849E+01
  0
LINE
  8
0
 62
4
 10
4.45745698E+01
 20
6.83225849E+01
 11
4.45745698E+01
 21
6.57225849E+01
  0
LINE
  8
0
 62
4
 10
3.35745699E+01
 20
6.13725849E+01
 11
3.35745699E+01
 21
7.28870638E+01
  0
LINE
  8
0
 62
4
 10
2.45745699E+01
 20
6.13725849E+01
 11
2.45745699E+01
 21
7.28870638E+01
  0
LINE
  8
0
 62
4
 10
-1.25488101E+02
 20
-6.38104135E+01
 11
-9.04881012E+01
 21
-6.38104135E+01
  0
LINE
  8
0
 62
4
 10
-1.25488101E+02
 20
-6.15104135E+01
 11
-9.04881012E+01
 21
-6.15104135E+01
  0
LINE
  8
0
 62
4
 10
-9.04881012E+01
 20
-6.38104135E+01
 11
-9.04881012E+01
 21
-6.15104135E+01
  0
LINE
  8
0
 62
4
 10
-1.25488101E+02
 20
-6.15104135E+01
 11
-1.25488101E+02
 21
-6.38104135E+01
  0
LINE
  8
0
  6
CENTER
 62
6
 10
-1.17446597E+02
 20
-4.78104135E+01
 11
-9.85614732E+01
 21
-4.78104135E+01
  0
CIRCLE
  8
0
 62
4
 10
-1.07988101E+02
 20
-4.78104135E+01
 40
6.00000000E+00
  0
LINE
  8
0
  6
CENTER
 62
6
 10
-1.20488101E+02
 20
-5.94725568E+01
 11
-1.20488101E+02
 21
-6.62672443E+01
  0
LINE
  8
0
  6
CENTER
 62
6
 10
-9.54881012E+01
 20
-6.62672443E+01
 11
-9.54881012E+01
 21
-5.94725568E+01
  0
ARC
  8
0
 62
4
 10
-1.07988101E+02
 20
-4.78104135E+01
 40
1.00000000E+01
 50
2.52037445E+01
 51
1.54796256E+02
  0
LINE
  8
0
 62
4
 10
-9.04881012E+01
 20
-6.15104135E+01
 11
-9.89401089E+01
 21
-4.35520293E+01
  0
LINE
  8
0
 62
4
 10
-1.25488101E+02
 20
-6.15104135E+01
 11
-1.17036093E+02
 21
-4.35520293E+01
  0
LINE
  8
0
  6
CENTER
 62
6
 10
-1.07988101E+02
 20
-5.73184792E+01
 11
-1.07988101E+02
 21
-3.78104135E+01
  0
LINE
  8
0
 62
4
 10
-8.49881012E+01
 20
-6.38104135E+01
 11
-7.12881012E+01
 21
-6.38104135E+01
  0
LINE
  8
0
 62
4
 10
-6.92881012E+01
 20
-3.78104135E+01
 11
-6.69881012E+01
 21
-3.78104135E+01
  0
LINE
  8
0
 62
4
 10
-6.69881012E+01
 20
-5.95104135E+01
 11
-6.69881012E+01
 21
-3.78104135E+01
  0
LINE
  8
0
 62
4
 10
-6.92881012E+01
 20
-5.95104135E+01
 11
-6.92881012E+01
 21
-3.78104135E+01
  0
LINE
  8
0
 62
4
 10
-8.49881012E+01
 20
-6.15104135E+01
 11
-7.12881012E+01
 21
-6.15104135E+01
  0
LINE
  8
0
 62
4
 10
-8.49881012E+01
 20
-6.38104135E+01
 11
-8.49881012E+01
 21
-6.15104135E+01
  0
ARC
  8
0
 62
4
 10
-7.12881012E+01
 20
-5.95104135E+01
 40
2.00000000E+00
 50
2.70000000E+02
 51
0.00000000E+00
  0
ARC
  8
0
 62
4
 10
-7.12881012E+01
 20
-5.95104135E+01
 40
4.30000000E+00
 50
2.70000000E+02
 51
0.00000000E+00
  0
LINE
  8
0
  6
CENTER
 62
6
 10
-6.48275506E+01
 20
-4.78104135E+01
 11
-7.12881012E+01
 21
-4.78104135E+01
  0
LINE
  8
0
  6
CENTER
 62
6
 10
-7.99881012E+01
 20
-6.57916800E+01
 11
-7.99881012E+01
 21
-5.90399593E+01
  0
LINE
  8
0
 62
4
 10
-8.22381012E+01
 20
-6.38104135E+01
 11
-8.22381012E+01
 21
-6.15104135E+01
  0
LINE
  8
0
 62
4
 10
-7.77381012E+01
 20
-6.38104135E+01
 11
-7.77381012E+01
 21
-6.15104135E+01
  0
LINE
  8
0
  6
CENTER
 62
6
 10
-9.54881012E+01
 20
-2.59685643E+01
 11
-9.54881012E+01
 21
-1.96986118E+01
  0
LINE
  8
0
  6
CENTER
 62
6
 10
-1.20488101E+02
 20
-2.62671334E+01
 11
-1.20488101E+02
 21
-1.98004135E+01
  0
LINE
  8
0
 62
4
 10
-9.04881012E+01
 20
-9.80041351E+00
 11
-9.04881012E+01
 21
-2.05504135E+01
  0
LINE
  8
0
 62
4
 10
-1.25488101E+02
 20
-9.80041351E+00
 11
-9.04881012E+01
 21
-9.80041351E+00
  0
LINE
  8
0
 62
4
 10
-1.25488101E+02
 20
-2.78004135E+01
 11
-9.04881012E+01
 21
-2.78004135E+01
  0
LINE
  8
0
  6
CENTER
 62
6
 10
-1.07988101E+02
 20
-8.41041351E+00
 11
-1.07988101E+02
 21
-2.93739252E+01
  0
LINE
  8
0
  6
CENTER
 62
6
 10
-1.23439417E+02
 20
-2.28004135E+01
 11
-9.27572033E+01
 21
-2.28004135E+01
  0
LINE
  8
0
 62
4
 10
-9.04881012E+01
 20
-2.50504135E+01
 11
-9.04881012E+01
 21
-2.78004135E+01
  0
LINE
  8
0
 62
4
 10
-9.54881012E+01
 20
-2.05504135E+01
 11
-9.04881012E+01
 21
-2.05504135E+01
  0
LINE
  8
0
 62
4
 10
-9.54881012E+01
 20
-2.50504135E+01
 11
-9.04881012E+01
 21
-2.50504135E+01
  0
ARC
  8
0
 62
4
 10
-9.54881012E+01
 20
-2.28004135E+01
 40
2.25000000E+00
 50
9.00000002E+01
 51
2.70000000E+02
  0
ARC
  8
0
 62
4
 10
-1.20488101E+02
 20
-2.28004135E+01
 40
2.25000000E+00
 50
2.70000000E+02
 51
9.00000002E+01
  0
LINE
  8
0
 62
4
 10
-1.20488101E+02
 20
-2.05504135E+01
 11
-1.25488101E+02
 21
-2.05504135E+01
  0
LINE
  8
0
 62
4
 10
-1.20488101E+02
 20
-2.50504135E+01
 11
-1.25488101E+02
 21
-2.50504135E+01
  0
LINE
  8
0
 62
4
 10
-1.25488101E+02
 20
-9.80041351E+00
 11
-1.25488101E+02
 21
-2.05504135E+01
  0
LINE
  8
0
 62
4
 10
-1.25488101E+02
 20
-2.50504135E+01
 11
-1.25488101E+02
 21
-2.78004135E+01
  0
LINE
  8
0
 62
4
 10
-1.25488101E+02
 20
-1.21004135E+01
 11
-9.04881012E+01
 21
-1.21004135E+01
  0
LINE
  8
0
  6
CENTER
 62
6
 10
4.01189881E+00
 20
-4.72003739E+01
 11
4.01189881E+00
 21
-5.45388151E+01
  0
LINE
  8
0
  6
CENTER
 62
6
 10
-1.09881012E+01
 20
-4.24658957E+01
 11
-1.09881012E+01
 21
-5.94524322E+01
  0
LINE
  8
0
 62
4
 10
-3.09881012E+01
 20
-6.08104135E+01
 11
9.01189881E+00
 21
-6.08104135E+01
  0
LINE
  8
0
 62
4
 10
9.01189881E+00
 20
-4.08104135E+01
 11
9.01189881E+00
 21
-4.85604135E+01
  0
LINE
  8
0
 62
4
 10
-3.09881012E+01
 20
-4.08104135E+01
 11
9.01189881E+00
 21
-4.08104135E+01
  0
LINE
  8
0
  6
CENTER
 62
6
 10
-2.80618132E+01
 20
-5.08104135E+01
 11
6.55905865E+00
 21
-5.08104135E+01
  0
ARC
  8
0
 62
4
 10
4.01189881E+00
 20
-5.08104135E+01
 40
2.25000000E+00
 50
9.00000002E+01
 51
2.70000000E+02
  0
LINE
  8
0
 62
4
 10
4.01189881E+00
 20
-4.85604135E+01
 11
9.01189881E+00
 21
-4.85604135E+01
  0
LINE
  8
0
 62
4
 10
4.01189881E+00
 20
-5.30604135E+01
 11
9.01189881E+00
 21
-5.30604135E+01
  0
CIRCLE
  8
0
 62
4
 10
-1.09881012E+01
 20
-5.08104135E+01
 40
6.00000000E+00
  0
LINE
  8
0
 62
4
 10
9.01189881E+00
 20
-5.30604135E+01
 11
9.01189881E+00
 21
-6.08104135E+01
  0
LINE
  8
0
  6
CENTER
 62
6
 10
-2.59881012E+01
 20
-4.72003739E+01
 11
-2.59881012E+01
 21
-5.45388151E+01
  0
ARC
  8
0
 62
4
 10
-2.59881012E+01
 20
-5.08104135E+01
 40
2.25000000E+00
 50
2.70000000E+02
 51
9.00000002E+01
  0
LINE
  8
0
 62
4
 10
-2.59881012E+01
 20
-4.85604135E+01
 11
-3.09881012E+01
 21
-4.85604135E+01
  0
LINE
  8
0
 62
4
 10
-3.09881012E+01
 20
-4.08104135E+01
 11
-3.09881012E+01
 21
-4.85604135E+01
  0
LINE
  8
0
 62
4
 10
-3.09881012E+01
 20
-5.30604135E+01
 11
-3.09881012E+01
 21
-6.08104135E+01
  0
LINE
  8
0
 62
4
 10
-2.59881012E+01
 20
-5.30604135E+01
 11
-3.09881012E+01
 21
-5.30604135E+01
  0
LINE
  8
0
 62
4
 10
2.63118988E+01
 20
-6.08104135E+01
 11
2.85818988E+01
 21
-6.08104135E+01
  0
LINE
  8
0
 62
4
 10
2.86118988E+01
 20
-4.08104135E+01
 11
2.86118988E+01
 21
-6.08104135E+01
  0
LINE
  8
0
 62
4
 10
2.63118988E+01
 20
-4.08104135E+01
 11
2.63118988E+01
 21
-6.08104135E+01
  0
LINE
  8
0
 62
4
 10
2.63118988E+01
 20
-4.08104135E+01
 11
2.85818988E+01
 21
-4.08104135E+01
  0
LINE
  8
0
  6
CENTER
 62
6
 10
2.46243742E+01
 20
-5.08104135E+01
 11
3.02331379E+01
 21
-5.08104135E+01
  0
LINE
  8
0
 62
4
 10
2.63118988E+01
 20
-4.85604135E+01
 11
2.85818988E+01
 21
-4.85604135E+01
  0
LINE
  8
0
 62
4
 10
2.63118988E+01
 20
-5.30604135E+01
 11
2.85818988E+01
 21
-5.30604135E+01
  0
LINE
  8
0
 62
4
 10
-3.09881012E+01
 20
-2.15104135E+01
 11
9.01189881E+00
 21
-2.15104135E+01
  0
LINE
  8
0
 62
4
 10
-3.09881012E+01
 20
-1.92104135E+01
 11
9.01189881E+00
 21
-1.92104135E+01
  0
LINE
  8
0
  6
CENTER
 62
6
 10
-1.09881012E+01
 20
-2.42040219E+01
 11
-1.09881012E+01
 21
-1.66512841E+01
  0
LINE
  8
0
 62
4
 10
-3.09881012E+01
 20
-2.15104135E+01
 11
-3.09881012E+01
 21
-1.92104135E+01
  0
LINE
  8
0
 62
4
 10
9.01189881E+00
 20
-2.15104135E+01
 11
9.01189881E+00
 21
-1.92104135E+01
  0
LINE
  8
0
  6
CENTER
 62
6
 10
-2.59881012E+01
 20
-2.42040219E+01
 11
-2.59881012E+01
 21
-1.66512841E+01
  0
LINE
  8
0
  6
CENTER
 62
6
 10
4.01189881E+00
 20
-2.42040219E+01
 11
4.01189881E+00
 21
-1.66512841E+01
  0
LINE
  8
0
 62
7
 10
-1.33399994E+02
 20
-8.38000031E+01
 11
-6.89999939E+01
 21
-8.38000031E+01
  0
TEXT
  8
0
 62
7
 10
-1.05449994E+02
 20
-8.24000031E+01
 40
3.20000005E+00
  1
25
 41
1.00000000E+00
  7
MONOTXT
  0
TEXT
  8
0
 62
7
 10
-1.07049994E+02
 20
-8.84000031E+01
 40
3.20000005E+00
  1
-25
 41
1.00000000E+00
  7
MONOTXT
  0
TEXT
  8
0
 62
7
 10
-9.58499939E+01
 20
-8.24000031E+01
 40
3.20000005E+00
  1
50
 41
1.00000000E+00
  7
MONOTXT
  0
TEXT
  8
0
 62
7
 10
-8.62499939E+01
 20
-8.24000031E+01
 40
3.20000005E+00
  1
75
 41
1.00000000E+00
  7
MONOTXT
  0
TEXT
  8
0
 62
7
 10
-7.82499940E+01
 20
-8.24000031E+01
 40
3.20000005E+00
  1
100
 41
1.00000000E+00
  7
MONOTXT
  0
TEXT
  8
0
 62
7
 10
-9.42499939E+01
 20
-8.84000031E+01
 40
3.20000005E+00
  1
0
 41
1.00000000E+00
  7
MONOTXT
  0
TEXT
  8
0
 62
7
 10
-8.62499939E+01
 20
-8.84000031E+01
 40
3.20000005E+00
  1
25
 41
1.00000000E+00
  7
MONOTXT
  0
TEXT
  8
0
 62
7
 10
-7.66499939E+01
 20
-8.84000031E+01
 40
3.20000005E+00
  1
50
 41
1.00000000E+00
  7
MONOTXT
  0
TEXT
  8
0
 10
-1.49208494E+01
 20
4.38986239E+01
 40
3.20000005E+00
  1
STRETCH LINE
 41
1.05263158E+00
  7
MONOTXT
  0
TEXT
  8
0
 62
7
 10
-1.20049994E+02
 20
-7.57696827E+01
 40
3.20000005E+00
  1
STRETCH LIST
 41
1.05263158E+00
  7
MONOTXT
  0
TEXT
  8
0
 62
7
 10
-8.00437339E+01
 20
-7.60119966E+01
 40
3.20000005E+00
  1
(mm)
 41
1.00000000E+00
  7
MONOTXT
  0
TEXT
  8
0
 62
7
 10
-1.31249994E+02
 20
-8.84000031E+01
 40
3.20000005E+00
  1
STRETCH
 41
1.00000000E+00
  7
MONOTXT
  0
TEXT
  8
0
 62
7
 10
-1.29649994E+02
 20
-8.24000031E+01
 40
3.20000005E+00
  1
STROKE
 41
1.00000000E+00
  7
MONOTXT
  0
LINE
  8
0
 62
7
 10
-6.89999939E+01
 20
-8.98000031E+01
 11
-6.89999939E+01
 21
-7.78000031E+01
  0
LINE
  8
0
 62
7
 10
-7.85999939E+01
 20
-8.98000031E+01
 11
-7.85999939E+01
 21
-7.78000031E+01
  0
LINE
  8
0
 62
7
 10
-8.81999939E+01
 20
-8.98000031E+01
 11
-8.81999939E+01
 21
-7.78000031E+01
  0
LINE
  8
0
 62
7
 10
-1.33399994E+02
 20
-7.78000031E+01
 11
-6.89999939E+01
 21
-7.78000031E+01
  0
LINE
  8
0
 62
7
 10
-9.77999939E+01
 20
-8.98000031E+01
 11
-9.77999939E+01
 21
-7.78000031E+01
  0
LINE
  8
0
 62
7
 10
-1.07399994E+02
 20
-8.98000031E+01
 11
-1.07399994E+02
 21
-7.78000031E+01
  0
LINE
  8
0
 62
7
 10
-1.33399994E+02
 20
-8.98000031E+01
 11
-1.33399994E+02
 21
-7.78000031E+01
  0
LINE
  8
0
 62
7
 10
-1.33399994E+02
 20
-8.98000031E+01
 11
-6.89999939E+01
 21
-8.98000031E+01
  0
LINE
  8
0
 62
7
 10
-1.38399994E+02
 20
9.45000000E+01
 11
1.38350006E+02
 21
9.45000000E+01
  0
LINE
  8
0
 62
7
 10
1.38350006E+02
 20
9.45000000E+01
 11
1.38350006E+02
 21
-9.48000031E+01
  0
LINE
  8
0
 62
7
 10
-1.38399994E+02
 20
-9.48000031E+01
 11
1.38350006E+02
 21
-9.48000031E+01
  0
LINE
  8
0
 62
7
 10
-1.38399994E+02
 20
9.45000000E+01
 11
-1.38399994E+02
 21
-9.48000031E+01
  0
LINE
  8
0
 62
7
 10
7.33500061E+01
 20
-8.48000031E+01
 11
1.38350006E+02
 21
-8.48000031E+01
  0
LINE
  8
0
 62
7
 10
-1.38399994E+02
 20
8.45000000E+01
 11
-7.33999939E+01
 21
8.45000000E+01
  0
LINE
  8
0
 62
7
 10
7.33500061E+01
 20
8.45000000E+01
 11
1.38350006E+02
 21
8.45000000E+01
  0
LINE
  8
0
 62
7
 10
7.33500061E+01
 20
-8.48000031E+01
 11
7.33500061E+01
 21
-9.48000031E+01
  0
LINE
  8
0
 62
7
 10
7.33500061E+01
 20
9.45000000E+01
 11
7.33500061E+01
 21
8.45000000E+01
  0
LINE
  8
0
 62
7
 10
-7.33999939E+01
 20
9.45000000E+01
 11
-7.33999939E+01
 21
8.45000000E+01
  0
TEXT
  8
0
 62
7
 10
7.72426624E+01
 20
-9.20500031E+01
 40
4.50000000E+00
  1
KOGANEI CORP.
 41
1.04838710E+00
  7
MONOTXT
  0
TEXT
  8
0
 62
7
 10
9.35071483E+01
 20
8.79000000E+01
 40
3.20000005E+00
  1
Ver. 1.1
 41
1.08108108E+00
  7
MONOTXT
  0
TEXT
  8
0
 62
7
 10
-1.31042852E+02
 20
8.79000000E+01
 40
3.20000005E+00
  1
NEW PEN CYLINDER
 41
1.08108108E+00
  7
MONOTXT
  0
TEXT
  8
0
 62
7
 10
-1.29085994E+02
 20
7.29000000E+01
 40
3.20000005E+00
  1
MODEL:PBDAAS10*ST(50)-M-ZC230
 41
1.00000000E+00
  7
MONOTXT
  0
ENDSEC
  0
EOF
