  0
SECTION
  2
HEADER
  9
$ACADVER
  1
AC1003
  9
$EXTMIN
 10
-1.38399994E+02
 20
-9.48000031E+01
  9
$EXTMAX
 10
1.38350006E+02
 20
9.45000000E+01
  9
$LIMMIN
 10
-1.38400994E+02
 20
-9.48010031E+01
  9
$LIMMAX
 10
1.38351006E+02
 20
9.45010000E+01
  9
$SNAPUNIT
 10
1
 20
1
  9
$SNAPBASE
 10
0
 20
0
  9
$GRIDMODE
 70
0
  9
$GRIDUNIT
 10
0
 20
0
  9
$LTSCALE
 40
4.61250000E+00
  9
$TEXTSIZE
 40
3.2
  9
$DIMTAD
 70
0
  9
$LUNITS
 70
2
  9
$LUPREC
 70
4
  9
$FILLETRAD
 40
0
  9
$AUNITS
 70
0
  9
$AUPREC
 70
0
  0
ENDSEC
  0
SECTION
  2
TABLES
  0
TABLE
  2
LTYPE
 70
2
  0
LTYPE
  2
CONTINUOUS
 70
64
  3
Solid-Line
 72
65
 73
0
 40
0
  0
LTYPE
  2
DASHED
 70
64
  3
DASHED
 72
65
 73
2
 40
.75
 49
.5
 49
-.25
  0
LTYPE
  2
HIDDEN
 70
64
  3
HIDDEN
 72
65
 73
2
 40
.375
 49
.25
 49
-.125
  0
LTYPE
  2
CENTER
 70
64
  3
CENTER
 72
65
 73
4
 40
2
 49
1.25
 49
-.25
 49
.25
 49
-.25
  0
LTYPE
  2
PHANTOM
 70
64
  3
PHANTOM
 72
65
 73
6
 40
2.5
 49
1.25
 49
-.25
 49
.25
 49
-.25
 49
.25
 49
-.25
  0
ENDTAB
  0
TABLE
  2
LAYER
 70
1
  0
LAYER
  2
1
 70
0
 62
7
  6
CONTINUOUS
 0
ENDTAB
  0
TABLE
  2
STYLE
 70
2
  0
STYLE
  2
MONOTXT
 70
0
 40
0
 41
1
 50
0
 71
0
 42
.2
  3
monotxt
  0
STYLE
  2
BIGFONT
 70
0
 40
0
 41
1
 50
0
 71
0
 42
.2
  3
txt
  4
bigfont
  0
ENDTAB
  0
ENDSEC
  0
SECTION
  2
ENTITIES
  0
LINE
  8
0
 62
4
 10
5.34159715E+01
 20
1.85644581E+01
 11
5.76859715E+01
 21
1.85644581E+01
  0
LINE
  8
0
 62
4
 10
5.34159715E+01
 20
2.26844581E+01
 11
5.76859715E+01
 21
2.26844581E+01
  0
LINE
  8
0
 62
4
 10
5.25559715E+01
 20
1.66244581E+01
 11
5.85559715E+01
 21
1.66244581E+01
  0
LINE
  8
0
 62
4
 10
5.25559715E+01
 20
2.46244581E+01
 11
5.85559715E+01
 21
2.46244581E+01
  0
LINE
  8
0
  6
CENTER
 62
2
 10
-5.56262718E+01
 20
2.06244581E+01
 11
6.06508259E+01
 21
2.06244581E+01
  0
LINE
  8
0
 62
4
 10
5.55559715E+01
 20
2.81244581E+01
 11
6.04929706E+01
 21
2.81244581E+01
  0
LINE
  8
0
 62
4
 10
5.55559715E+01
 20
2.55244581E+01
 11
5.78929706E+01
 21
2.55244581E+01
  0
LINE
  8
0
  6
PHANTOM
 10
2.62181247E+01
 20
4.89132061E+00
 11
2.62181247E+01
 21
3.90422125E+01
  0
TEXT
  8
0
 62
7
 10
1.12300340E+01
 20
1.82244581E+01
 40
1.50000000E+00
  1
PBDAS6
 41
1.00000000E+00
  7
MONOTXT
  0
LINE
  8
0
 62
4
 10
3.55559715E+01
 20
1.69744581E+01
 11
4.45559715E+01
 21
1.69744581E+01
  0
LINE
  8
0
 62
4
 10
3.30559715E+01
 20
2.35244581E+01
 11
3.55559715E+01
 21
2.35244581E+01
  0
LINE
  8
0
 62
4
 10
2.85559715E+01
 20
2.48244581E+01
 11
3.30559715E+01
 21
2.48244581E+01
  0
LINE
  8
0
 62
4
 10
4.45559715E+01
 20
2.35244581E+01
 11
4.70559715E+01
 21
2.35244581E+01
  0
LINE
  8
0
 62
4
 10
5.25559715E+01
 20
2.48244581E+01
 11
5.55559715E+01
 21
2.55244581E+01
  0
LINE
  8
0
 62
4
 10
4.70559715E+01
 20
2.48244581E+01
 11
5.25559715E+01
 21
2.48244581E+01
  0
LINE
  8
0
 62
4
 10
3.55559715E+01
 20
3.36244581E+01
 11
3.55559715E+01
 21
2.71244581E+01
  0
LINE
  8
0
 62
4
 10
4.45559715E+01
 20
3.36244581E+01
 11
4.45559715E+01
 21
2.71244581E+01
  0
LINE
  8
0
 62
4
 10
4.45559715E+01
 20
2.70244581E+01
 11
4.70559715E+01
 21
2.70244581E+01
  0
LINE
  8
0
 62
4
 10
4.45559715E+01
 20
2.66244581E+01
 11
4.70559715E+01
 21
2.66244581E+01
  0
LINE
  8
0
 62
4
 10
4.45559715E+01
 20
2.98244581E+01
 11
4.70559715E+01
 21
2.98244581E+01
  0
LINE
  8
0
 62
4
 10
3.30559715E+01
 20
2.66244581E+01
 11
3.55559715E+01
 21
2.66244581E+01
  0
LINE
  8
0
 62
4
 10
3.30559715E+01
 20
2.70244581E+01
 11
3.55559715E+01
 21
2.70244581E+01
  0
LINE
  8
0
 62
4
 10
3.30559715E+01
 20
2.98244581E+01
 11
3.55559715E+01
 21
2.98244581E+01
  0
LINE
  8
0
 62
4
 10
5.25559715E+01
 20
2.88244581E+01
 11
5.55559715E+01
 21
2.81244581E+01
  0
LINE
  8
0
 62
4
 10
4.70559715E+01
 20
2.98244581E+01
 11
4.70559715E+01
 21
2.70244581E+01
  0
ARC
  8
0
 62
4
 10
4.15543058E+01
 20
3.50227924E+01
 40
1.00166704E+00
 50
9.52762946E-02
 51
8.99047236E+01
  0
ARC
  8
0
 62
4
 10
3.85567630E+01
 20
3.50236666E+01
 40
1.00079180E+00
 50
9.00000002E+01
 51
1.79954687E+02
  0
LINE
  8
0
 62
4
 10
3.75559715E+01
 20
3.50244581E+01
 11
3.75559715E+01
 21
3.45244581E+01
  0
LINE
  8
0
 62
4
 10
4.25559715E+01
 20
3.50244581E+01
 11
4.25559715E+01
 21
3.45244581E+01
  0
LINE
  8
0
 62
4
 10
3.85559715E+01
 20
3.60244581E+01
 11
4.15559715E+01
 21
3.60244581E+01
  0
LINE
  8
0
 62
4
 10
3.75559715E+01
 20
3.45244581E+01
 11
4.25559715E+01
 21
3.45244581E+01
  0
LINE
  8
0
 62
4
 10
2.85559715E+01
 20
2.88244581E+01
 11
3.30559715E+01
 21
2.88244581E+01
  0
LINE
  8
0
 62
4
 10
3.55559715E+01
 20
3.36244581E+01
 11
4.45559715E+01
 21
3.36244581E+01
  0
LINE
  8
0
 62
4
 10
3.55559715E+01
 20
2.71244581E+01
 11
4.45559715E+01
 21
2.71244581E+01
  0
LINE
  8
0
 62
4
 10
4.15559715E+01
 20
3.45244581E+01
 11
4.15559715E+01
 21
3.36244581E+01
  0
LINE
  8
0
 62
4
 10
3.85559715E+01
 20
3.45244581E+01
 11
3.85559715E+01
 21
3.36244581E+01
  0
LINE
  8
0
 62
6
 10
4.12859715E+01
 20
3.45244581E+01
 11
4.12859715E+01
 21
3.36244581E+01
  0
LINE
  8
0
 62
6
 10
3.88259715E+01
 20
3.45244581E+01
 11
3.88259715E+01
 21
3.36244581E+01
  0
LINE
  8
0
 62
4
 10
3.30559715E+01
 20
2.98244581E+01
 11
3.30559715E+01
 21
2.70244581E+01
  0
LINE
  8
0
 62
4
 10
2.75559715E+01
 20
2.78244581E+01
 11
2.75559715E+01
 21
2.58244581E+01
  0
LINE
  8
0
 62
4
 10
2.75559715E+01
 20
2.78244581E+01
 11
2.85559715E+01
 21
2.88244581E+01
  0
LINE
  8
0
 62
4
 10
4.70559715E+01
 20
2.88244581E+01
 11
5.25559715E+01
 21
2.88244581E+01
  0
LINE
  8
0
 62
4
 10
5.55559715E+01
 20
2.81244581E+01
 11
5.55559715E+01
 21
2.55244581E+01
  0
LINE
  8
0
 62
4
 10
3.30559715E+01
 20
2.66244581E+01
 11
3.30559715E+01
 21
2.35244581E+01
  0
LINE
  8
0
 62
4
 10
4.70559715E+01
 20
2.66244581E+01
 11
4.70559715E+01
 21
2.35244581E+01
  0
LINE
  8
0
 62
4
 10
5.25559715E+01
 20
2.88244581E+01
 11
5.25559715E+01
 21
2.48244581E+01
  0
LINE
  8
0
 62
4
 10
2.75559715E+01
 20
2.58244581E+01
 11
2.85559715E+01
 21
2.48244581E+01
  0
LINE
  8
0
 62
4
 10
2.85559715E+01
 20
2.88244581E+01
 11
2.85559715E+01
 21
2.48244581E+01
  0
LINE
  8
0
 62
4
 10
3.55559715E+01
 20
2.71244581E+01
 11
3.55559715E+01
 21
1.69744581E+01
  0
LINE
  8
0
 62
4
 10
4.45559715E+01
 20
2.71244581E+01
 11
4.45559715E+01
 21
1.69744581E+01
  0
LINE
  8
0
  6
CENTER
 62
6
 10
4.00559715E+01
 20
3.85344581E+01
 11
4.00559715E+01
 21
1.48014129E+01
  0
ARC
  8
0
 62
4
 10
5.54489309E+01
 20
2.06244581E+01
 40
2.89422250E+00
 50
1.34621474E+02
 51
2.25378526E+02
  0
LINE
  8
0
 62
7
 10
4.45559715E+01
 20
1.71244581E+01
 11
5.25559715E+01
 21
1.71244581E+01
  0
LINE
  8
0
 62
7
 10
4.70559715E+01
 20
2.41244581E+01
 11
5.25559715E+01
 21
2.41244581E+01
  0
LINE
  8
0
 62
7
 10
9.56597148E+00
 20
1.71244581E+01
 11
3.55559715E+01
 21
1.71244581E+01
  0
LINE
  8
0
 62
7
 10
1.20659715E+01
 20
2.41244581E+01
 11
3.30559715E+01
 21
2.41244581E+01
  0
LINE
  8
0
 62
4
 10
5.65971498E-01
 20
1.69744581E+01
 11
9.56597150E+00
 21
1.69744581E+01
  0
LINE
  8
0
 62
4
 10
1.20659715E+01
 20
2.48244581E+01
 11
1.75659715E+01
 21
2.48244581E+01
  0
LINE
  8
0
 62
4
 10
9.56597148E+00
 20
2.35244581E+01
 11
1.20659715E+01
 21
2.35244581E+01
  0
LINE
  8
0
 62
4
 10
-1.93402853E+00
 20
2.35244581E+01
 11
5.65971476E-01
 21
2.35244581E+01
  0
LINE
  8
0
 62
4
 10
-6.43402852E+00
 20
2.48244581E+01
 11
-1.93402852E+00
 21
2.48244581E+01
  0
LINE
  8
0
 62
4
 10
1.20659715E+01
 20
2.88244581E+01
 11
1.75659715E+01
 21
2.88244581E+01
  0
LINE
  8
0
 62
4
 10
-7.43402852E+00
 20
2.78244581E+01
 11
-6.43402852E+00
 21
2.88244581E+01
  0
LINE
  8
0
 62
4
 10
-7.43402852E+00
 20
2.78244581E+01
 11
-7.43402852E+00
 21
2.58244581E+01
  0
LINE
  8
0
 62
4
 10
-1.93402852E+00
 20
2.98244581E+01
 11
-1.93402852E+00
 21
2.70244581E+01
  0
LINE
  8
0
 62
6
 10
3.83597148E+00
 20
3.45244581E+01
 11
3.83597148E+00
 21
3.36244581E+01
  0
LINE
  8
0
 62
6
 10
6.29597148E+00
 20
3.45244581E+01
 11
6.29597148E+00
 21
3.36244581E+01
  0
LINE
  8
0
 62
4
 10
3.56597148E+00
 20
3.45244581E+01
 11
3.56597148E+00
 21
3.36244581E+01
  0
LINE
  8
0
 62
4
 10
6.56597148E+00
 20
3.45244581E+01
 11
6.56597148E+00
 21
3.36244581E+01
  0
LINE
  8
0
 62
4
 10
5.65971476E-01
 20
2.71244581E+01
 11
9.56597148E+00
 21
2.71244581E+01
  0
LINE
  8
0
 62
4
 10
5.65971476E-01
 20
3.36244581E+01
 11
9.56597148E+00
 21
3.36244581E+01
  0
LINE
  8
0
 62
4
 10
-6.43402852E+00
 20
2.88244581E+01
 11
-1.93402852E+00
 21
2.88244581E+01
  0
LINE
  8
0
 62
4
 10
2.56597148E+00
 20
3.45244581E+01
 11
7.56597148E+00
 21
3.45244581E+01
  0
LINE
  8
0
 62
4
 10
3.56597148E+00
 20
3.60244581E+01
 11
6.56597148E+00
 21
3.60244581E+01
  0
LINE
  8
0
 62
4
 10
7.56597148E+00
 20
3.50244581E+01
 11
7.56597148E+00
 21
3.45244581E+01
  0
LINE
  8
0
 62
4
 10
2.56597148E+00
 20
3.50244581E+01
 11
2.56597148E+00
 21
3.45244581E+01
  0
ARC
  8
0
 62
4
 10
3.56676296E+00
 20
3.50236666E+01
 40
1.00079180E+00
 50
9.00000002E+01
 51
1.79954687E+02
  0
ARC
  8
0
 62
4
 10
6.56430582E+00
 20
3.50227924E+01
 40
1.00166704E+00
 50
9.52762946E-02
 51
8.99047236E+01
  0
LINE
  8
0
 62
4
 10
1.20659715E+01
 20
2.98244581E+01
 11
1.20659715E+01
 21
2.70244581E+01
  0
LINE
  8
0
 62
4
 10
2.05659715E+01
 20
2.81244581E+01
 11
2.55029706E+01
 21
2.81244581E+01
  0
LINE
  8
0
 62
4
 10
2.05659715E+01
 20
2.55244581E+01
 11
2.29029706E+01
 21
2.55244581E+01
  0
LINE
  8
0
 62
4
 10
2.05659715E+01
 20
2.81244581E+01
 11
2.05659715E+01
 21
2.55244581E+01
  0
LINE
  8
0
 62
4
 10
1.75659715E+01
 20
2.88244581E+01
 11
2.05659715E+01
 21
2.81244581E+01
  0
LINE
  8
0
 62
4
 10
-1.93402853E+00
 20
2.98244581E+01
 11
5.65971476E-01
 21
2.98244581E+01
  0
LINE
  8
0
 62
4
 10
-1.93402853E+00
 20
2.70244581E+01
 11
5.65971476E-01
 21
2.70244581E+01
  0
LINE
  8
0
 62
4
 10
-1.93402853E+00
 20
2.66244581E+01
 11
5.65971476E-01
 21
2.66244581E+01
  0
LINE
  8
0
 62
4
 10
9.56597148E+00
 20
2.98244581E+01
 11
1.20659715E+01
 21
2.98244581E+01
  0
LINE
  8
0
 62
4
 10
9.56597148E+00
 20
2.66244581E+01
 11
1.20659715E+01
 21
2.66244581E+01
  0
LINE
  8
0
 62
4
 10
9.56597148E+00
 20
2.70244581E+01
 11
1.20659715E+01
 21
2.70244581E+01
  0
LINE
  8
0
 62
6
 10
2.55029706E+01
 20
2.81244581E+01
 11
2.29029706E+01
 21
2.55244581E+01
  0
LINE
  8
0
 62
4
 10
9.56597148E+00
 20
3.36244581E+01
 11
9.56597148E+00
 21
2.71244581E+01
  0
LINE
  8
0
 62
4
 10
5.65971476E-01
 20
3.36244581E+01
 11
5.65971476E-01
 21
2.71244581E+01
  0
LINE
  8
0
 62
4
 10
-1.93402852E+00
 20
2.66244581E+01
 11
-1.93402852E+00
 21
2.35244581E+01
  0
LINE
  8
0
 62
4
 10
1.20659715E+01
 20
2.66244581E+01
 11
1.20659715E+01
 21
2.35244581E+01
  0
LINE
  8
0
 62
4
 10
1.75659715E+01
 20
2.48244581E+01
 11
2.05659715E+01
 21
2.55244581E+01
  0
LINE
  8
0
 62
4
 10
1.75659715E+01
 20
2.88244581E+01
 11
1.75659715E+01
 21
2.48244581E+01
  0
LINE
  8
0
 62
4
 10
-7.43402852E+00
 20
2.58244581E+01
 11
-6.43402852E+00
 21
2.48244581E+01
  0
LINE
  8
0
 62
4
 10
-6.43402852E+00
 20
2.88244581E+01
 11
-6.43402852E+00
 21
2.48244581E+01
  0
LINE
  8
0
 62
4
 10
5.65971476E-01
 20
2.71244581E+01
 11
5.65971476E-01
 21
1.69744581E+01
  0
LINE
  8
0
 62
4
 10
9.56597148E+00
 20
2.71244581E+01
 11
9.56597148E+00
 21
1.69744581E+01
  0
LINE
  8
0
  6
CENTER
 62
6
 10
5.06597148E+00
 20
3.85344581E+01
 11
5.06597148E+00
 21
1.48014129E+01
  0
CIRCLE
  8
0
 62
7
 10
-1.54340285E+01
 20
2.06244581E+01
 40
2.06700000E+00
  0
LINE
  8
0
 62
2
 10
-2.81840285E+01
 20
1.81659581E+01
 11
-2.69340285E+01
 21
1.81659581E+01
  0
LINE
  8
0
 62
2
 10
-2.81840285E+01
 20
2.30829581E+01
 11
-2.69340285E+01
 21
2.30829581E+01
  0
LINE
  8
0
 62
2
 10
-3.34340285E+01
 20
1.81659581E+01
 11
-3.21840285E+01
 21
1.81659581E+01
  0
LINE
  8
0
 62
2
 10
-3.21840285E+01
 20
2.30829581E+01
 11
-3.34340285E+01
 21
2.30829581E+01
  0
LINE
  8
0
 62
2
 10
-4.75140285E+01
 20
1.93769581E+01
 11
-3.34340285E+01
 21
1.93769581E+01
  0
LINE
  8
0
 62
2
 10
-4.75140285E+01
 20
2.18719581E+01
 11
-3.34340285E+01
 21
2.18719581E+01
  0
LINE
  8
0
 62
2
 10
-5.32865285E+01
 20
1.93769581E+01
 11
-4.99140285E+01
 21
1.93769581E+01
  0
LINE
  8
0
 62
2
 10
-5.32865285E+01
 20
2.18719581E+01
 11
-4.99140285E+01
 21
2.18719581E+01
  0
LINE
  8
0
 62
7
 10
-1.09340285E+01
 20
2.66244581E+01
 11
-1.09340285E+01
 21
1.46244581E+01
  0
LINE
  8
0
 62
7
 10
-1.09340285E+01
 20
2.41244581E+01
 11
-1.93402852E+00
 21
2.41244581E+01
  0
LINE
  8
0
 62
7
 10
-2.34340285E+01
 20
2.66244581E+01
 11
-2.34340285E+01
 21
1.46244581E+01
  0
LINE
  8
0
 62
7
 10
-2.54340285E+01
 20
2.61244581E+01
 11
-2.54340285E+01
 21
1.51244581E+01
  0
LINE
  8
0
 62
7
 10
-3.29340285E+01
 20
2.36244581E+01
 11
-3.21840285E+01
 21
2.36244581E+01
  0
LINE
  8
0
 62
7
 10
-5.34340285E+01
 20
2.17244581E+01
 11
-5.34340285E+01
 21
2.06244581E+01
  0
LINE
  8
0
 62
7
 10
-5.30340285E+01
 20
2.21244581E+01
 11
-4.99140285E+01
 21
2.21244581E+01
  0
LINE
  8
0
 62
7
 10
-3.84340285E+01
 20
2.21244581E+01
 11
-3.84340285E+01
 21
2.06244581E+01
  0
LINE
  8
0
 62
7
 10
-5.34340285E+01
 20
2.17244581E+01
 11
-5.30340285E+01
 21
2.21244581E+01
  0
LINE
  8
0
 62
4
 10
5.25559715E+01
 20
2.46244581E+01
 11
5.25559715E+01
 21
1.66244581E+01
  0
LINE
  8
0
 62
7
 10
-3.34340285E+01
 20
2.31244581E+01
 11
-3.29340285E+01
 21
2.36244581E+01
  0
LINE
  8
0
 62
7
 10
-2.69340285E+01
 20
2.36244581E+01
 11
-2.69340285E+01
 21
1.76244581E+01
  0
LINE
  8
0
  6
CENTER
 62
2
 10
-1.54340285E+01
 20
2.42344581E+01
 11
-1.54340285E+01
 21
1.70144581E+01
  0
LINE
  8
0
 62
7
 10
-1.09340285E+01
 20
1.71244581E+01
 11
5.65971476E-01
 21
1.71244581E+01
  0
LINE
  8
0
 62
7
 10
-3.34340285E+01
 20
1.81244581E+01
 11
-3.34340285E+01
 21
2.31244581E+01
  0
LINE
  8
0
 62
7
 10
-3.29340285E+01
 20
1.76244581E+01
 11
-3.21840285E+01
 21
1.76244581E+01
  0
LINE
  8
0
 62
7
 10
-5.34340285E+01
 20
1.95244581E+01
 11
-5.34340285E+01
 21
2.06244581E+01
  0
LINE
  8
0
 62
7
 10
-5.30340285E+01
 20
1.91244581E+01
 11
-4.99140285E+01
 21
1.91244581E+01
  0
LINE
  8
0
 62
7
 10
-3.84340285E+01
 20
1.91244581E+01
 11
-3.84340285E+01
 21
2.06244581E+01
  0
LINE
  8
0
 62
7
 10
-5.34340285E+01
 20
1.95244581E+01
 11
-5.30340285E+01
 21
1.91244581E+01
  0
LINE
  8
0
 62
7
 10
-3.34340285E+01
 20
1.81244581E+01
 11
-3.29340285E+01
 21
1.76244581E+01
  0
LINE
  8
0
 62
7
 10
-3.29340285E+01
 20
2.36244581E+01
 11
-3.29340285E+01
 21
1.76244581E+01
  0
LINE
  8
0
 62
4
 10
-3.21840285E+01
 20
2.49444581E+01
 11
-3.21840285E+01
 21
1.63044581E+01
  0
LINE
  8
0
 62
4
 10
-2.81840285E+01
 20
2.49444581E+01
 11
-2.81840285E+01
 21
1.63044581E+01
  0
LINE
  8
0
 62
4
 10
-3.17840285E+01
 20
1.48744581E+01
 11
-2.85840285E+01
 21
1.48744581E+01
  0
LINE
  8
0
 62
4
 10
-3.17840285E+01
 20
2.63744581E+01
 11
-2.85840285E+01
 21
2.63744581E+01
  0
LINE
  8
0
 62
4
 10
-4.99140285E+01
 20
2.30044581E+01
 11
-4.99140285E+01
 21
1.82444581E+01
  0
LINE
  8
0
 62
4
 10
-4.75140285E+01
 20
2.30044581E+01
 11
-4.75140285E+01
 21
1.82444581E+01
  0
LINE
  8
0
 62
4
 10
-4.96140285E+01
 20
2.22144581E+01
 11
-4.78140285E+01
 21
2.22144581E+01
  0
LINE
  8
0
 62
4
 10
-4.96140285E+01
 20
1.90344581E+01
 11
-4.78140285E+01
 21
1.90344581E+01
  0
LINE
  8
0
 62
4
 10
-4.96140285E+01
 20
2.38044581E+01
 11
-4.78140285E+01
 21
2.38044581E+01
  0
LINE
  8
0
 62
4
 10
-4.96140285E+01
 20
1.74444581E+01
 11
-4.78140285E+01
 21
1.74444581E+01
  0
LINE
  8
0
 62
7
 10
-4.75140285E+01
 20
2.21244581E+01
 11
-3.34340285E+01
 21
2.21244581E+01
  0
LINE
  8
0
 62
7
 10
-4.75140285E+01
 20
1.91244581E+01
 11
-3.34340285E+01
 21
1.91244581E+01
  0
LINE
  8
0
 62
7
 10
-5.30340285E+01
 20
2.21244581E+01
 11
-5.30340285E+01
 21
1.91244581E+01
  0
LINE
  8
0
 62
4
 10
-3.17840285E+01
 20
2.35144581E+01
 11
-2.85840285E+01
 21
2.35144581E+01
  0
LINE
  8
0
 62
4
 10
-3.17840285E+01
 20
1.77344581E+01
 11
-2.85840285E+01
 21
1.77344581E+01
  0
LINE
  8
0
 62
7
 10
-2.81840285E+01
 20
1.76244581E+01
 11
-2.54340285E+01
 21
1.76244581E+01
  0
LINE
  8
0
 62
7
 10
-2.81840285E+01
 20
2.36244581E+01
 11
-2.54340285E+01
 21
2.36244581E+01
  0
LINE
  8
0
 62
7
 10
-2.34340285E+01
 20
1.46244581E+01
 11
-1.09340285E+01
 21
1.46244581E+01
  0
LINE
  8
0
 62
7
 10
-2.34340285E+01
 20
2.66244581E+01
 11
-1.09340285E+01
 21
2.66244581E+01
  0
LINE
  8
0
 62
7
 10
-2.54340285E+01
 20
2.61244581E+01
 11
-2.34340285E+01
 21
2.61244581E+01
  0
LINE
  8
0
 62
7
 10
-2.54340285E+01
 20
1.51244581E+01
 11
-2.34340285E+01
 21
1.51244581E+01
  0
LINE
  8
0
 62
7
 10
-2.17040285E+01
 20
2.42344581E+01
 11
-1.26640285E+01
 21
2.42344581E+01
  0
LINE
  8
0
 62
7
 10
-2.17040285E+01
 20
1.70144581E+01
 11
-1.26640285E+01
 21
1.70144581E+01
  0
LINE
  8
0
 62
7
 10
-2.17040285E+01
 20
2.66244581E+01
 11
-2.17040285E+01
 21
2.42344581E+01
  0
LINE
  8
0
 62
7
 10
-1.26640285E+01
 20
2.66244581E+01
 11
-1.26640285E+01
 21
2.42344581E+01
  0
LINE
  8
0
 62
7
 10
-2.17040285E+01
 20
1.70144581E+01
 11
-2.17040285E+01
 21
1.46244581E+01
  0
LINE
  8
0
 62
7
 10
-1.26640285E+01
 20
1.70144581E+01
 11
-1.26640285E+01
 21
1.46244581E+01
  0
LINE
  8
0
 62
4
 10
5.34159715E+01
 20
2.46244581E+01
 11
5.34159715E+01
 21
2.26844581E+01
  0
LINE
  8
0
 62
4
 10
5.34159715E+01
 20
1.85644581E+01
 11
5.34159715E+01
 21
1.66244581E+01
  0
ARC
  8
0
 62
4
 10
-2.94266044E+01
 20
2.49440947E+01
 40
2.75742415E+00
 50
1.48752783E+02
 51
1.79992449E+02
  0
ARC
  8
0
 62
4
 10
-2.15711917E+01
 20
2.06282350E+01
 40
1.06128375E+01
 50
1.64219317E+02
 51
1.80020390E+02
  0
ARC
  8
0
 62
4
 10
-2.94252995E+01
 20
2.49451865E+01
 40
2.75872912E+00
 50
1.80015128E+02
 51
2.11239639E+02
  0
ARC
  8
0
 62
4
 10
-2.15700638E+01
 20
2.06208373E+01
 40
1.06139654E+01
 50
1.79980454E+02
 51
1.95779839E+02
  0
ARC
  8
0
 62
4
 10
-2.94274429E+01
 20
1.63043292E+01
 40
2.75658562E+00
 50
1.48747910E+02
 51
1.79997322E+02
  0
ARC
  8
0
 62
4
 10
-2.94244526E+01
 20
1.63054234E+01
 40
2.75957610E+00
 50
1.80020042E+02
 51
2.11234725E+02
  0
ARC
  8
0
 62
4
 10
-3.09483120E+01
 20
2.49421760E+01
 40
2.76428443E+00
 50
4.73013359E-02
 51
3.12074661E+01
  0
ARC
  8
0
 62
4
 10
-3.09496137E+01
 20
2.49471043E+01
 40
2.76558641E+00
 50
3.28800055E+02
 51
3.59945178E+02
  0
ARC
  8
0
 62
4
 10
-3.88041197E+01
 20
2.06272309E+01
 40
1.06200915E+01
 50
3.59985040E+02
 51
1.57752528E+01
  0
ARC
  8
0
 62
4
 10
-3.88052468E+01
 20
2.06218412E+01
 40
1.06212186E+01
 50
3.44225590E+02
 51
1.41164945E-02
  0
ARC
  8
0
 62
4
 10
-3.09474756E+01
 20
1.63024099E+01
 40
2.76344781E+00
 50
4.24647208E-02
 51
3.12123027E+01
  0
ARC
  8
0
 62
4
 10
-3.09504585E+01
 20
1.63073406E+01
 40
2.76643146E+00
 50
3.28804933E+02
 51
3.59940300E+02
  0
CIRCLE
  8
0
 62
2
 10
-1.54402199E+01
 20
2.06286002E+01
 40
2.50000000E+00
  0
ARC
  8
0
 62
4
 10
-4.87133934E+01
 20
2.30104699E+01
 40
1.20065014E+00
 50
1.38601020E+02
 51
1.80286890E+02
  0
ARC
  8
0
 62
4
 10
-4.55628163E+01
 20
2.06267765E+01
 40
4.35121281E+00
 50
1.58599646E+02
 51
1.80030529E+02
  0
ARC
  8
0
 62
4
 10
-4.87129125E+01
 20
2.30086161E+01
 40
1.20112325E+00
 50
1.80198345E+02
 51
2.21389885E+02
  0
ARC
  8
0
 62
4
 10
-4.55613030E+01
 20
2.06224252E+01
 40
4.35272602E+00
 50
1.79973240E+02
 51
2.01396584E+02
  0
ARC
  8
0
 62
4
 10
-4.87156494E+01
 20
1.82413394E+01
 40
1.19838315E+00
 50
1.38560875E+02
 51
1.79850895E+02
  0
ARC
  8
0
 62
4
 10
-4.87106462E+01
 20
1.82394765E+01
 40
1.20339268E+00
 50
1.79762815E+02
 51
2.21349275E+02
  0
ARC
  8
0
 62
4
 10
-4.87143474E+01
 20
2.30105885E+01
 40
1.20033453E+00
 50
3.59707374E+02
 51
4.14047162E+01
  0
ARC
  8
0
 62
4
 10
-4.87148295E+01
 20
2.30084964E+01
 40
1.20080775E+00
 50
3.18604457E+02
 51
3.59807313E+02
  0
ARC
  8
0
 62
4
 10
-5.18648924E+01
 20
2.06268423E+01
 40
4.35086450E+00
 50
3.59968603E+02
 51
2.14012217E+01
  0
ARC
  8
0
 62
4
 10
-5.18664058E+01
 20
2.06223595E+01
 40
4.35237783E+00
 50
3.38602549E+02
 51
2.76267359E-02
  0
ARC
  8
0
 62
4
 10
-4.87120918E+01
 20
1.82414594E+01
 40
1.19806703E+00
 50
1.43409086E-01
 51
4.14448208E+01
  0
ARC
  8
0
 62
4
 10
-4.87170954E+01
 20
1.82393582E+01
 40
1.20307768E+00
 50
3.18645028E+02
 51
2.42881135E-01
  0
ARC
  8
0
 62
7
 10
-1.88179806E+01
 20
2.06244581E+01
 40
4.62183649E+00
 50
1.28640912E+02
 51
2.31359089E+02
  0
ARC
  8
0
 62
7
 10
-1.55624440E+01
 20
2.06244581E+01
 40
4.62956933E+00
 50
3.08760464E+02
 51
5.12395359E+01
  0
LINE
  8
0
 62
6
 10
6.04929706E+01
 20
2.81244581E+01
 11
5.78929706E+01
 21
2.55244581E+01
  0
LINE
  8
0
 62
4
 10
5.85559715E+01
 20
2.46244581E+01
 11
5.85559715E+01
 21
1.66244581E+01
  0
LINE
  8
0
 62
4
 10
5.76859715E+01
 20
2.46244581E+01
 11
5.76859715E+01
 21
2.26844581E+01
  0
LINE
  8
0
 62
4
 10
5.76859715E+01
 20
1.85644581E+01
 11
5.76859715E+01
 21
1.66244581E+01
  0
ARC
  8
0
 62
4
 10
5.56706293E+01
 20
2.06244581E+01
 40
2.88187512E+00
 50
3.14372175E+02
 51
4.56278248E+01
  0
LINE
  8
0
 62
4
 10
-7.85240285E+01
 20
2.88244581E+01
 11
-7.95240285E+01
 21
2.78244581E+01
  0
LINE
  8
0
 62
4
 10
-8.26240285E+01
 20
2.88244581E+01
 11
-8.16240285E+01
 21
2.78244581E+01
  0
LINE
  8
0
 62
4
 10
-8.16240285E+01
 20
2.78244581E+01
 11
-8.16240285E+01
 21
2.66244581E+01
  0
LINE
  8
0
 62
4
 10
-7.95240285E+01
 20
2.78244581E+01
 11
-7.95240285E+01
 21
2.66244581E+01
  0
LINE
  8
0
 62
4
 10
-8.16240285E+01
 20
2.78244581E+01
 11
-7.95240285E+01
 21
2.78244581E+01
  0
LINE
  8
0
 62
6
 10
-8.18040285E+01
 20
3.40244581E+01
 11
-8.18040285E+01
 21
3.35244581E+01
  0
LINE
  8
0
 62
6
 10
-8.18240285E+01
 20
3.40244581E+01
 11
-8.18240285E+01
 21
3.35244581E+01
  0
LINE
  8
0
 62
4
 10
-8.54990285E+01
 20
2.98775945E+01
 11
-8.56354060E+01
 21
2.86696800E+01
  0
LINE
  8
0
 62
4
 10
-8.56044081E+01
 20
2.89442329E+01
 11
-8.61240285E+01
 21
2.92444581E+01
  0
LINE
  8
0
 62
4
 10
-8.56354060E+01
 20
2.86696800E+01
 11
-8.53166840E+01
 21
2.57764500E+01
  0
LINE
  8
0
 62
4
 10
-8.51323062E+01
 20
2.86689987E+01
 11
-8.48564443E+01
 21
2.61648355E+01
  0
LINE
  8
0
 62
4
 10
-7.70740702E+01
 20
2.70279955E+01
 11
-7.70645509E+01
 21
2.66244581E+01
  0
LINE
  8
0
 62
4
 10
-7.72240285E+01
 20
2.70244581E+01
 11
-7.72145927E+01
 21
2.66244581E+01
  0
LINE
  8
0
 62
4
 10
-7.70740285E+01
 20
3.35244581E+01
 11
-8.40740285E+01
 21
3.35244581E+01
  0
LINE
  8
0
 62
4
 10
-8.40740285E+01
 20
3.22244581E+01
 11
-8.40740285E+01
 21
2.66244581E+01
  0
LINE
  8
0
 62
4
 10
-7.70740285E+01
 20
3.22244581E+01
 11
-7.70740285E+01
 21
2.70244581E+01
  0
LINE
  8
0
 62
4
 10
-8.55740285E+01
 20
3.18244581E+01
 11
-8.55740285E+01
 21
3.01394581E+01
  0
LINE
  8
0
 62
4
 10
-8.55740285E+01
 20
3.18244581E+01
 11
-8.63740285E+01
 21
3.18244581E+01
  0
LINE
  8
0
 62
4
 10
-8.28590285E+01
 20
3.27244581E+01
 11
-8.27190285E+01
 21
3.19244581E+01
  0
LINE
  8
0
 62
4
 10
-7.82890285E+01
 20
3.27244581E+01
 11
-7.84290285E+01
 21
3.19244581E+01
  0
LINE
  8
0
 62
4
 10
-8.27190285E+01
 20
3.19244581E+01
 11
-7.84290285E+01
 21
3.19244581E+01
  0
LINE
  8
0
 62
4
 10
-7.62740285E+01
 20
3.27244581E+01
 11
-7.62740285E+01
 21
2.70244581E+01
  0
LINE
  8
0
 62
4
 10
-8.48740285E+01
 20
2.63244581E+01
 11
-8.48740285E+01
 21
3.27244581E+01
  0
LINE
  8
0
 62
4
 10
-8.35740285E+01
 20
3.27244581E+01
 11
-7.75740285E+01
 21
3.27244581E+01
  0
LINE
  8
0
 62
4
 10
-8.63740285E+01
 20
3.18244581E+01
 11
-8.63740285E+01
 21
2.96794581E+01
  0
LINE
  8
0
 62
4
 10
-8.48740285E+01
 20
2.94484581E+01
 11
-8.50338378E+01
 21
2.95411474E+01
  0
LINE
  8
0
 62
4
 10
-7.72240285E+01
 20
3.22244581E+01
 11
-7.72240285E+01
 21
2.70244581E+01
  0
LINE
  8
0
 62
4
 10
-7.70740285E+01
 20
3.22244581E+01
 11
-7.72240285E+01
 21
3.22244581E+01
  0
LINE
  8
0
 62
4
 10
-7.73240285E+01
 20
3.05244581E+01
 11
-8.38240285E+01
 21
3.05244581E+01
  0
LINE
  8
0
 62
4
 10
-8.38240285E+01
 20
3.05244581E+01
 11
-8.38240285E+01
 21
2.66244581E+01
  0
LINE
  8
0
 62
4
 10
-7.73240285E+01
 20
3.05244581E+01
 11
-7.73240285E+01
 21
2.70244581E+01
  0
LINE
  8
0
 62
4
 10
-7.73240285E+01
 20
2.98244581E+01
 11
-8.38240285E+01
 21
2.98244581E+01
  0
LINE
  8
0
 62
4
 10
-8.49990285E+01
 20
3.23494581E+01
 11
-8.49990285E+01
 21
2.98494581E+01
  0
LINE
  8
0
 62
4
 10
-8.54990285E+01
 20
3.23494581E+01
 11
-8.54990285E+01
 21
2.98787392E+01
  0
LINE
  8
0
 62
4
 10
-8.49990285E+01
 20
3.23494581E+01
 11
-8.54990285E+01
 21
3.23494581E+01
  0
LINE
  8
0
 62
4
 10
-8.49990285E+01
 20
2.98494581E+01
 11
-8.51328541E+01
 21
2.86641455E+01
  0
LINE
  8
0
 62
4
 10
-7.62740285E+01
 20
2.70244581E+01
 11
-7.70740285E+01
 21
2.70244581E+01
  0
LINE
  8
0
 62
4
 10
-8.46414782E+01
 20
2.63244581E+01
 11
-8.48740285E+01
 21
2.63244581E+01
  0
LINE
  8
0
 62
4
 10
-7.90740285E+01
 20
3.45244581E+01
 11
-7.90740285E+01
 21
3.35244581E+01
  0
LINE
  8
0
 62
6
 10
-7.93440285E+01
 20
3.40244581E+01
 11
-7.93440285E+01
 21
3.35244581E+01
  0
LINE
  8
0
 62
4
 10
-7.90740285E+01
 20
3.40244581E+01
 11
-8.20740285E+01
 21
3.40244581E+01
  0
LINE
  8
0
 62
4
 10
-7.90740285E+01
 20
3.08244581E+01
 11
-7.93740285E+01
 21
3.05244581E+01
  0
LINE
  8
0
 62
4
 10
-8.20740285E+01
 20
3.45244581E+01
 11
-8.20740285E+01
 21
3.35244581E+01
  0
LINE
  8
0
 62
4
 10
-8.20740285E+01
 20
3.08244581E+01
 11
-8.17740285E+01
 21
3.05244581E+01
  0
LINE
  8
0
 62
4
 10
-7.80740285E+01
 20
3.45244581E+01
 11
-8.30740285E+01
 21
3.45244581E+01
  0
LINE
  8
0
 62
4
 10
-8.30740285E+01
 20
3.50244581E+01
 11
-8.30740285E+01
 21
3.45244581E+01
  0
LINE
  8
0
 62
4
 10
-7.90740285E+01
 20
3.60244581E+01
 11
-8.20740285E+01
 21
3.60244581E+01
  0
LINE
  8
0
 62
4
 10
-7.80740285E+01
 20
3.50244581E+01
 11
-7.80740285E+01
 21
3.45244581E+01
  0
ARC
  8
0
 62
4
 10
-7.70740310E+01
 20
3.27244556E+01
 40
8.00002492E-01
 50
1.78488222E-04
 51
9.00000002E+01
  0
ARC
  8
0
 62
4
 10
-8.40756919E+01
 20
3.27261214E+01
 40
7.98338372E-01
 50
8.98806227E+01
 51
1.80119377E+02
  0
ARC
  8
0
 62
4
 10
-7.75740321E+01
 20
3.22244545E+01
 40
5.00003530E-01
 50
4.04473633E-04
 51
9.00000002E+01
  0
ARC
  8
0
 62
4
 10
-8.35756919E+01
 20
3.22261214E+01
 40
4.98339415E-01
 50
8.98087572E+01
 51
1.80191243E+02
  0
ARC
  8
0
 62
4
 10
-8.58738275E+01
 20
2.96775908E+01
 40
5.00204483E-01
 50
1.79786117E+02
 51
2.39986937E+02
  0
ARC
  8
0
 62
4
 10
-8.50751761E+01
 20
3.01418142E+01
 40
4.98858030E-01
 50
1.80270607E+02
 51
2.11850680E+02
  0
ARC
  8
0
 62
4
 10
-8.20754416E+01
 20
3.50258712E+01
 40
9.98587915E-01
 50
8.99189215E+01
 51
1.80081078E+02
  0
ARC
  8
0
 62
4
 10
-7.90742805E+01
 20
3.50242061E+01
 40
1.00025204E+00
 50
1.44352152E-02
 51
9.00000002E+01
  0
LINE
  8
0
 62
4
 10
-7.85240285E+01
 20
2.88244581E+01
 11
-8.26240285E+01
 21
2.88244581E+01
  0
LINE
  8
0
 62
4
 10
-7.95740285E+01
 20
2.91244581E+01
 11
-8.15740285E+01
 21
2.91244581E+01
  0
LINE
  8
0
 62
4
 10
-7.73240285E+01
 20
2.70244581E+01
 11
-7.85240285E+01
 21
2.70244581E+01
  0
LINE
  8
0
 62
4
 10
-7.85240285E+01
 20
2.88244581E+01
 11
-7.85240285E+01
 21
2.66244581E+01
  0
LINE
  8
0
 62
4
 10
-7.95740285E+01
 20
2.91244581E+01
 11
-7.95740285E+01
 21
2.88244581E+01
  0
LINE
  8
0
 62
4
 10
-8.15740285E+01
 20
2.91244581E+01
 11
-8.15740285E+01
 21
2.88244581E+01
  0
LINE
  8
0
 62
4
 10
-8.26240285E+01
 20
2.88244581E+01
 11
-8.26240285E+01
 21
2.66244581E+01
  0
LINE
  8
0
 62
6
 10
-7.93440285E+01
 20
3.19244581E+01
 11
-7.93440285E+01
 21
3.05544581E+01
  0
LINE
  8
0
 62
4
 10
-7.90740285E+01
 20
3.19244581E+01
 11
-7.90740285E+01
 21
3.08244581E+01
  0
LINE
  8
0
 62
6
 10
-8.18040285E+01
 20
3.19244581E+01
 11
-8.18040285E+01
 21
3.05544581E+01
  0
LINE
  8
0
 62
4
 10
-8.20740285E+01
 20
3.19244581E+01
 11
-8.20740285E+01
 21
3.08244581E+01
  0
LINE
  8
0
 62
4
 10
-8.48740285E+01
 20
2.85222359E+01
 11
-8.51320450E+01
 21
2.86713120E+01
  0
CIRCLE
  8
0
 62
2
 10
-8.05740285E+01
 20
2.06244581E+01
 40
1.22950000E+00
  0
LINE
  8
0
  6
CENTER
 62
2
 10
-8.05740285E+01
 20
3.77091031E+01
 11
-8.05740285E+01
 21
1.28337620E+01
  0
LINE
  8
0
  6
CENTER
 62
2
 10
-8.82605308E+01
 20
2.06244581E+01
 11
-7.28481255E+01
 21
2.06244581E+01
  0
LINE
  8
0
 62
4
 10
-8.05740285E+01
 20
1.48544581E+01
 11
-7.55740285E+01
 21
1.77344581E+01
  0
LINE
  8
0
 62
4
 10
-8.55740285E+01
 20
2.35144581E+01
 11
-8.05740285E+01
 21
2.63944581E+01
  0
LINE
  8
0
 62
4
 10
-8.55740285E+01
 20
2.35144581E+01
 11
-8.55740285E+01
 21
1.77344581E+01
  0
LINE
  8
0
 62
4
 10
-7.55740285E+01
 20
2.35144581E+01
 11
-7.55740285E+01
 21
1.77344581E+01
  0
LINE
  8
0
 62
4
 10
-8.55740285E+01
 20
1.77344581E+01
 11
-8.05740285E+01
 21
1.48544581E+01
  0
LINE
  8
0
 62
4
 10
-8.05740285E+01
 20
2.63944581E+01
 11
-7.55740285E+01
 21
2.35144581E+01
  0
LINE
  8
0
 62
4
 10
-8.05740285E+01
 20
1.74444581E+01
 11
-7.78240285E+01
 21
1.90344581E+01
  0
LINE
  8
0
 62
4
 10
-8.33240285E+01
 20
2.22144581E+01
 11
-8.05740285E+01
 21
2.38044581E+01
  0
LINE
  8
0
 62
4
 10
-8.33240285E+01
 20
2.22144581E+01
 11
-8.33240285E+01
 21
1.90344581E+01
  0
LINE
  8
0
 62
4
 10
-7.78240285E+01
 20
2.22144581E+01
 11
-7.78240285E+01
 21
1.90344581E+01
  0
LINE
  8
0
 62
4
 10
-8.33240285E+01
 20
1.90344581E+01
 11
-8.05740285E+01
 21
1.74444581E+01
  0
LINE
  8
0
 62
4
 10
-8.05740285E+01
 20
2.38044581E+01
 11
-7.78240285E+01
 21
2.22144581E+01
  0
LINE
  8
0
 62
7
 10
-8.41840285E+01
 20
2.66244581E+01
 11
-7.69740285E+01
 21
2.66244581E+01
  0
LINE
  8
0
 62
7
 10
-8.41840285E+01
 20
1.46244581E+01
 11
-7.69740285E+01
 21
1.46244581E+01
  0
LINE
  8
0
 62
7
 10
-8.65740285E+01
 20
2.42344581E+01
 11
-8.65740285E+01
 21
1.70144581E+01
  0
LINE
  8
0
 62
7
 10
-7.45740285E+01
 20
2.42344581E+01
 11
-7.45740285E+01
 21
1.70144581E+01
  0
CIRCLE
  8
0
 62
7
 10
-8.05828896E+01
 20
2.06286002E+01
 40
1.50000000E+00
  0
ARC
  8
0
 62
7
 10
-8.05803435E+01
 20
2.06300707E+01
 40
3.00449502E+00
 50
2.76427003E+02
 51
3.23536276E+02
  0
CIRCLE
  8
0
 62
4
 10
-8.05828896E+01
 20
2.06286002E+01
 40
5.00000000E+00
  0
CIRCLE
  8
0
 62
4
 10
-8.05828896E+01
 20
2.06286002E+01
 40
2.75000000E+00
  0
ARC
  8
0
 62
7
 10
-8.05832285E+01
 20
2.06284047E+01
 40
2.99438181E+00
 50
9.63426149E+01
 51
1.43620663E+02
  0
ARC
  8
0
 62
7
 10
-8.05828870E+01
 20
2.06244581E+01
 40
2.99229961E+00
 50
1.56357456E+02
 51
2.03642545E+02
  0
ARC
  8
0
 62
7
 10
-8.05796416E+01
 20
2.06267288E+01
 40
3.00095876E+00
 50
2.16434287E+02
 51
2.63602434E+02
  0
ARC
  8
0
 62
7
 10
-8.05828922E+01
 20
2.06244581E+01
 40
3.00854266E+00
 50
3.36492806E+02
 51
2.35071942E+01
  0
ARC
  8
0
 62
7
 10
-8.05767608E+01
 20
2.06250555E+01
 40
2.99792434E+00
 50
3.64089673E+01
 51
8.36277538E+01
  0
ARC
  8
0
 62
7
 10
-8.05688470E+01
 20
2.06145776E+01
 40
7.00295530E+00
 50
3.11250437E+01
 51
5.91141866E+01
  0
ARC
  8
0
 62
7
 10
-8.05805296E+01
 20
2.06309591E+01
 40
6.99337071E+00
 50
1.21015741E+02
 51
1.48984259E+02
  0
ARC
  8
0
 62
7
 10
-8.05763838E+01
 20
2.06221028E+01
 40
6.99906007E+00
 50
2.11027339E+02
 51
2.38972661E+02
  0
ARC
  8
0
 62
7
 10
-8.05729794E+01
 20
2.06384883E+01
 40
7.00863801E+00
 50
3.00897391E+02
 51
3.28863378E+02
  0
CIRCLE
  8
0
 62
7
 10
-8.05828896E+01
 20
2.06286002E+01
 40
6.00000000E+00
  0
LINE
  8
0
  6
CENTER
 62
2
 10
9.44959715E+01
 20
3.77091031E+01
 11
9.44959715E+01
 21
1.23835922E+01
  0
LINE
  8
0
  6
CENTER
 62
2
 10
8.64826210E+01
 20
2.06244581E+01
 11
1.02325565E+02
 21
2.06244581E+01
  0
ARC
  8
0
 62
7
 10
9.44871104E+01
 20
2.06286002E+01
 40
6.00000000E+00
 50
4.79192761E+01
 51
5.71021111E+01
  0
LINE
  8
0
 62
7
 10
9.77459715E+01
 20
2.66244581E+01
 11
9.79959715E+01
 21
2.66244581E+01
  0
LINE
  8
0
 62
6
 10
9.57259715E+01
 20
3.40244581E+01
 11
9.57259715E+01
 21
3.35244581E+01
  0
LINE
  8
0
 62
6
 10
9.57459715E+01
 20
3.40244581E+01
 11
9.57459715E+01
 21
3.35244581E+01
  0
LINE
  8
0
 62
4
 10
9.94209715E+01
 20
2.98775945E+01
 11
9.95573489E+01
 21
2.86696800E+01
  0
LINE
  8
0
 62
4
 10
9.95263510E+01
 20
2.89442329E+01
 11
1.00045971E+02
 21
2.92444581E+01
  0
LINE
  8
0
 62
4
 10
9.95573489E+01
 20
2.86696800E+01
 11
9.88056337E+01
 21
2.18459117E+01
  0
LINE
  8
0
 62
4
 10
9.85975378E+01
 20
2.58930336E+01
 11
9.87466358E+01
 21
2.58766088E+01
  0
LINE
  8
0
 62
4
 10
9.84959715E+01
 20
2.18800245E+01
 11
9.88056337E+01
 21
2.18459117E+01
  0
LINE
  8
0
 62
4
 10
9.85975378E+01
 20
2.58930336E+01
 11
9.82845404E+01
 21
2.30517693E+01
  0
LINE
  8
0
 62
4
 10
9.90542491E+01
 20
2.86689987E+01
 11
9.84121075E+01
 21
2.28398958E+01
  0
LINE
  8
0
 62
4
 10
9.09960132E+01
 20
2.70279955E+01
 11
9.09090275E+01
 21
2.33405426E+01
  0
LINE
  8
0
 62
4
 10
9.11459715E+01
 20
2.70244581E+01
 11
9.10636197E+01
 21
2.35334430E+01
  0
CIRCLE
  8
0
 62
4
 10
9.44959715E+01
 20
2.68244581E+01
 40
1.30000000E+00
  0
LINE
  8
0
 62
4
 10
9.09959715E+01
 20
3.35244581E+01
 11
9.79959715E+01
 21
3.35244581E+01
  0
LINE
  8
0
 62
4
 10
9.79959715E+01
 20
3.22244581E+01
 11
9.79959715E+01
 21
2.63244581E+01
  0
LINE
  8
0
 62
4
 10
9.09959715E+01
 20
3.22244581E+01
 11
9.09959715E+01
 21
2.70244581E+01
  0
LINE
  8
0
 62
4
 10
9.94959715E+01
 20
3.18244581E+01
 11
9.94959715E+01
 21
3.01394581E+01
  0
LINE
  8
0
 62
4
 10
9.94959715E+01
 20
3.18244581E+01
 11
1.00295971E+02
 21
3.18244581E+01
  0
LINE
  8
0
 62
4
 10
9.67809715E+01
 20
3.27244581E+01
 11
9.66409715E+01
 21
3.19244581E+01
  0
LINE
  8
0
 62
4
 10
9.22109715E+01
 20
3.27244581E+01
 11
9.23509715E+01
 21
3.19244581E+01
  0
LINE
  8
0
 62
4
 10
9.66409715E+01
 20
3.19244581E+01
 11
9.23509715E+01
 21
3.19244581E+01
  0
LINE
  8
0
 62
4
 10
9.01959715E+01
 20
3.27244581E+01
 11
9.01959715E+01
 21
2.70244581E+01
  0
LINE
  8
0
 62
4
 10
9.87959715E+01
 20
2.63244581E+01
 11
9.87959715E+01
 21
3.27244581E+01
  0
LINE
  8
0
 62
4
 10
9.74959715E+01
 20
3.27244581E+01
 11
9.14959715E+01
 21
3.27244581E+01
  0
LINE
  8
0
 62
4
 10
1.00295971E+02
 20
3.18244581E+01
 11
1.00295971E+02
 21
2.96794581E+01
  0
LINE
  8
0
 62
4
 10
9.87959715E+01
 20
2.94484581E+01
 11
9.89557807E+01
 21
2.95411474E+01
  0
LINE
  8
0
 62
4
 10
9.11459715E+01
 20
3.22244581E+01
 11
9.11459715E+01
 21
2.70244581E+01
  0
LINE
  8
0
 62
4
 10
9.09959715E+01
 20
3.22244581E+01
 11
9.11459715E+01
 21
3.22244581E+01
  0
LINE
  8
0
 62
4
 10
9.12459715E+01
 20
3.05244581E+01
 11
9.77459715E+01
 21
3.05244581E+01
  0
LINE
  8
0
 62
4
 10
9.77459715E+01
 20
3.05244581E+01
 11
9.77459715E+01
 21
2.40244581E+01
  0
LINE
  8
0
 62
4
 10
9.12459715E+01
 20
3.05244581E+01
 11
9.12459715E+01
 21
2.70244581E+01
  0
LINE
  8
0
 62
4
 10
9.12459715E+01
 20
2.98244581E+01
 11
9.77459715E+01
 21
2.98244581E+01
  0
LINE
  8
0
 62
4
 10
9.89209715E+01
 20
3.23494581E+01
 11
9.89209715E+01
 21
2.98494581E+01
  0
LINE
  8
0
 62
4
 10
9.94209715E+01
 20
3.23494581E+01
 11
9.94209715E+01
 21
2.98787392E+01
  0
LINE
  8
0
 62
4
 10
9.89209715E+01
 20
3.23494581E+01
 11
9.94209715E+01
 21
3.23494581E+01
  0
LINE
  8
0
 62
4
 10
9.89209715E+01
 20
2.98494581E+01
 11
9.90547971E+01
 21
2.86641455E+01
  0
LINE
  8
0
 62
4
 10
9.01959715E+01
 20
2.70244581E+01
 11
9.09959715E+01
 21
2.70244581E+01
  0
LINE
  8
0
 62
4
 10
9.79959715E+01
 20
2.63244581E+01
 11
9.87959715E+01
 21
2.63244581E+01
  0
LINE
  8
0
 62
4
 10
9.29959715E+01
 20
3.45244581E+01
 11
9.29959715E+01
 21
3.35244581E+01
  0
LINE
  8
0
 62
6
 10
9.32659715E+01
 20
3.40244581E+01
 11
9.32659715E+01
 21
3.35244581E+01
  0
LINE
  8
0
 62
4
 10
9.29959715E+01
 20
3.40244581E+01
 11
9.59959715E+01
 21
3.40244581E+01
  0
LINE
  8
0
 62
4
 10
9.29959715E+01
 20
3.08244581E+01
 11
9.32959715E+01
 21
3.05244581E+01
  0
LINE
  8
0
 62
4
 10
9.59959715E+01
 20
3.45244581E+01
 11
9.59959715E+01
 21
3.35244581E+01
  0
LINE
  8
0
 62
4
 10
9.59959715E+01
 20
3.08244581E+01
 11
9.56959715E+01
 21
3.05244581E+01
  0
LINE
  8
0
 62
4
 10
9.19959715E+01
 20
3.45244581E+01
 11
9.69959715E+01
 21
3.45244581E+01
  0
LINE
  8
0
 62
4
 10
9.69959715E+01
 20
3.50244581E+01
 11
9.69959715E+01
 21
3.45244581E+01
  0
LINE
  8
0
 62
4
 10
9.29959715E+01
 20
3.60244581E+01
 11
9.59959715E+01
 21
3.60244581E+01
  0
LINE
  8
0
 62
4
 10
9.19959715E+01
 20
3.50244581E+01
 11
9.19959715E+01
 21
3.45244581E+01
  0
ARC
  8
0
 62
4
 10
9.09959740E+01
 20
3.27244556E+01
 40
8.00002492E-01
 50
9.00000002E+01
 51
1.79999822E+02
  0
ARC
  8
0
 62
4
 10
9.79976348E+01
 20
3.27261214E+01
 40
7.98338372E-01
 50
3.59880623E+02
 51
9.01193777E+01
  0
ARC
  8
0
 62
4
 10
9.14959750E+01
 20
3.22244545E+01
 40
5.00003530E-01
 50
9.00000002E+01
 51
1.79999595E+02
  0
ARC
  8
0
 62
4
 10
9.74976348E+01
 20
3.22261214E+01
 40
4.98339415E-01
 50
3.59808757E+02
 51
9.01912426E+01
  0
ARC
  8
0
 62
4
 10
9.97957705E+01
 20
2.96775908E+01
 40
5.00204483E-01
 50
3.00013063E+02
 51
2.13883296E-01
  0
ARC
  8
0
 62
4
 10
9.89971190E+01
 20
3.01418142E+01
 40
4.98858030E-01
 50
3.28149320E+02
 51
3.59729393E+02
  0
ARC
  8
0
 62
4
 10
9.59973846E+01
 20
3.50258712E+01
 40
9.98587915E-01
 50
3.59918921E+02
 51
9.00810783E+01
  0
ARC
  8
0
 62
4
 10
9.29962235E+01
 20
3.50242061E+01
 40
1.00025204E+00
 50
9.00000002E+01
 51
1.79985565E+02
  0
LINE
  8
0
 62
4
 10
9.24459715E+01
 20
2.48244581E+01
 11
9.65459715E+01
 21
2.48244581E+01
  0
LINE
  8
0
 62
4
 10
9.24459715E+01
 20
2.88244581E+01
 11
9.65459715E+01
 21
2.88244581E+01
  0
LINE
  8
0
 62
4
 10
9.34959715E+01
 20
2.91244581E+01
 11
9.54959715E+01
 21
2.91244581E+01
  0
LINE
  8
0
 62
4
 10
9.12459715E+01
 20
2.66244581E+01
 11
9.24459715E+01
 21
2.66244581E+01
  0
LINE
  8
0
 62
4
 10
9.12459715E+01
 20
2.70244581E+01
 11
9.24459715E+01
 21
2.70244581E+01
  0
LINE
  8
0
 62
4
 10
9.31959715E+01
 20
2.55244581E+01
 11
9.57959715E+01
 21
2.55244581E+01
  0
LINE
  8
0
 62
4
 10
9.31959715E+01
 20
2.81244581E+01
 11
9.57959715E+01
 21
2.81244581E+01
  0
LINE
  8
0
 62
4
 10
9.31959715E+01
 20
2.55244581E+01
 11
9.24459715E+01
 21
2.48244581E+01
  0
LINE
  8
0
 62
4
 10
9.24459715E+01
 20
2.88244581E+01
 11
9.31959715E+01
 21
2.81244581E+01
  0
LINE
  8
0
 62
4
 10
9.31959715E+01
 20
2.81244581E+01
 11
9.31959715E+01
 21
2.55244581E+01
  0
LINE
  8
0
 62
4
 10
9.24459715E+01
 20
2.88244581E+01
 11
9.24459715E+01
 21
2.48244581E+01
  0
LINE
  8
0
 62
4
 10
9.34959715E+01
 20
2.48244581E+01
 11
9.34959715E+01
 21
2.46244581E+01
  0
LINE
  8
0
 62
4
 10
9.34959715E+01
 20
2.91244581E+01
 11
9.34959715E+01
 21
2.88244581E+01
  0
LINE
  8
0
 62
4
 10
9.57959715E+01
 20
2.55244581E+01
 11
9.65459715E+01
 21
2.48244581E+01
  0
LINE
  8
0
 62
4
 10
9.57959715E+01
 20
2.81244581E+01
 11
9.65459715E+01
 21
2.88244581E+01
  0
LINE
  8
0
 62
4
 10
9.57959715E+01
 20
2.81244581E+01
 11
9.57959715E+01
 21
2.55244581E+01
  0
LINE
  8
0
 62
4
 10
9.54959715E+01
 20
2.48244581E+01
 11
9.54959715E+01
 21
2.46244581E+01
  0
LINE
  8
0
 62
4
 10
9.54959715E+01
 20
2.91244581E+01
 11
9.54959715E+01
 21
2.88244581E+01
  0
LINE
  8
0
 62
4
 10
9.65459715E+01
 20
2.88244581E+01
 11
9.65459715E+01
 21
2.48244581E+01
  0
LINE
  8
0
 62
4
 10
9.13904089E+01
 20
2.38800206E+01
 11
9.12459715E+01
 21
2.40244581E+01
  0
LINE
  8
0
 62
4
 10
9.76017922E+01
 20
2.38802788E+01
 11
9.77459715E+01
 21
2.40244581E+01
  0
LINE
  8
0
 62
4
 10
9.12459715E+01
 20
2.66244581E+01
 11
9.12459715E+01
 21
2.40244581E+01
  0
LINE
  8
0
 62
6
 10
9.32659715E+01
 20
3.19244581E+01
 11
9.32659715E+01
 21
3.05544581E+01
  0
LINE
  8
0
 62
4
 10
9.29959715E+01
 20
3.19244581E+01
 11
9.29959715E+01
 21
3.08244581E+01
  0
LINE
  8
0
 62
6
 10
9.57259715E+01
 20
3.19244581E+01
 11
9.57259715E+01
 21
3.05544581E+01
  0
LINE
  8
0
 62
4
 10
9.59959715E+01
 20
3.19244581E+01
 11
9.59959715E+01
 21
3.08244581E+01
  0
LINE
  8
0
 62
4
 10
9.87959715E+01
 20
2.85222359E+01
 11
9.90539880E+01
 21
2.86713120E+01
  0
ARC
  8
0
 62
7
 10
9.44871104E+01
 20
2.06286002E+01
 40
6.00000000E+00
 50
1.26010072E+02
 51
3.98288033E+01
  0
LINE
  8
0
 62
7
 10
1.00495971E+02
 20
2.42344581E+01
 11
1.00495971E+02
 21
1.70144581E+01
  0
ARC
  8
0
 62
7
 10
9.44970206E+01
 20
2.06384883E+01
 40
7.00863801E+00
 50
3.00897391E+02
 51
3.28863378E+02
  0
LINE
  8
0
 62
7
 10
9.08859715E+01
 20
1.46244581E+01
 11
9.80959715E+01
 21
1.46244581E+01
  0
ARC
  8
0
 62
7
 10
9.44936162E+01
 20
2.06221028E+01
 40
6.99906007E+00
 50
2.11027339E+02
 51
2.38972661E+02
  0
LINE
  8
0
 62
7
 10
8.84959715E+01
 20
2.42344581E+01
 11
8.84959715E+01
 21
1.70144581E+01
  0
ARC
  8
0
 62
7
 10
9.44894704E+01
 20
2.06309591E+01
 40
6.99337071E+00
 50
1.21015741E+02
 51
1.48984259E+02
  0
LINE
  8
0
 62
7
 10
9.08859715E+01
 20
2.66244581E+01
 11
9.09864939E+01
 21
2.66244581E+01
  0
ARC
  8
0
 62
7
 10
9.45011530E+01
 20
2.06145776E+01
 40
7.00295530E+00
 50
3.11250437E+01
 51
4.74346229E+01
  0
CIRCLE
  8
0
 62
4
 10
9.44959715E+01
 20
2.06244581E+01
 40
2.06700000E+00
  0
LINE
  8
0
 62
4
 10
9.84959715E+01
 20
2.26844581E+01
 11
9.84959715E+01
 21
1.85644581E+01
  0
LINE
  8
0
 62
4
 10
9.04959715E+01
 20
2.26844581E+01
 11
9.04959715E+01
 21
1.85644581E+01
  0
LINE
  8
0
 62
4
 10
9.24359715E+01
 20
2.46244581E+01
 11
9.65559715E+01
 21
2.46244581E+01
  0
LINE
  8
0
 62
4
 10
9.24359715E+01
 20
1.66244581E+01
 11
9.65559715E+01
 21
1.66244581E+01
  0
CIRCLE
  8
0
 62
4
 10
9.45014152E+01
 20
2.06286002E+01
 40
4.00000000E+00
  0
CIRCLE
  8
0
 62
6
 10
9.45014152E+01
 20
2.06286002E+01
 40
2.50000000E+00
  0
ARC
  8
0
 62
4
 10
9.45007645E+01
 20
2.06292511E+01
 40
4.50574490E+00
 50
2.07274747E+02
 51
2.42725253E+02
  0
ARC
  8
0
 62
4
 10
9.44966257E+01
 20
2.06238039E+01
 40
4.50017000E+00
 50
1.17252059E+02
 51
1.52747941E+02
  0
ARC
  8
0
 62
4
 10
9.45007644E+01
 20
2.06292510E+01
 40
4.49283388E+00
 50
2.72221128E+01
 51
6.27778873E+01
  0
ARC
  8
0
 62
4
 10
9.44966188E+01
 20
2.06238107E+01
 40
4.49841694E+00
 50
2.97244912E+02
 51
3.32755088E+02
  0
CIRCLE
  8
0
 62
4
 10
4.97491313E+00
 20
6.85395788E+01
 40
2.50000000E+00
  0
LINE
  8
0
 62
4
 10
1.19749131E+01
 20
6.66199558E+01
 11
1.74749131E+01
 21
6.66199558E+01
  0
LINE
  8
0
 62
4
 10
9.47491313E+00
 20
6.53699558E+01
 11
1.19749131E+01
 21
6.53699558E+01
  0
LINE
  8
0
 62
4
 10
4.74913121E-01
 20
6.43199558E+01
 11
9.47491313E+00
 21
6.43199558E+01
  0
LINE
  8
0
 62
4
 10
-2.02508687E+00
 20
6.53699558E+01
 11
4.74913131E-01
 21
6.53699558E+01
  0
LINE
  8
0
 62
4
 10
-6.52508687E+00
 20
6.66199558E+01
 11
-2.02508687E+00
 21
6.66199558E+01
  0
LINE
  8
0
 62
4
 10
-2.02508687E+00
 20
7.18699558E+01
 11
4.74913131E-01
 21
7.18699558E+01
  0
LINE
  8
0
 62
4
 10
9.47491313E+00
 20
7.18699558E+01
 11
1.19749131E+01
 21
7.18699558E+01
  0
LINE
  8
0
 62
4
 10
2.97491313E+00
 20
7.36199558E+01
 11
2.97491313E+00
 21
7.44199558E+01
  0
LINE
  8
0
 62
4
 10
6.97491313E+00
 20
7.44199558E+01
 11
6.97491313E+00
 21
7.36199558E+01
  0
LINE
  8
0
 62
4
 10
4.74913131E-01
 20
7.29199558E+01
 11
9.47491313E+00
 21
7.29199558E+01
  0
LINE
  8
0
 62
4
 10
4.74913121E-01
 20
7.30449558E+01
 11
9.47491312E+00
 21
7.30449558E+01
  0
LINE
  8
0
 62
4
 10
4.74913121E-01
 20
7.37225058E+01
 11
2.97491313E+00
 21
7.37225058E+01
  0
LINE
  8
0
 62
4
 10
2.97491313E+00
 20
7.44199558E+01
 11
6.97491313E+00
 21
7.44199558E+01
  0
LINE
  8
0
 62
4
 10
6.97491313E+00
 20
7.37225058E+01
 11
9.47491312E+00
 21
7.37225058E+01
  0
LINE
  8
0
 62
4
 10
4.74913153E-01
 20
7.36199558E+01
 11
9.47491313E+00
 21
7.36199558E+01
  0
LINE
  8
0
 62
4
 10
-7.52508687E+00
 20
6.96199558E+01
 11
-6.52508687E+00
 21
7.06199558E+01
  0
LINE
  8
0
 62
4
 10
4.00548394E+00
 20
6.75650289E+01
 11
6.03234654E+00
 21
6.95918915E+01
  0
LINE
  8
0
 62
4
 10
5.98234654E+00
 20
6.75318915E+01
 11
3.91234654E+00
 21
6.95918915E+01
  0
LINE
  8
0
 62
4
 10
-6.52508687E+00
 20
7.06199558E+01
 11
-2.02508687E+00
 21
7.06199558E+01
  0
LINE
  8
0
 62
4
 10
1.19749131E+01
 20
7.06199558E+01
 11
1.74749131E+01
 21
7.06199558E+01
  0
LINE
  8
0
 62
4
 10
-7.52508687E+00
 20
6.96199558E+01
 11
-7.52508687E+00
 21
6.76199558E+01
  0
LINE
  8
0
 62
4
 10
2.04749131E+01
 20
6.73199558E+01
 11
2.28119122E+01
 21
6.73199558E+01
  0
LINE
  8
0
 62
4
 10
2.04749131E+01
 20
6.99199558E+01
 11
2.04749131E+01
 21
6.73199558E+01
  0
LINE
  8
0
 62
4
 10
1.74749131E+01
 20
7.06199558E+01
 11
2.04749131E+01
 21
6.99199558E+01
  0
LINE
  8
0
 62
6
 10
2.54119122E+01
 20
6.99199558E+01
 11
2.28119122E+01
 21
6.73199558E+01
  0
LINE
  8
0
 62
4
 10
1.74749131E+01
 20
6.66199558E+01
 11
2.04749131E+01
 21
6.73199558E+01
  0
LINE
  8
0
 62
4
 10
2.04749131E+01
 20
6.99199558E+01
 11
2.54119122E+01
 21
6.99199558E+01
  0
LINE
  8
0
 62
4
 10
1.19749131E+01
 20
6.53699558E+01
 11
1.19749131E+01
 21
7.18699558E+01
  0
LINE
  8
0
 62
4
 10
-6.52508687E+00
 20
7.06199558E+01
 11
-6.52508687E+00
 21
6.66199558E+01
  0
LINE
  8
0
 62
4
 10
1.74749131E+01
 20
7.06199558E+01
 11
1.74749131E+01
 21
6.66199558E+01
  0
LINE
  8
0
 62
4
 10
-2.02508687E+00
 20
6.53699558E+01
 11
-2.02508687E+00
 21
7.18699558E+01
  0
LINE
  8
0
 62
4
 10
4.74913131E-01
 20
6.43199558E+01
 11
4.74913131E-01
 21
7.37225058E+01
  0
LINE
  8
0
 62
4
 10
9.47491313E+00
 20
6.43199558E+01
 11
9.47491313E+00
 21
7.37225058E+01
  0
LINE
  8
0
  6
CENTER
 62
6
 10
4.97491313E+00
 20
7.67136250E+01
 11
4.97491313E+00
 21
6.23010715E+01
  0
LINE
  8
0
 62
4
 10
-7.52508687E+00
 20
6.76199558E+01
 11
-6.52508687E+00
 21
6.66199558E+01
  0
LINE
  8
0
  6
CENTER
 62
6
 10
-1.06429279E+01
 20
6.85344581E+01
 11
2.68488900E+01
 21
6.85344581E+01
  0
ARC
  8
0
 62
4
 10
-9.74170191E+01
 20
-4.34626542E+01
 40
6.99410138E+00
 50
4.17254003E+01
 51
1.38274600E+02
  0
LINE
  8
0
 62
4
 10
-1.13417019E+02
 20
-5.08676511E+01
 11
-1.13417019E+02
 21
-5.24576511E+01
  0
LINE
  8
0
  6
CENTER
 62
6
 10
-8.63170191E+01
 20
-5.44718522E+01
 11
-8.63170191E+01
 21
-4.86156275E+01
  0
LINE
  8
0
  6
CENTER
 62
6
 10
-1.08517019E+02
 20
-5.44718522E+01
 11
-1.08517019E+02
 21
-4.89141967E+01
  0
LINE
  8
0
 62
4
 10
-8.14170191E+01
 20
-5.08676511E+01
 11
-8.14170191E+01
 21
-5.24576511E+01
  0
LINE
  8
0
 62
4
 10
-1.13417019E+02
 20
-5.24576511E+01
 11
-8.14170191E+01
 21
-5.24576511E+01
  0
LINE
  8
0
 62
4
 10
-1.13417019E+02
 20
-5.08676511E+01
 11
-8.14170191E+01
 21
-5.08676511E+01
  0
LINE
  8
0
  6
CENTER
 62
6
 10
-1.03030964E+02
 20
-4.34676511E+01
 11
-9.18346201E+01
 21
-4.34676511E+01
  0
LINE
  8
0
 62
4
 10
-1.13417019E+02
 20
-5.08676511E+01
 11
-1.02637019E+02
 21
-3.88076511E+01
  0
LINE
  8
0
  6
CENTER
 62
6
 10
-9.74170191E+01
 20
-3.77178530E+01
 11
-9.74170191E+01
 21
-4.95113350E+01
  0
LINE
  8
0
 62
4
 10
-8.14170191E+01
 20
-5.08676511E+01
 11
-9.21970191E+01
 21
-3.88076511E+01
  0
CIRCLE
  8
0
 62
4
 10
-9.74170191E+01
 20
-4.34676511E+01
 40
3.00000000E+00
  0
LINE
  8
0
  6
CENTER
 62
6
 10
-6.64170191E+01
 20
-4.86156276E+01
 11
-6.64170191E+01
 21
-5.44718522E+01
  0
LINE
  8
0
 62
4
 10
-6.85170191E+01
 20
-5.08576511E+01
 11
-6.85170191E+01
 21
-5.24576511E+01
  0
LINE
  8
0
 62
4
 10
-6.43170191E+01
 20
-5.08576511E+01
 11
-6.43170191E+01
 21
-5.24576511E+01
  0
LINE
  8
0
 62
4
 10
-6.10170191E+01
 20
-3.64576511E+01
 11
-5.94170191E+01
 21
-3.64576511E+01
  0
LINE
  8
0
 62
4
 10
-6.10170191E+01
 20
-3.64576511E+01
 11
-6.10170191E+01
 21
-4.98576511E+01
  0
ARC
  8
0
 62
4
 10
-6.20201904E+01
 20
-4.98544798E+01
 40
1.00317633E+00
 50
2.70181129E+02
 51
3.59818872E+02
  0
LINE
  8
0
 62
4
 10
-7.14170191E+01
 20
-5.08576511E+01
 11
-6.20170191E+01
 21
-5.08576511E+01
  0
LINE
  8
0
 62
4
 10
-7.14170191E+01
 20
-5.08576511E+01
 11
-7.14170191E+01
 21
-5.24576511E+01
  0
LINE
  8
0
 62
4
 10
-7.14170191E+01
 20
-5.24576511E+01
 11
-6.20170191E+01
 21
-5.24576511E+01
  0
ARC
  8
0
 62
4
 10
-6.20201914E+01
 20
-4.98544789E+01
 40
2.60317420E+00
 50
2.70069822E+02
 51
3.59930178E+02
  0
LINE
  8
0
 62
4
 10
-5.94170191E+01
 20
-3.64576511E+01
 11
-5.94170191E+01
 21
-4.98576511E+01
  0
LINE
  8
0
  6
CENTER
 62
6
 10
-6.34430659E+01
 20
-4.34676511E+01
 11
-5.74970991E+01
 21
-4.34676511E+01
  0
LINE
  8
0
  6
CENTER
 62
6
 10
-9.74170191E+01
 20
-7.06765105E+00
 11
-9.74170191E+01
 21
-2.16976511E+01
  0
ARC
  8
0
 62
4
 10
-1.08524066E+02
 20
-1.54576511E+01
 40
2.10001182E+00
 50
2.70192271E+02
 51
8.98077287E+01
  0
ARC
  8
0
 62
4
 10
-8.63240693E+01
 20
-1.54576511E+01
 40
2.10001183E+00
 50
8.98076456E+01
 51
2.70192355E+02
  0
LINE
  8
0
 62
4
 10
-1.13417019E+02
 20
-1.75576511E+01
 11
-1.13417019E+02
 21
-2.04576511E+01
  0
LINE
  8
0
 62
4
 10
-8.14170191E+01
 20
-1.75576511E+01
 11
-8.14170191E+01
 21
-2.04576511E+01
  0
LINE
  8
0
 62
4
 10
-8.63170191E+01
 20
-1.75576511E+01
 11
-8.14170191E+01
 21
-1.75576511E+01
  0
LINE
  8
0
 62
4
 10
-8.63170191E+01
 20
-1.33576511E+01
 11
-8.14170191E+01
 21
-1.33576511E+01
  0
LINE
  8
0
 62
4
 10
-1.13417019E+02
 20
-1.75576511E+01
 11
-1.08517019E+02
 21
-1.75576511E+01
  0
LINE
  8
0
 62
4
 10
-1.13417019E+02
 20
-1.33576511E+01
 11
-1.08517019E+02
 21
-1.33576511E+01
  0
LINE
  8
0
  6
CENTER
 62
6
 10
-1.11390900E+02
 20
-1.54576511E+01
 11
-8.36239680E+01
 21
-1.54576511E+01
  0
LINE
  8
0
 62
4
 10
-1.13417019E+02
 20
-2.04576511E+01
 11
-8.14170191E+01
 21
-2.04576511E+01
  0
LINE
  8
0
 62
4
 10
-1.13417019E+02
 20
-8.45765105E+00
 11
-8.14170191E+01
 21
-8.45765105E+00
  0
LINE
  8
0
 62
4
 10
-8.14170191E+01
 20
-8.45765105E+00
 11
-8.14170191E+01
 21
-1.33576511E+01
  0
LINE
  8
0
 62
4
 10
-1.13417019E+02
 20
-8.45765105E+00
 11
-1.13417019E+02
 21
-1.33576511E+01
  0
LINE
  8
0
 62
4
 10
-1.13417019E+02
 20
-1.00576511E+01
 11
-8.14170191E+01
 21
-1.00576511E+01
  0
LINE
  8
0
  6
CENTER
 62
6
 10
-1.08517019E+02
 20
-1.89243710E+01
 11
-1.08517019E+02
 21
-1.24576511E+01
  0
LINE
  8
0
  6
CENTER
 62
6
 10
-8.63170191E+01
 20
-1.86258018E+01
 11
-8.63170191E+01
 21
-1.23558493E+01
  0
ARC
  8
0
 62
4
 10
-1.44030095E+01
 20
-4.34676511E+01
 40
2.10000000E+00
 50
2.70000000E+02
 51
9.00000002E+01
  0
ARC
  8
0
 62
4
 10
7.79699048E+00
 20
-4.34676511E+01
 40
2.10000000E+00
 50
9.00000002E+01
 51
2.70000000E+02
  0
LINE
  8
0
 62
4
 10
-1.93030095E+01
 20
-4.55676511E+01
 11
-1.93030095E+01
 21
-5.04676511E+01
  0
LINE
  8
0
 62
4
 10
1.26969905E+01
 20
-4.55676511E+01
 11
1.26969905E+01
 21
-5.04676511E+01
  0
LINE
  8
0
 62
4
 10
-1.93030095E+01
 20
-3.64676511E+01
 11
1.26969905E+01
 21
-3.64676511E+01
  0
LINE
  8
0
 62
4
 10
-1.93030095E+01
 20
-5.04676511E+01
 11
1.26969905E+01
 21
-5.04676511E+01
  0
LINE
  8
0
 62
4
 10
7.79699048E+00
 20
-4.13676511E+01
 11
1.26969905E+01
 21
-4.13676511E+01
  0
LINE
  8
0
 62
4
 10
7.79699048E+00
 20
-4.55676511E+01
 11
1.26969905E+01
 21
-4.55676511E+01
  0
LINE
  8
0
 62
4
 10
-1.93030095E+01
 20
-4.13676511E+01
 11
-1.44030095E+01
 21
-4.13676511E+01
  0
LINE
  8
0
 62
4
 10
-1.93030095E+01
 20
-4.55676511E+01
 11
-1.44030095E+01
 21
-4.55676511E+01
  0
LINE
  8
0
  6
CENTER
 62
6
 10
-1.64211693E+01
 20
-4.34676511E+01
 11
9.86802274E+00
 21
-4.34676511E+01
  0
LINE
  8
0
 62
4
 10
1.26969905E+01
 20
-3.64676511E+01
 11
1.26969905E+01
 21
-4.13676511E+01
  0
LINE
  8
0
  6
CENTER
 62
6
 10
-3.30300952E+00
 20
-3.82823283E+01
 11
-3.30300952E+00
 21
-4.91096698E+01
  0
CIRCLE
  8
0
 62
4
 10
-3.30300952E+00
 20
-4.34676511E+01
 40
3.00000000E+00
  0
LINE
  8
0
 62
4
 10
-1.93030095E+01
 20
-3.64676511E+01
 11
-1.93030095E+01
 21
-4.13676511E+01
  0
LINE
  8
0
  6
CENTER
 62
6
 10
-1.44030095E+01
 20
-4.07245018E+01
 11
-1.44030095E+01
 21
-4.64843365E+01
  0
LINE
  8
0
  6
CENTER
 62
6
 10
7.79699048E+00
 20
-4.07245018E+01
 11
7.79699048E+00
 21
-4.64843365E+01
  0
LINE
  8
0
  6
CENTER
 62
6
 10
4.04779556E+01
 20
-4.34676511E+01
 11
4.64955294E+01
 21
-4.34676511E+01
  0
LINE
  8
0
 62
4
 10
4.26969905E+01
 20
-3.64676511E+01
 11
4.42969905E+01
 21
-3.64676511E+01
  0
LINE
  8
0
 62
4
 10
4.42969905E+01
 20
-3.64676511E+01
 11
4.42969905E+01
 21
-5.04676511E+01
  0
LINE
  8
0
 62
4
 10
4.26969905E+01
 20
-3.64676511E+01
 11
4.26969905E+01
 21
-5.04676511E+01
  0
LINE
  8
0
 62
4
 10
4.26969905E+01
 20
-4.55676511E+01
 11
4.42969905E+01
 21
-4.55676511E+01
  0
LINE
  8
0
 62
4
 10
4.26969905E+01
 20
-5.04676511E+01
 11
4.42969905E+01
 21
-5.04676511E+01
  0
LINE
  8
0
 62
4
 10
4.26969905E+01
 20
-4.13676511E+01
 11
4.42969905E+01
 21
-4.13676511E+01
  0
LINE
  8
0
  6
CENTER
 62
6
 10
7.79699048E+00
 20
-2.12910961E+01
 11
7.79699048E+00
 21
-1.63358759E+01
  0
LINE
  8
0
  6
CENTER
 62
6
 10
-1.44030095E+01
 20
-2.11833740E+01
 11
-1.44030095E+01
 21
-1.62281537E+01
  0
LINE
  8
0
  6
CENTER
 62
6
 10
-3.30300952E+00
 20
-2.11833740E+01
 11
-3.30300952E+00
 21
-1.62281537E+01
  0
LINE
  8
0
 62
4
 10
-1.93030095E+01
 20
-1.78676511E+01
 11
-1.93030095E+01
 21
-1.94676511E+01
  0
LINE
  8
0
 62
4
 10
-1.93030095E+01
 20
-1.94676511E+01
 11
1.26969905E+01
 21
-1.94676511E+01
  0
LINE
  8
0
 62
4
 10
-1.93030095E+01
 20
-1.78676511E+01
 11
1.26969905E+01
 21
-1.78676511E+01
  0
LINE
  8
0
 62
4
 10
1.26969905E+01
 20
-1.78676511E+01
 11
1.26969905E+01
 21
-1.94676511E+01
  0
TEXT
  8
0
 62
7
 10
1.50006081E-01
 20
-8.84000031E+01
 40
3.20000005E+00
  1
25
 41
1.00000000E+00
  7
MONOTXT
  0
TEXT
  8
0
 62
7
 10
-9.44999392E+00
 20
-8.84000031E+01
 40
3.20000005E+00
  1
20
 41
1.00000000E+00
  7
MONOTXT
  0
TEXT
  8
0
 62
7
 10
-1.90499939E+01
 20
-8.84000031E+01
 40
3.20000005E+00
  1
15
 41
1.00000000E+00
  7
MONOTXT
  0
TEXT
  8
0
 62
7
 10
-2.86499939E+01
 20
-8.84000031E+01
 40
3.20000005E+00
  1
10
 41
1.00000000E+00
  7
MONOTXT
  0
TEXT
  8
0
 62
7
 10
-3.66499939E+01
 20
-8.84000031E+01
 40
3.20000005E+00
  1
5
 41
1.00000000E+00
  7
MONOTXT
  0
TEXT
  8
0
 62
7
 10
-4.62499939E+01
 20
-8.84000031E+01
 40
3.20000005E+00
  1
0
 41
1.00000000E+00
  7
MONOTXT
  0
TEXT
  8
0
 62
7
 10
-5.74499939E+01
 20
-8.84000031E+01
 40
3.20000005E+00
  1
-5
 41
1.00000000E+00
  7
MONOTXT
  0
TEXT
  8
0
 62
7
 10
-6.86499940E+01
 20
-8.84000031E+01
 40
3.20000005E+00
  1
-10
 41
1.00000000E+00
  7
MONOTXT
  0
TEXT
  8
0
 62
7
 10
-7.82499940E+01
 20
-8.84000031E+01
 40
3.20000005E+00
  1
-15
 41
1.00000000E+00
  7
MONOTXT
  0
TEXT
  8
0
 62
7
 10
-8.78499940E+01
 20
-8.84000031E+01
 40
3.20000005E+00
  1
-20
 41
1.00000000E+00
  7
MONOTXT
  0
TEXT
  8
0
 62
7
 10
-9.74499940E+01
 20
-8.84000031E+01
 40
3.20000005E+00
  1
-25
 41
1.00000000E+00
  7
MONOTXT
  0
TEXT
  8
0
 62
7
 10
-1.07049994E+02
 20
-8.84000031E+01
 40
3.20000005E+00
  1
-30
 41
1.00000000E+00
  7
MONOTXT
  0
TEXT
  8
0
 62
7
 10
-1.31249994E+02
 20
-8.84000031E+01
 40
3.20000005E+00
  1
STRETCH
 41
1.00000000E+00
  7
MONOTXT
  0
TEXT
  8
0
 62
7
 10
-1.29649994E+02
 20
-8.24000031E+01
 40
3.20000005E+00
  1
STROKE
 41
1.00000000E+00
  7
MONOTXT
  0
TEXT
  8
0
 62
7
 10
-3.35968753E+00
 20
-7.68384232E+01
 40
3.20000005E+00
  1
(mm)
 41
1.00000000E+00
  7
MONOTXT
  0
TEXT
  8
0
 10
7.72511078E+00
 20
4.39471443E+01
 40
3.20000005E+00
  1
STRETCH LINE
 41
1.05263158E+00
  7
MONOTXT
  0
TEXT
  8
0
 62
7
 10
-8.12810173E+01
 20
-7.58649018E+01
 40
3.20000005E+00
  1
STRETCH LIST
 41
1.05263158E+00
  7
MONOTXT
  0
TEXT
  8
0
 62
7
 10
1.50006081E-01
 20
-8.24000031E+01
 40
3.20000005E+00
  1
60
 41
1.00000000E+00
  7
MONOTXT
  0
LINE
  8
0
 62
7
 10
7.80000610E+00
 20
-8.98000031E+01
 11
7.80000610E+00
 21
-7.78000031E+01
  0
TEXT
  8
0
 62
7
 10
-9.44999392E+00
 20
-8.24000031E+01
 40
3.20000005E+00
  1
55
 41
1.00000000E+00
  7
MONOTXT
  0
LINE
  8
0
 62
7
 10
-1.79999390E+00
 20
-8.98000031E+01
 11
-1.79999390E+00
 21
-7.78000031E+01
  0
TEXT
  8
0
 62
7
 10
-1.90499939E+01
 20
-8.24000031E+01
 40
3.20000005E+00
  1
50
 41
1.00000000E+00
  7
MONOTXT
  0
LINE
  8
0
 62
7
 10
-1.13999939E+01
 20
-8.98000031E+01
 11
-1.13999939E+01
 21
-7.78000031E+01
  0
TEXT
  8
0
 62
7
 10
-2.86499939E+01
 20
-8.24000031E+01
 40
3.20000005E+00
  1
45
 41
1.00000000E+00
  7
MONOTXT
  0
LINE
  8
0
 62
7
 10
-2.09999939E+01
 20
-8.98000031E+01
 11
-2.09999939E+01
 21
-7.78000031E+01
  0
TEXT
  8
0
 62
7
 10
-3.82499939E+01
 20
-8.24000031E+01
 40
3.20000005E+00
  1
40
 41
1.00000000E+00
  7
MONOTXT
  0
LINE
  8
0
 62
7
 10
-3.05999939E+01
 20
-8.98000031E+01
 11
-3.05999939E+01
 21
-7.78000031E+01
  0
TEXT
  8
0
 62
7
 10
-4.78499939E+01
 20
-8.24000031E+01
 40
3.20000005E+00
  1
35
 41
1.00000000E+00
  7
MONOTXT
  0
LINE
  8
0
 62
7
 10
-4.01999939E+01
 20
-8.98000031E+01
 11
-4.01999939E+01
 21
-7.78000031E+01
  0
TEXT
  8
0
 62
7
 10
-5.74499939E+01
 20
-8.24000031E+01
 40
3.20000005E+00
  1
30
 41
1.00000000E+00
  7
MONOTXT
  0
LINE
  8
0
 62
7
 10
-4.97999939E+01
 20
-8.98000031E+01
 11
-4.97999939E+01
 21
-7.78000031E+01
  0
TEXT
  8
0
 62
7
 10
-6.70499939E+01
 20
-8.24000031E+01
 40
3.20000005E+00
  1
25
 41
1.00000000E+00
  7
MONOTXT
  0
LINE
  8
0
 62
7
 10
-5.93999939E+01
 20
-8.98000031E+01
 11
-5.93999939E+01
 21
-7.78000031E+01
  0
TEXT
  8
0
 62
7
 10
-7.66499939E+01
 20
-8.24000031E+01
 40
3.20000005E+00
  1
20
 41
1.00000000E+00
  7
MONOTXT
  0
LINE
  8
0
 62
7
 10
-6.89999939E+01
 20
-8.98000031E+01
 11
-6.89999939E+01
 21
-7.78000031E+01
  0
TEXT
  8
0
 62
7
 10
-8.62499939E+01
 20
-8.24000031E+01
 40
3.20000005E+00
  1
15
 41
1.00000000E+00
  7
MONOTXT
  0
LINE
  8
0
 62
7
 10
-7.85999939E+01
 20
-8.98000031E+01
 11
-7.85999939E+01
 21
-7.78000031E+01
  0
TEXT
  8
0
 62
7
 10
-9.58499939E+01
 20
-8.24000031E+01
 40
3.20000005E+00
  1
10
 41
1.00000000E+00
  7
MONOTXT
  0
LINE
  8
0
 62
7
 10
-8.81999939E+01
 20
-8.98000031E+01
 11
-8.81999939E+01
 21
-7.78000031E+01
  0
TEXT
  8
0
 62
7
 10
-1.03849994E+02
 20
-8.24000031E+01
 40
3.20000005E+00
  1
5
 41
1.00000000E+00
  7
MONOTXT
  0
LINE
  8
0
 62
7
 10
-1.33399994E+02
 20
-7.78000031E+01
 11
7.80000610E+00
 21
-7.78000031E+01
  0
LINE
  8
0
 62
7
 10
-9.77999939E+01
 20
-8.98000031E+01
 11
-9.77999939E+01
 21
-7.78000031E+01
  0
LINE
  8
0
 62
7
 10
-1.07399994E+02
 20
-8.98000031E+01
 11
-1.07399994E+02
 21
-7.78000031E+01
  0
LINE
  8
0
 62
7
 10
-1.33399994E+02
 20
-8.38000031E+01
 11
7.80000610E+00
 21
-8.38000031E+01
  0
LINE
  8
0
 62
7
 10
-1.33399994E+02
 20
-8.98000031E+01
 11
-1.33399994E+02
 21
-7.78000031E+01
  0
LINE
  8
0
 62
7
 10
-1.33399994E+02
 20
-8.98000031E+01
 11
7.80000610E+00
 21
-8.98000031E+01
  0
LINE
  8
0
 62
7
 10
-1.38399994E+02
 20
9.45000000E+01
 11
1.38350006E+02
 21
9.45000000E+01
  0
LINE
  8
0
 62
7
 10
1.38350006E+02
 20
9.45000000E+01
 11
1.38350006E+02
 21
-9.48000031E+01
  0
LINE
  8
0
 62
7
 10
-1.38399994E+02
 20
-9.48000031E+01
 11
1.38350006E+02
 21
-9.48000031E+01
  0
LINE
  8
0
 62
7
 10
-1.38399994E+02
 20
9.45000000E+01
 11
-1.38399994E+02
 21
-9.48000031E+01
  0
LINE
  8
0
 62
7
 10
7.33500061E+01
 20
-8.48000031E+01
 11
1.38350006E+02
 21
-8.48000031E+01
  0
LINE
  8
0
 62
7
 10
-1.38399994E+02
 20
8.45000000E+01
 11
-7.33999939E+01
 21
8.45000000E+01
  0
LINE
  8
0
 62
7
 10
7.33500061E+01
 20
8.45000000E+01
 11
1.38350006E+02
 21
8.45000000E+01
  0
LINE
  8
0
 62
7
 10
7.33500061E+01
 20
-8.48000031E+01
 11
7.33500061E+01
 21
-9.48000031E+01
  0
LINE
  8
0
 62
7
 10
7.33500061E+01
 20
9.45000000E+01
 11
7.33500061E+01
 21
8.45000000E+01
  0
LINE
  8
0
 62
7
 10
-7.33999939E+01
 20
9.45000000E+01
 11
-7.33999939E+01
 21
8.45000000E+01
  0
TEXT
  8
0
 62
7
 10
7.72426624E+01
 20
-9.20500031E+01
 40
4.50000000E+00
  1
KOGANEI CORP.
 41
1.04838710E+00
  7
MONOTXT
  0
TEXT
  8
0
 62
7
 10
9.35071483E+01
 20
8.79000000E+01
 40
3.20000005E+00
  1
Ver. 1.1
 41
1.08108108E+00
  7
MONOTXT
  0
TEXT
  8
0
 62
7
 10
-1.31042852E+02
 20
8.79000000E+01
 40
3.20000005E+00
  1
NEW PEN CYLINDER
 41
1.08108108E+00
  7
MONOTXT
  0
TEXT
  8
0
 62
7
 10
-1.29085994E+02
 20
7.29000000E+01
 40
3.20000005E+00
  1
MODEL:PBDAS6*ST(35)-ZC230
 41
1.00000000E+00
  7
MONOTXT
  0
ENDSEC
  0
EOF
