  0
SECTION
  2
HEADER
  9
$ACADVER
  1
AC1012
  9
$DWGCODEPAGE
  3
dos932
  9
$INSBASE
 10
0.0
 20
0.0
 30
0.0
  9
$EXTMIN
 10
-281.25
 20
-195.0
 30
0.0
  9
$EXTMAX
 10
285.6319057062413
 20
195.5
 30
0.0
  9
$LIMMIN
 10
-281.25
 20
-195.0
  9
$LIMMAX
 10
285.6319057062413
 20
195.5
  9
$ORTHOMODE
 70
               0
  9
$REGENMODE
 70
               1
  9
$FILLMODE
 70
               1
  9
$QTEXTMODE
 70
               0
  9
$MIRRTEXT
 70
               1
  9
$DRAGMODE
 70
               2
  9
$LTSCALE
 40
1.0
  9
$OSMODE
 70
               0
  9
$ATTMODE
 70
               1
  9
$TEXTSIZE
 40
3.2000000476837158
  9
$TRACEWID
 40
0.05
  9
$TEXTSTYLE
  7
MX_NOTE_STANDARD
  9
$CLAYER
  8
0
  9
$CELTYPE
  6
CONTINUOUS
  9
$CECOLOR
 62
             256
  9
$CELTSCALE
 40
1.0
  9
$DELOBJ
 70
               1
  9
$DISPSILH
 70
               0
  9
$DIMSCALE
 40
1.0
  9
$DIMASZ
 40
2.5
  9
$DIMEXO
 40
1.5
  9
$DIMDLI
 40
3.75
  9
$DIMRND
 40
0.0
  9
$DIMDLE
 40
0.0
  9
$DIMEXE
 40
1.5
  9
$DIMTP
 40
0.0
  9
$DIMTM
 40
0.0
  9
$DIMTXT
 40
3.2000000476837158
  9
$DIMCEN
 40
2.5
  9
$DIMTSZ
 40
0.0
  9
$DIMTOL
 70
               0
  9
$DIMLIM
 70
               0
  9
$DIMTIH
 70
               0
  9
$DIMTOH
 70
               0
  9
$DIMSE1
 70
               0
  9
$DIMSE2
 70
               0
  9
$DIMTAD
 70
               1
  9
$DIMZIN
 70
               8
  9
$DIMBLK
  1

  9
$DIMASO
 70
               1
  9
$DIMSHO
 70
               1
  9
$DIMPOST
  1

  9
$DIMAPOST
  1

  9
$DIMALT
 70
               0
  9
$DIMALTD
 70
               4
  9
$DIMALTF
 40
0.03937007874016
  9
$DIMLFAC
 40
1.0
  9
$DIMTOFL
 70
               1
  9
$DIMTVP
 40
0.0
  9
$DIMTIX
 70
               0
  9
$DIMSOXD
 70
               0
  9
$DIMSAH
 70
               0
  9
$DIMBLK1
  1

  9
$DIMBLK2
  1

  9
$DIMSTYLE
  2
MXDIMSTYLE
  9
$DIMCLRD
 70
               0
  9
$DIMCLRE
 70
               0
  9
$DIMCLRT
 70
               0
  9
$DIMTFAC
 40
1.0
  9
$DIMGAP
 40
1.0
  9
$DIMJUST
 70
               0
  9
$DIMSD1
 70
               0
  9
$DIMSD2
 70
               0
  9
$DIMTOLJ
 70
               1
  9
$DIMTZIN
 70
               0
  9
$DIMALTZ
 70
               0
  9
$DIMALTTZ
 70
               0
  9
$DIMFIT
 70
               3
  9
$DIMUPT
 70
               1
  9
$DIMUNIT
 70
               2
  9
$DIMDEC
 70
               4
  9
$DIMTDEC
 70
               4
  9
$DIMALTU
 70
               2
  9
$DIMALTTD
 70
               4
  9
$DIMTXSTY
  7
MX_NOTE_STANDARD
  9
$DIMAUNIT
 70
               0
  9
$LUNITS
 70
               2
  9
$LUPREC
 70
               4
  9
$SKETCHINC
 40
0.1
  9
$FILLETRAD
 40
0.0
  9
$AUNITS
 70
               0
  9
$AUPREC
 70
               0
  9
$MENU
  1
acad
  9
$ELEVATION
 40
0.0
  9
$PELEVATION
 40
0.0
  9
$THICKNESS
 40
0.0
  9
$LIMCHECK
 70
               0
  9
$BLIPMODE
 70
               1
  9
$CHAMFERA
 40
0.0
  9
$CHAMFERB
 40
0.0
  9
$CHAMFERC
 40
0.0
  9
$CHAMFERD
 40
0.0
  9
$SKPOLY
 70
               0
  9
$TDCREATE
 40
2453378.356782408
  9
$TDUPDATE
 40
2453378.356782408
  9
$TDINDWG
 40
0.0000000000
  9
$TDUSRTIMER
 40
0.0000000000
  9
$USRTIMER
 70
               1
  9
$ANGBASE
 50
0.0
  9
$ANGDIR
 70
               0
  9
$PDMODE
 70
               0
  9
$PDSIZE
 40
0.0
  9
$PLINEWID
 40
0.0
  9
$COORDS
 70
               1
  9
$SPLFRAME
 70
               0
  9
$SPLINETYPE
 70
               6
  9
$SPLINESEGS
 70
               8
  9
$ATTDIA
 70
               0
  9
$ATTREQ
 70
               1
  9
$HANDLING
 70
               1
  9
$HANDSEED
  5
476
  9
$SURFTAB1
 70
               6
  9
$SURFTAB2
 70
               6
  9
$SURFTYPE
 70
               6
  9
$SURFU
 70
               6
  9
$SURFV
 70
               6
  9
$UCSNAME
  2

  9
$UCSORG
 10
0.0
 20
0.0
 30
0.0
  9
$UCSXDIR
 10
1.0
 20
0.0
 30
0.0
  9
$UCSYDIR
 10
0.0
 20
1.0
 30
0.0
  9
$PUCSNAME
  2

  9
$PUCSORG
 10
0.0
 20
0.0
 30
0.0
  9
$PUCSXDIR
 10
1.0
 20
0.0
 30
0.0
  9
$PUCSYDIR
 10
0.0
 20
1.0
 30
0.0
  9
$USERI1
 70
               0
  9
$USERI2
 70
               0
  9
$USERI3
 70
               0
  9
$USERI4
 70
               0
  9
$USERI5
 70
               0
  9
$USERR1
 40
0.0
  9
$USERR2
 40
0.0
  9
$USERR3
 40
0.0
  9
$USERR4
 40
0.0
  9
$USERR5
 40
0.0
  9
$WORLDVIEW
 70
               1
  9
$SHADEDGE
 70
               3
  9
$SHADEDIF
 70
              70
  9
$TILEMODE
 70
               1
  9
$MAXACTVP
 70
              16
  9
$PINSBASE
 10
0.0
 20
0.0
 30
0.0
  9
$PLIMCHECK
 70
               0
  9
$PEXTMIN
 10
1.0000000000000000E+20
 20
1.0000000000000000E+20
 30
1.0000000000000000E+20
  9
$PEXTMAX
 10
-1.0000000000000000E+20
 20
-1.0000000000000000E+20
 30
-1.0000000000000000E+20
  9
$PLIMMIN
 10
0.0
 20
0.0
  9
$PLIMMAX
 10
12.0
 20
9.0
  9
$UNITMODE
 70
               0
  9
$VISRETAIN
 70
               0
  9
$PLINEGEN
 70
               1
  9
$PSLTSCALE
 70
               0
  9
$TREEDEPTH
 70
            3020
  9
$PICKSTYLE
 70
               1
  9
$CMLSTYLE
  2
Standard
  9
$CMLJUST
 70
               0
  9
$CMLSCALE
 40
1.0
  9
$SAVEIMAGES
 70
               0
  0
ENDSEC
  0
SECTION
  2
CLASSES
  0
CLASS
  1
LWPOLYLINE
  2
AcDbPolyline
  3
"AutoCAD"
 90
        0
280
               0
281
               1
  0
CLASS
  1
IMAGE
  2
AcDbRasterImage
  3
ISM
 90
      127
280
               0
281
               1
  0
CLASS
  1
OLE2FRAME
  2
AcDbOle2Frame
  3
""
 90
        0
280
               0
281
               1
  0
CLASS
  1
HATCH
  2
AcDbHatch
  3
"ACAD_SEDONA"
 90
        0
280
               0
281
               1
  0
CLASS
  1
DICTIONARYVAR
  2
AcDbDictionaryVar
  3
"AutoCAD"
 90
        0
280
               0
281
               0
  0
CLASS
  1
RASTERVARIABLES
  2
AcDbRasterVariables
  3
ISM
 90
        0
280
               0
281
               0
  0
CLASS
  1
IMAGEDEF
  2
AcDbRasterImageDef
  3
ISM
 90
        0
280
               0
281
               0
  0
CLASS
  1
IMAGEDEF_REACTOR
  2
AcDbRasterImageDefReactor
  3
ISM
 90
        1
280
               0
281
               0
  0
CLASS
  1
IDBUFFER
  2
AcDbIdBuffer
  3
"Acad"
 90
        0
280
               0
281
               0
  0
CLASS
  1
SPATIAL_FILTER
  2
AcDbSpatialFilter
  3
"Acad"
 90
        0
280
               0
281
               0
  0
CLASS
  1
XRECORD
  2
AcDbXrecord
  3
"<Built In>"
 90
        0
280
               0
281
               0
  0
CLASS
  1
SORTENTSTABLE
  2
AcDbSortentsTable
  3
"AutoCAD"
 90
        0
280
               0
281
               0
  0
CLASS
  1
LAYER_INDEX
  2
AcDbLayerIndex
  3
"Acad"
 90
        0
280
               0
281
               0
  0
CLASS
  1
SPATIAL_INDEX
  2
AcDbSpatialIndex
  3
"Acad"
 90
        0
280
               0
281
               0
  0
CLASS
  1
OBJECT_PTR
  2
CAseDLPNTableRecord
  3
"ASE-LPNTableRecord"
 90
        1
280
               0
281
               0
  0
CLASS
  1
LAYOUT
  2
AcDbLayout
  3
"AutoCAD 2000"
 90
        1
280
               0
281
               0
  0
CLASS
  1
PLOTSETTINGS
  2
AcDbPlotSettings
  3
"AutoCAD 2000"
 90
        1
280
               0
281
               0
  0
CLASS
  1
ACDBDICTIONARYWDFLT
  2
AcDbDictionaryWithDefault
  3
"AutoCAD 2000"
 90
        1
280
               0
281
               0
  0
CLASS
  1
ACDBPLACEHOLDER
  2
AcDbPlaceHolder
  3
"AutoCAD 2000"
 90
        1
280
               0
281
               0
  0
ENDSEC
  0
SECTION
  2
TABLES
  0
TABLE
  2
VPORT
  5
7
100
AcDbSymbolTable
 70
               1
  0
VPORT
  5
15
100
AcDbSymbolTableRecord
100
AcDbViewportTableRecord
  2
*ACTIVE
 70
               0
 10
0.0
 20
0.0
 11
1.0
 21
1.0
 12
2.1909528531206206
 22
0.25
 13
0.0
 23
0.0
 14
1.0
 24
1.0
 15
0.0
 25
0.0
 16
0.0
 26
0.0
 36
1.0
 17
0.0
 27
0.0
 37
0.0
 40
394.40500000000003
 41
1.7320508075688772
 42
50.0
 43
0.0
 44
0.0
 50
0.0
 51
0.0
 71
               0
 72
             100
 73
               1
 74
               1
 75
               0
 76
               0
 77
               0
 78
               0
  0
ENDTAB
  0
TABLE
  2
LTYPE
  5
4
100
AcDbSymbolTable
 70
               6
  0
LTYPE
  5
11
100
AcDbSymbolTableRecord
100
AcDbLinetypeTableRecord
  2
BYBLOCK
 70
              64
  3

 72
              65
 73
               0
 40
0.0
  0
LTYPE
  5
12
100
AcDbSymbolTableRecord
100
AcDbLinetypeTableRecord
  2
BYLAYER
 70
              64
  3

 72
              65
 73
               0
 40
0.0
  0
LTYPE
  5
13
100
AcDbSymbolTableRecord
100
AcDbLinetypeTableRecord
  2
CONTINUOUS
 70
              64
  3
Solid line
 72
              65
 73
               0
 40
0.0
  0
LTYPE
  5
2A
100
AcDbSymbolTableRecord
100
AcDbLinetypeTableRecord
  2
CENTER
 70
              64
  3
Center ____ _ ____ _ ____ _ ____ _ ____ _ ____
 72
              65
 73
               4
 40
26.0
 49
20.0
 74
               0
 49
-2.0
 74
               0
 49
2.0
 74
               0
 49
-2.0
 74
               0
  0
LTYPE
  5
43
100
AcDbSymbolTableRecord
100
AcDbLinetypeTableRecord
  2
DASHED
 70
              64
  3
Dashed __ __ __ __ __ __ __ __ __ __ __ __ __ _
 72
              65
 73
               2
 40
4.0
 49
2.0
 74
               0
 49
-2.0
 74
               0
  0
LTYPE
  5
15C
100
AcDbSymbolTableRecord
100
AcDbLinetypeTableRecord
  2
PHANTOM
 70
              64
  3
Phantom ______  __  __  ______  __  __  ______
 72
              65
 73
               6
 40
30.0
 49
20.0
 74
               0
 49
-2.0
 74
               0
 49
2.0
 74
               0
 49
-2.0
 74
               0
 49
2.0
 74
               0
 49
-2.0
 74
               0
  0
ENDTAB
  0
TABLE
  2
LAYER
  5
2
100
AcDbSymbolTable
 70
               2
  0
LAYER
  5
14
100
AcDbSymbolTableRecord
100
AcDbLayerTableRecord
  2
0
 70
               0
 62
               7
  6
CONTINUOUS
  0
LAYER
  5
1D
100
AcDbSymbolTableRecord
100
AcDbLayerTableRecord
  2
DEFPOINTS
 70
               0
 62
               7
  6
CONTINUOUS
  0
ENDTAB
  0
TABLE
  2
STYLE
  5
3
100
AcDbSymbolTable
 70
               1
  0
STYLE
  5
17
100
AcDbSymbolTableRecord
100
AcDbTextStyleTableRecord
  2
MX_NOTE_STANDARD
 70
               0
 40
0.0
 41
1.0
 50
0.0
 71
               0
 42
3.2000000476837158
  3
txt.shx
  4
extfont.shx
  0
ENDTAB
  0
TABLE
  2
VIEW
  5
5
100
AcDbSymbolTable
 70
               0
  0
ENDTAB
  0
TABLE
  2
UCS
  5
6
100
AcDbSymbolTable
 70
               0
  0
ENDTAB
  0
TABLE
  2
APPID
  5
8
100
AcDbSymbolTable
 70
               1
  0
APPID
  5
16
100
AcDbSymbolTableRecord
100
AcDbRegAppTableRecord
  2
ACAD
 70
               0
  0
ENDTAB
  0
TABLE
  2
DIMSTYLE
  5
9
100
AcDbSymbolTable
 70
               1
  0
DIMSTYLE
105
18
100
AcDbSymbolTableRecord
100
AcDbDimStyleTableRecord
  2
MXDIMSTYLE
 70
               0
  3

  4

  5

  6

  7

 40
1.0
 41
2.5
 42
1.5
 43
3.75
 44
1.5
 45
0.0
 46
0.0
 47
0.0
 48
0.0
 71
               0
 72
               0
 73
               0
 74
               0
 75
               0
 76
               0
 77
               1
 78
               8
140
3.2000000476837158
141
2.5
142
0.0
143
0.03937007874016
144
1.0
145
0.0
146
1.0
147
1.0
170
               0
171
               4
172
               1
173
               0
174
               0
175
               0
176
               0
177
               0
178
               0
270
               2
271
               4
272
               4
273
               2
274
               4
275
               0
280
               0
281
               0
282
               0
283
               1
284
               0
285
               0
286
               0
287
               3
288
               1
340
17
  0
ENDTAB
  0
TABLE
  2
BLOCK_RECORD
  5
1
100
AcDbSymbolTable
 70
              11
  0
BLOCK_RECORD
  5
A
100
AcDbSymbolTableRecord
100
AcDbBlockTableRecord
  2
*MODEL_SPACE
  0
BLOCK_RECORD
  5
B
100
AcDbSymbolTableRecord
100
AcDbBlockTableRecord
  2
*PAPER_SPACE
  0
BLOCK_RECORD
  5
1E
100
AcDbSymbolTableRecord
100
AcDbBlockTableRecord
  2
PA24F7-1
  0
BLOCK_RECORD
  5
1F
100
AcDbSymbolTableRecord
100
AcDbBlockTableRecord
  2
PA24F7-2
  0
BLOCK_RECORD
  5
20
100
AcDbSymbolTableRecord
100
AcDbBlockTableRecord
  2
PA24F7-3
  0
BLOCK_RECORD
  5
21
100
AcDbSymbolTableRecord
100
AcDbBlockTableRecord
  2
PA24F7-4
  0
BLOCK_RECORD
  5
22
100
AcDbSymbolTableRecord
100
AcDbBlockTableRecord
  2
PA24F7-5
  0
BLOCK_RECORD
  5
23
100
AcDbSymbolTableRecord
100
AcDbBlockTableRecord
  2
PA24F7-6
  0
BLOCK_RECORD
  5
24
100
AcDbSymbolTableRecord
100
AcDbBlockTableRecord
  2
PA24F7-7
  0
BLOCK_RECORD
  5
25
100
AcDbSymbolTableRecord
100
AcDbBlockTableRecord
  2
PA24F7-8
  0
BLOCK_RECORD
  5
26
100
AcDbSymbolTableRecord
100
AcDbBlockTableRecord
  2
PA24F7-9
  0
BLOCK_RECORD
  5
27
100
AcDbSymbolTableRecord
100
AcDbBlockTableRecord
  2
PA24F7-10
  0
BLOCK_RECORD
  5
46B
100
AcDbSymbolTableRecord
100
AcDbBlockTableRecord
  2
_OPEN30
  0
ENDTAB
  0
ENDSEC
  0
SECTION
  2
BLOCKS
  0
BLOCK
  5
D
100
AcDbEntity
  8
0
100
AcDbBlockBegin
  2
*MODEL_SPACE
 70
               0
 10
0.0
 20
0.0
 30
0.0
  3
*MODEL_SPACE
  1

  0
ENDBLK
  5
E
100
AcDbEntity
  8
0
100
AcDbBlockEnd
  0
BLOCK
  5
F
100
AcDbEntity
 67
               1
  8
0
100
AcDbBlockBegin
  2
*PAPER_SPACE
 70
               0
 10
0.0
 20
0.0
 30
0.0
  3
*PAPER_SPACE
  1

  0
ENDBLK
  5
10
100
AcDbEntity
 67
               1
  8
0
100
AcDbBlockEnd
  0
BLOCK
  5
28
100
AcDbEntity
  8
0
100
AcDbBlockBegin
  2
PA24F7-1
 70
               0
 10
0.0
 20
0.0
 30
0.0
  3
PA24F7-1
  1

  0
LINE
  5
29
100
AcDbEntity
  8
0
  6
CONTINUOUS
 62
               7
100
AcDbLine
 10
-2.6000000000034333
 20
24.000000000002657
 30
0.0
 11
-2.6000000000470891
 21
-53.267949168514193
 31
0.0
  0
LINE
  5
2B
100
AcDbEntity
  8
0
  6
CENTER
 62
               2
100
AcDbLine
 10
9.2999999999985903
 20
-98.189318247903046
 30
0.0
 11
9.3000000000000114
 21
24.00000000000334
 31
0.0
  0
LINE
  5
2C
100
AcDbEntity
  8
0
  6
CONTINUOUS
 62
               7
100
AcDbLine
 10
-2.6000000000003638
 20
17.999999999999133
 30
0.0
 11
21.199999999999932
 21
17.999999999998678
 31
0.0
  0
LINE
  5
2D
100
AcDbEntity
  8
0
  6
CONTINUOUS
 62
               7
100
AcDbLine
 10
-1.3000000000006366
 20
10.499999999798248
 30
0.0
 11
-1.3000000000001819
 21
17.999999999999133
 31
0.0
  0
LINE
  5
2E
100
AcDbEntity
  8
0
  6
CONTINUOUS
 62
               7
100
AcDbLine
 10
-1.300000011293605
 20
11.999999999999361
 30
0.0
 11
-2.0999999934122116
 21
11.999999999999361
 31
0.0
  0
ARC
  5
2F
100
AcDbEntity
  8
0
  6
CONTINUOUS
 62
               7
100
AcDbCircle
 10
-2.1000000000003638
 20
12.499999999999361
 30
0.0
 40
0.5
100
AcDbArc
 50
179.99999999999963
 51
269.99999999999937
  0
LINE
  5
30
100
AcDbEntity
  8
0
  6
CONTINUOUS
 62
               7
100
AcDbLine
 10
19.899999999999977
 20
10.499999999798248
 30
0.0
 11
19.899999999999864
 21
17.999999999998792
 31
0.0
  0
ARC
  5
31
100
AcDbEntity
  8
0
  6
CONTINUOUS
 62
               7
100
AcDbCircle
 10
20.699999999999932
 20
12.499999999999133
 30
0.0
 40
0.5
100
AcDbArc
 50
269.9999999999979
 51
359.99999999999767
  0
LINE
  5
32
100
AcDbEntity
  8
0
  6
CONTINUOUS
 62
               7
100
AcDbLine
 10
19.900000011293059
 20
11.999999999999133
 30
0.0
 11
20.699999993411666
 21
11.999999999999133
 31
0.0
  0
LINE
  5
33
100
AcDbEntity
  8
0
  6
CONTINUOUS
 62
               7
100
AcDbLine
 10
19.899999977542961
 20
10.499999999798248
 30
0.0
 11
21.199999999999818
 21
10.499999999798248
 31
0.0
  0
LINE
  5
34
100
AcDbEntity
  8
0
  6
CONTINUOUS
 62
               7
100
AcDbLine
 10
-2.6000000224571522
 20
10.499999999798248
 30
0.0
 11
-1.3000000105362233
 21
10.499999999798248
 31
0.0
  0
LINE
  5
35
100
AcDbEntity
  8
0
  6
CONTINUOUS
 62
               7
100
AcDbLine
 10
-2.6000000000011596
 20
8.9999999999999289
 30
0.0
 11
21.199999999999363
 21
8.9999999999997016
 31
0.0
  0
ARC
  5
36
100
AcDbEntity
  8
0
  6
CONTINUOUS
 62
               7
100
AcDbCircle
 10
20.699999999998226
 20
-95.500000000000071
 30
0.0
 40
0.5
100
AcDbArc
 50
269.99999999999937
 51
0.0
  0
ARC
  5
37
100
AcDbEntity
  8
0
  6
CONTINUOUS
 62
               7
100
AcDbCircle
 10
-2.100000000001728
 20
-95.500000000000071
 30
0.0
 40
0.5
100
AcDbArc
 50
179.99999999999963
 51
269.99999999999937
  0
LINE
  5
38
100
AcDbEntity
  8
0
  6
CONTINUOUS
 62
               7
100
AcDbLine
 10
-2.600000000001728
 20
-66.000000000000071
 30
0.0
 11
21.199999999998226
 21
-66.000000000000071
 31
0.0
  0
LINE
  5
39
100
AcDbEntity
  8
0
  6
CONTINUOUS
 62
               7
100
AcDbLine
 10
-2.100000000001728
 20
-96.000000000000071
 30
0.0
 11
20.699999999998226
 21
-96.000000000000071
 31
0.0
  0
LINE
  5
3A
100
AcDbEntity
  8
0
  6
CONTINUOUS
 62
               7
100
AcDbLine
 10
-2.6000000000019554
 20
-82.499999999997058
 30
0.0
 11
21.199999983505222
 21
-82.499999999997058
 31
0.0
  0
LINE
  5
3B
100
AcDbEntity
  8
0
  6
CENTER
 62
               2
100
AcDbLine
 10
18.599999999998772
 20
-62.704087708489297
 30
0.0
 11
18.599999999999
 21
-51.015545225571728
 31
0.0
  0
ARC
  5
3C
100
AcDbEntity
  8
0
  6
CONTINUOUS
 62
               7
100
AcDbCircle
 10
18.599999999999
 20
-57.000000000000014
 30
0.0
 40
4.0
100
AcDbArc
 50
89.999999999999815
 51
270.00000000001893
  0
CIRCLE
  5
3D
100
AcDbEntity
  8
0
  6
CONTINUOUS
 62
               7
100
AcDbCircle
 10
18.599999999999
 20
-57.000000000000014
 30
0.0
 40
2.1000000000000001
  0
LINE
  5
3E
100
AcDbEntity
  8
0
  6
CENTER
 62
               2
100
AcDbLine
 10
22.446656126438938
 20
-57.000000000000014
 30
0.0
 11
12.99523796164226
 21
-56.999999999999957
 31
0.0
  0
LINE
  5
3F
100
AcDbEntity
  8
0
  6
CENTER
 62
               2
100
AcDbLine
 10
-3.8466561264399388
 20
0.0000000000000426
 30
0.0
 11
5.3636104806168987
 21
-0.0000000000000711
 31
0.0
  0
LINE
  5
40
100
AcDbEntity
  8
0
  6
CENTER
 62
               2
100
AcDbLine
 10
0.0000000000001137
 20
5.7040877084892116
 30
0.0
 11
-0.0000000000001137
 21
-5.9844547744283574
 31
0.0
  0
ARC
  5
41
100
AcDbEntity
  8
0
  6
CONTINUOUS
 62
               7
100
AcDbCircle
 10
0.0
 20
-0.0000000000000711
 30
0.0
 40
4.0
100
AcDbArc
 50
269.99999999999818
 51
89.999999999998579
  0
CIRCLE
  5
42
100
AcDbEntity
  8
0
  6
CONTINUOUS
 62
               7
100
AcDbCircle
 10
0.0
 20
-0.0000000000000711
 30
0.0
 40
2.1000000000000001
  0
CIRCLE
  5
44
100
AcDbEntity
  8
0
  6
DASHED
 62
               2
100
AcDbCircle
 10
9.2999999999997272
 20
-16.499999948261419
 30
0.0
 40
6.5
  0
CIRCLE
  5
45
100
AcDbEntity
  8
0
  6
DASHED
 62
               7
100
AcDbCircle
 10
9.2999999999997272
 20
-16.499999948261419
 30
0.0
 40
5.6800003051757812
  0
CIRCLE
  5
46
100
AcDbEntity
  8
0
  6
CONTINUOUS
 62
               7
100
AcDbCircle
 10
7.7999998092649321
 20
-14.999999948260623
 30
0.0
 40
7.4000000000000004
  0
CIRCLE
  5
47
100
AcDbEntity
  8
0
  6
CONTINUOUS
 62
               2
100
AcDbCircle
 10
7.7999998092649321
 20
-14.999999948260623
 30
0.0
 40
8.3000001907348633
  0
LINE
  5
48
100
AcDbEntity
  8
0
  6
CENTER
 62
               2
100
AcDbLine
 10
-2.2000001907350679
 20
-14.999999948260736
 30
0.0
 11
17.799999809264932
 21
-14.999999948260623
 31
0.0
  0
CIRCLE
  5
49
100
AcDbEntity
  8
0
  6
DASHED
 62
               2
100
AcDbCircle
 10
9.2999999999994998
 20
-39.50000005173861
 30
0.0
 40
6.5
  0
CIRCLE
  5
4A
100
AcDbEntity
  8
0
  6
DASHED
 62
               7
100
AcDbCircle
 10
9.2999999999994998
 20
-39.50000005173861
 30
0.0
 40
5.6800003051757812
  0
CIRCLE
  5
4B
100
AcDbEntity
  8
0
  6
CONTINUOUS
 62
               7
100
AcDbCircle
 10
10.800000190734863
 20
-41.000000051739292
 30
0.0
 40
7.4000000000000004
  0
CIRCLE
  5
4C
100
AcDbEntity
  8
0
  6
CONTINUOUS
 62
               2
100
AcDbCircle
 10
10.800000190734863
 20
-41.000000051739292
 30
0.0
 40
8.3000001907348633
  0
LINE
  5
4D
100
AcDbEntity
  8
0
  6
CENTER
 62
               2
100
AcDbLine
 10
10.799999999999955
 20
-31.001125112166235
 30
0.0
 11
10.799999999999955
 21
-50.998874991312235
 31
0.0
  0
LINE
  5
4E
100
AcDbEntity
  8
0
  6
CENTER
 62
               2
100
AcDbLine
 10
-1.746292893860641
 20
-41.000000051739292
 30
0.0
 11
20.650000190734886
 21
-41.000000051739292
 31
0.0
  0
LINE
  5
4F
100
AcDbEntity
  8
0
  6
CONTINUOUS
 62
               7
100
AcDbLine
 10
21.199999999980946
 20
-3.7320507851628264
 30
0.0
 11
21.199999999927968
 21
-95.499999999999957
 31
0.0
  0
LINE
  5
50
100
AcDbEntity
  8
0
  6
CONTINUOUS
 62
               7
100
AcDbLine
 10
21.199999999988449
 20
3.7320507784678938
 30
0.0
 11
21.199999999998681
 21
24.000000000004079
 31
0.0
  0
LINE
  5
51
100
AcDbEntity
  8
0
  6
CONTINUOUS
 62
               7
100
AcDbLine
 10
20.199999999981856
 20
-2.0000000000054143
 30
0.0
 11
20.199999999985266
 21
1.9999999999945857
 31
0.0
  0
LINE
  5
52
100
AcDbEntity
  8
0
  6
CONTINUOUS
 62
               7
100
AcDbLine
 10
20.199999987484489
 20
1.9999999492417118
 30
0.0
 11
21.199999999988449
 21
3.7320507784678938
 31
0.0
  0
LINE
  5
53
100
AcDbEntity
  8
0
  6
CONTINUOUS
 62
               7
100
AcDbLine
 10
21.200000017286698
 20
-3.7320508272399167
 30
0.0
 11
20.199999999981856
 21
-1.9999999896981677
 31
0.0
  0
LINE
  5
54
100
AcDbEntity
  8
0
  6
CONTINUOUS
 62
               7
100
AcDbLine
 10
-1.6000000000524324
 20
-58.999999999992681
 30
0.0
 11
-1.6000000000487944
 21
-54.999999999992681
 31
0.0
  0
LINE
  5
55
100
AcDbEntity
  8
0
  6
CONTINUOUS
 62
               7
100
AcDbLine
 10
-1.5999999648333869
 20
-55.00000005075772
 30
0.0
 11
-2.5999999648332732
 21
-53.26794921467139
 31
0.0
  0
LINE
  5
56
100
AcDbEntity
  8
0
  6
CONTINUOUS
 62
               7
100
AcDbLine
 10
-2.6000000000528871
 20
-60.732050833853023
 30
0.0
 11
-2.6000000000715318
 21
-95.499999999999957
 31
0.0
  0
LINE
  5
57
100
AcDbEntity
  8
0
  6
CONTINUOUS
 62
               7
100
AcDbLine
 10
-2.5999999350311782
 20
-60.732050767634647
 30
0.0
 11
-1.6000000244380317
 21
-59.000000110362365
 31
0.0
  0
LINE
  5
58
100
AcDbEntity
  8
0
  6
CONTINUOUS
 62
               7
100
AcDbLine
 10
18.599999999999
 20
-53.000000000000014
 30
0.0
 11
21.199999999952524
 21
-53.000000000000014
 31
0.0
  0
LINE
  5
59
100
AcDbEntity
  8
0
  6
CONTINUOUS
 62
               7
100
AcDbLine
 10
18.599999999999454
 20
-61.000000000000014
 30
0.0
 11
21.199999999947863
 21
-61.000000000000014
 31
0.0
  0
LINE
  5
5A
100
AcDbEntity
  8
0
  6
CENTER
 62
               2
100
AcDbLine
 10
21.199999999973556
 20
-16.499999948261646
 30
0.0
 11
-2.2000001907350679
 21
-16.499999948261646
 31
0.0
  0
LINE
  5
5B
100
AcDbEntity
  8
0
  6
CENTER
 62
               2
100
AcDbLine
 10
21.199999999960255
 20
-39.500000051739008
 30
0.0
 11
-1.746292893860641
 21
-39.500000051739008
 31
0.0
  0
LINE
  5
5C
100
AcDbEntity
  8
0
  6
CONTINUOUS
 62
               7
100
AcDbLine
 10
0.0000000000001137
 20
3.9999999999999289
 30
0.0
 11
-2.6000000000146883
 21
3.9999999999999289
 31
0.0
  0
LINE
  5
5D
100
AcDbEntity
  8
0
  6
CONTINUOUS
 62
               7
100
AcDbLine
 10
0.0000000000005684
 20
-4.0000000000000711
 30
0.0
 11
-2.6000000000192358
 21
-4.0000000000000711
 31
0.0
  0
LINE
  5
5E
100
AcDbEntity
  8
0
  6
CENTER
 62
             200
100
AcDbLine
 10
9.2999999999999972
 20
24.000000000003368
 30
0.0
 11
9.3000000000005798
 21
65.999318110285529
 31
0.0
  0
LINE
  5
5F
100
AcDbEntity
  8
0
  6
CONTINUOUS
 62
               4
100
AcDbLine
 10
21.199999999998482
 20
24.000000000003368
 30
0.0
 11
21.200000000018207
 21
62.999999991081793
 31
0.0
  0
LINE
  5
60
100
AcDbEntity
  8
0
  6
DASHED
 62
               2
100
AcDbLine
 10
-2.6000000000035612
 20
24.000000000003368
 30
0.0
 11
21.199999999998511
 21
24.000000000003368
 31
0.0
  0
LINE
  5
61
100
AcDbEntity
  8
0
  6
CONTINUOUS
 62
               4
100
AcDbLine
 10
18.600000000000161
 20
39.800000000002129
 30
0.0
 11
0.0000000000001705
 21
39.800000000002129
 31
0.0
  0
LINE
  5
62
100
AcDbEntity
  8
0
  6
CONTINUOUS
 62
               4
100
AcDbLine
 10
17.200000000000216
 20
41.900000000001583
 30
0.0
 11
18.600000000000193
 21
41.900000000001583
 31
0.0
  0
LINE
  5
63
100
AcDbEntity
  8
0
  6
CONTINUOUS
 62
               4
100
AcDbLine
 10
17.200000000000216
 20
39.800000000002129
 30
0.0
 11
17.200000000000216
 21
41.900000000001583
 31
0.0
  0
ARC
  5
64
100
AcDbEntity
  8
0
  6
CONTINUOUS
 62
               4
100
AcDbCircle
 10
18.10000000000008
 20
32.50000000000172
 30
0.0
 40
0.5
100
AcDbArc
 50
269.9999999999979
 51
359.99999999999767
  0
LINE
  5
65
100
AcDbEntity
  8
0
  6
CONTINUOUS
 62
               4
100
AcDbLine
 10
18.10000000000008
 20
32.000000000001947
 30
0.0
 11
0.5000000000000568
 21
32.000000000001947
 31
0.0
  0
ARC
  5
66
100
AcDbEntity
  8
0
  6
CONTINUOUS
 62
               4
100
AcDbCircle
 10
0.5000000000000568
 20
32.500000000001947
 30
0.0
 40
0.5
100
AcDbArc
 50
179.99999999999963
 51
269.99999999999937
  0
LINE
  5
67
100
AcDbEntity
  8
0
  6
CONTINUOUS
 62
               4
100
AcDbLine
 10
1.4000000000002615
 20
41.900000000002038
 30
0.0
 11
0.0000000000002274
 21
41.900000000002038
 31
0.0
  0
LINE
  5
68
100
AcDbEntity
  8
0
  6
CONTINUOUS
 62
               4
100
AcDbLine
 10
1.4000000000001478
 20
39.800000000002129
 30
0.0
 11
1.4000000000002615
 21
41.900000000002038
 31
0.0
  0
LINE
  5
69
100
AcDbEntity
  8
0
  6
CONTINUOUS
 62
               4
100
AcDbLine
 10
12.817157286864642
 20
33.500000000001947
 30
0.0
 11
5.7828427131354943
 21
33.500000000001947
 31
0.0
  0
LINE
  5
6A
100
AcDbEntity
  8
0
  6
CONTINUOUS
 62
               4
100
AcDbLine
 10
9.1585786437628371
 20
37.358578643103684
 30
0.0
 11
5.6414213568982063
 21
33.841421356239223
 31
0.0
  0
LINE
  5
6B
100
AcDbEntity
  8
0
  6
CONTINUOUS
 62
               4
100
AcDbLine
 10
9.441421356237413
 20
37.358578643103684
 30
0.0
 11
12.95857864310193
 21
33.841421356239223
 31
0.0
  0
ARC
  5
6C
100
AcDbEntity
  8
0
  6
CONTINUOUS
 62
               4
100
AcDbCircle
 10
9.3000000000001251
 20
37.217157286866396
 30
0.0
 40
0.2
100
AcDbArc
 50
44.99999999999919
 51
134.99999999999898
  0
ARC
  5
6D
100
AcDbEntity
  8
0
  6
CONTINUOUS
 62
               4
100
AcDbCircle
 10
5.7828427131354943
 20
33.700000000001936
 30
0.0
 40
0.2
100
AcDbArc
 50
134.99999999999793
 51
269.99999999999937
  0
ARC
  5
6E
100
AcDbEntity
  8
0
  6
CONTINUOUS
 62
               4
100
AcDbCircle
 10
12.817157286864642
 20
33.700000000001936
 30
0.0
 40
0.2
100
AcDbArc
 50
269.99999999999937
 51
45.000000000000966
  0
LINE
  5
6F
100
AcDbEntity
  8
0
  6
CONTINUOUS
 62
               4
100
AcDbLine
 10
19.999999999373529
 20
58.900000000004141
 30
0.0
 11
21.199999993412973
 21
58.900000000004084
 31
0.0
  0
LINE
  5
70
100
AcDbEntity
  8
0
  6
CONTINUOUS
 62
               4
100
AcDbLine
 10
19.999999999373529
 20
62.100000000004187
 30
0.0
 11
21.199999993413087
 21
62.10000000000413
 31
0.0
  0
ARC
  5
71
100
AcDbEntity
  8
0
  6
CONTINUOUS
 62
               4
100
AcDbCircle
 10
20.200000000000443
 20
63.000000000001833
 30
0.0
 40
1.0
100
AcDbArc
 50
359.99999999999847
 51
89.999999999998266
  0
LINE
  5
72
100
AcDbEntity
  8
0
  6
CONTINUOUS
 62
               4
100
AcDbLine
 10
-1.5999999999994543
 20
64.000000000002174
 30
0.0
 11
20.200000000000557
 21
64.00000000000189
 31
0.0
  0
LINE
  5
73
100
AcDbEntity
  8
0
  6
CONTINUOUS
 62
               4
100
AcDbLine
 10
20.000000000000398
 20
58.900000000004141
 30
0.0
 11
20.000000000000512
 21
62.100000000004187
 31
0.0
  0
ARC
  5
74
100
AcDbEntity
  8
0
  6
CONTINUOUS
 62
               4
100
AcDbCircle
 10
-1.5999999999994543
 20
63.000000000002117
 30
0.0
 40
1.0
100
AcDbArc
 50
89.999999999999815
 51
179.99999999999963
  0
LINE
  5
75
100
AcDbEntity
  8
0
  6
CONTINUOUS
 62
               4
100
AcDbLine
 10
-1.3999999993725396
 20
62.100000000004414
 30
0.0
 11
-2.5999999934120979
 21
62.100000000004414
 31
0.0
  0
LINE
  5
76
100
AcDbEntity
  8
0
  6
CONTINUOUS
 62
               4
100
AcDbLine
 10
17.300000000000466
 20
57.50000000000189
 30
0.0
 11
17.300000000000352
 21
50.50000000000189
 31
0.0
  0
LINE
  5
77
100
AcDbEntity
  8
0
  6
CONTINUOUS
 62
               4
100
AcDbLine
 10
11.300000000000466
 20
57.500000000002004
 30
0.0
 11
11.300000000000352
 21
50.500000000002004
 31
0.0
  0
LINE
  5
78
100
AcDbEntity
  8
0
  6
CONTINUOUS
 62
               4
100
AcDbLine
 10
-1.3999999999995225
 20
58.900000000004425
 30
0.0
 11
-1.3999999999995225
 21
62.100000000004414
 31
0.0
  0
LINE
  5
79
100
AcDbEntity
  8
0
  6
CONTINUOUS
 62
               4
100
AcDbLine
 10
-1.3999999993725396
 20
58.900000000004425
 30
0.0
 11
-2.5999999934120979
 21
58.900000000004425
 31
0.0
  0
LINE
  5
7A
100
AcDbEntity
  8
0
  6
CONTINUOUS
 62
               4
100
AcDbLine
 10
15.900000000000148
 20
39.900000000003232
 30
0.0
 11
2.700000000000216
 21
39.900000000003232
 31
0.0
  0
LINE
  5
7B
100
AcDbEntity
  8
0
  6
CONTINUOUS
 62
               4
100
AcDbLine
 10
18.10000000000008
 20
31.900000000003232
 30
0.0
 11
13.300000000000125
 21
31.900000000003232
 31
0.0
  0
ARC
  5
7C
100
AcDbEntity
  8
0
  6
CONTINUOUS
 62
               4
100
AcDbCircle
 10
18.10000000000008
 20
32.400000000003232
 30
0.0
 40
0.5
100
AcDbArc
 50
269.99999999999937
 51
0.0
  0
LINE
  5
7D
100
AcDbEntity
  8
0
  6
CONTINUOUS
 62
               4
100
AcDbLine
 10
0.0000000000000568
 20
32.400000000003516
 30
0.0
 11
0.0000000000002274
 21
42.700207536082317
 31
0.0
  0
ARC
  5
7E
100
AcDbEntity
  8
0
  6
CONTINUOUS
 62
               4
100
AcDbCircle
 10
0.5000000000000568
 20
32.400000000003232
 30
0.0
 40
0.5
100
AcDbArc
 50
179.99999999999963
 51
269.99999999999937
  0
LINE
  5
7F
100
AcDbEntity
  8
0
  6
CONTINUOUS
 62
               4
100
AcDbLine
 10
2.200000000000216
 20
40.400000000003232
 30
0.0
 11
2.200000000000216
 21
41.999999994251098
 31
0.0
  0
ARC
  5
80
100
AcDbEntity
  8
0
  6
CONTINUOUS
 62
               4
100
AcDbCircle
 10
2.700000000000216
 20
40.400000000003232
 30
0.0
 40
0.5
100
AcDbArc
 50
179.99999999999963
 51
269.99999999999937
  0
ARC
  5
81
100
AcDbEntity
  8
0
  6
CONTINUOUS
 62
               4
100
AcDbCircle
 10
15.900000000000148
 20
40.400000000003232
 30
0.0
 40
0.5
100
AcDbArc
 50
269.99999999999937
 51
0.0
  0
LINE
  5
82
100
AcDbEntity
  8
0
  6
CONTINUOUS
 62
               4
100
AcDbLine
 10
12.800000000000125
 20
30.700000000003243
 30
0.0
 11
5.8000000000001251
 21
30.700000000003243
 31
0.0
  0
LINE
  5
83
100
AcDbEntity
  8
0
  6
CONTINUOUS
 62
               4
100
AcDbLine
 10
13.300000000000125
 20
31.200000000003243
 30
0.0
 11
13.300000000000125
 21
31.900000000003232
 31
0.0
  0
ARC
  5
84
100
AcDbEntity
  8
0
  6
CONTINUOUS
 62
               4
100
AcDbCircle
 10
12.800000000000125
 20
31.200000000003243
 30
0.0
 40
0.5
100
AcDbArc
 50
269.99999999999937
 51
0.0
  0
LINE
  5
85
100
AcDbEntity
  8
0
  6
CONTINUOUS
 62
               4
100
AcDbLine
 10
5.3000000000001251
 20
31.200000000003357
 30
0.0
 11
5.3000000000001251
 21
31.900000000003345
 31
0.0
  0
ARC
  5
86
100
AcDbEntity
  8
0
  6
CONTINUOUS
 62
               4
100
AcDbCircle
 10
5.8000000000001251
 20
31.200000000003357
 30
0.0
 40
0.5
100
AcDbArc
 50
179.99999999999807
 51
269.9999999999979
  0
LINE
  5
87
100
AcDbEntity
  8
0
  6
CONTINUOUS
 62
               4
100
AcDbLine
 10
18.60000000000008
 20
32.400000000003232
 30
0.0
 11
18.600000000000193
 21
42.700207536082033
 31
0.0
  0
LINE
  5
88
100
AcDbEntity
  8
0
  6
CONTINUOUS
 62
               4
100
AcDbLine
 10
2.200000000000216
 20
41.999999994251098
 30
0.0
 11
0.0000000000002274
 21
41.999999994251098
 31
0.0
  0
LINE
  5
89
100
AcDbEntity
  8
0
  6
CONTINUOUS
 62
               4
100
AcDbLine
 10
1.4000000000002615
 20
42.700207536082317
 30
0.0
 11
0.0000000125483552
 21
42.700207536082317
 31
0.0
  0
LINE
  5
8A
100
AcDbEntity
  8
0
  6
CONTINUOUS
 62
               4
100
AcDbLine
 10
16.400000000000148
 20
41.999999994250871
 30
0.0
 11
18.600000000000193
 21
41.999999994250814
 31
0.0
  0
LINE
  5
8B
100
AcDbEntity
  8
0
  6
CONTINUOUS
 62
               4
100
AcDbLine
 10
1.4000000000002615
 20
42.29999999425111
 30
0.0
 11
1.4000000000002615
 21
42.700207536082317
 31
0.0
  0
LINE
  5
8C
100
AcDbEntity
  8
0
  6
CONTINUOUS
 62
               4
100
AcDbLine
 10
16.400000000000148
 20
40.400000000003004
 30
0.0
 11
16.400000000000148
 21
41.999999994250871
 31
0.0
  0
ARC
  5
8D
100
AcDbEntity
  8
0
  6
CONTINUOUS
 62
               4
100
AcDbCircle
 10
1.700000000000216
 20
42.299999994251053
 30
0.0
 40
0.3
100
AcDbArc
 50
179.99999999999963
 51
269.99999999999937
  0
LINE
  5
8E
100
AcDbEntity
  8
0
  6
CONTINUOUS
 62
               4
100
AcDbLine
 10
17.200000000000216
 20
42.70020753608209
 30
0.0
 11
18.599999987452009
 21
42.700207536082033
 31
0.0
  0
ARC
  5
8F
100
AcDbEntity
  8
0
  6
CONTINUOUS
 62
               4
100
AcDbCircle
 10
16.900000000000148
 20
42.299999994250825
 30
0.0
 40
0.3
100
AcDbArc
 50
269.9999999999979
 51
359.99999999999767
  0
LINE
  5
90
100
AcDbEntity
  8
0
  6
CONTINUOUS
 62
               4
100
AcDbLine
 10
17.200000000000216
 20
42.299999994250825
 30
0.0
 11
17.200000000000216
 21
42.70020753608209
 31
0.0
  0
LINE
  5
91
100
AcDbEntity
  8
0
  6
CONTINUOUS
 62
               4
100
AcDbLine
 10
11.300000000000466
 20
57.500000000002004
 30
0.0
 11
17.300000000000466
 21
57.50000000000189
 31
0.0
  0
LINE
  5
92
100
AcDbEntity
  8
0
  6
CONTINUOUS
 62
               4
100
AcDbLine
 10
11.300000000000352
 20
50.500000000002004
 30
0.0
 11
17.300000000000352
 21
50.50000000000189
 31
0.0
  0
LINE
  5
93
100
AcDbEntity
  8
0
  6
CONTINUOUS
 62
               4
100
AcDbLine
 10
7.3000000000003524
 20
57.500000000002061
 30
0.0
 11
1.3000000000003524
 21
57.500000000002117
 31
0.0
  0
LINE
  5
94
100
AcDbEntity
  8
0
  6
CONTINUOUS
 62
               4
100
AcDbLine
 10
7.3000000000002387
 20
50.500000000002061
 30
0.0
 11
1.3000000000002387
 21
50.500000000002117
 31
0.0
  0
LINE
  5
95
100
AcDbEntity
  8
0
  6
CONTINUOUS
 62
               4
100
AcDbLine
 10
7.3000000000003524
 20
57.500000000002061
 30
0.0
 11
7.3000000000002387
 21
50.500000000002061
 31
0.0
  0
LINE
  5
96
100
AcDbEntity
  8
0
  6
CONTINUOUS
 62
               4
100
AcDbLine
 10
1.3000000000003524
 20
57.500000000002117
 30
0.0
 11
1.3000000000002387
 21
50.500000000002117
 31
0.0
  0
LINE
  5
97
100
AcDbEntity
  8
0
  6
CONTINUOUS
 62
               4
100
AcDbLine
 10
11.400000000000489
 20
57.400000000001981
 30
0.0
 11
17.200000000000443
 21
57.400000000001867
 31
0.0
  0
LINE
  5
98
100
AcDbEntity
  8
0
  6
CONTINUOUS
 62
               4
100
AcDbLine
 10
17.200000000000443
 20
57.400000000001867
 30
0.0
 11
17.200000000000443
 21
50.600000000001913
 31
0.0
  0
LINE
  5
99
100
AcDbEntity
  8
0
  6
CONTINUOUS
 62
               4
100
AcDbLine
 10
11.400000000000489
 20
57.400000000001981
 30
0.0
 11
11.400000000000375
 21
50.600000000002026
 31
0.0
  0
LINE
  5
9A
100
AcDbEntity
  8
0
  6
CONTINUOUS
 62
               4
100
AcDbLine
 10
11.400000000000375
 20
50.600000000002026
 30
0.0
 11
17.200000000000443
 21
50.600000000001913
 31
0.0
  0
LINE
  5
9B
100
AcDbEntity
  8
0
  6
CONTINUOUS
 62
               4
100
AcDbLine
 10
7.2000000000003297
 20
57.400000000002038
 30
0.0
 11
1.4000000000003752
 21
57.400000000002095
 31
0.0
  0
LINE
  5
9C
100
AcDbEntity
  8
0
  6
CONTINUOUS
 62
               4
100
AcDbLine
 10
1.4000000000003752
 20
57.400000000002095
 30
0.0
 11
1.4000000000002615
 21
50.60000000000214
 31
0.0
  0
LINE
  5
9D
100
AcDbEntity
  8
0
  6
CONTINUOUS
 62
               4
100
AcDbLine
 10
7.2000000000003297
 20
57.400000000002038
 30
0.0
 11
7.200000000000216
 21
50.600000000002083
 31
0.0
  0
LINE
  5
9E
100
AcDbEntity
  8
0
  6
CONTINUOUS
 62
               4
100
AcDbLine
 10
7.200000000000216
 20
50.600000000002083
 30
0.0
 11
1.4000000000002615
 21
50.60000000000214
 31
0.0
  0
LINE
  5
9F
100
AcDbEntity
  8
0
  6
CONTINUOUS
 62
               4
100
AcDbLine
 10
5.3000000000001251
 20
31.900000000003232
 30
0.0
 11
0.5000000000000568
 21
31.900000000003232
 31
0.0
  0
LINE
  5
A0
100
AcDbEntity
  8
0
  6
CONTINUOUS
 62
               4
100
AcDbLine
 10
-2.5999999999815202
 20
63.000000000010189
 30
0.0
 11
-2.6000000000035612
 21
24.000000000003368
 31
0.0
  0
LINE
  5
A1
100
AcDbEntity
  8
0
  6
CENTER
 62
               2
100
AcDbLine
 10
7.7999998092650449
 20
-24.999999948260623
 30
0.0
 11
7.799999809264933
 21
-4.9999999482606228
 31
0.0
  0
ENDBLK
  5
A2
100
AcDbEntity
  8
0
100
AcDbBlockEnd
  0
BLOCK
  5
A3
100
AcDbEntity
  8
0
100
AcDbBlockBegin
  2
PA24F7-2
 70
               0
 10
0.0
 20
0.0
 30
0.0
  3
PA24F7-2
  1

  0
LINE
  5
A4
100
AcDbEntity
  8
0
  6
CONTINUOUS
 62
               4
100
AcDbLine
 10
36.999999995466396
 20
26.600000027368424
 30
0.0
 11
36.999999995466482
 21
33.399999979684708
 31
0.0
  0
LINE
  5
A5
100
AcDbEntity
  8
0
  6
CONTINUOUS
 62
               4
100
AcDbLine
 10
35.800000000000665
 20
0.0000000000000284
 30
0.0
 11
35.79999999999788
 21
35.000000000001975
 31
0.0
  0
LINE
  5
A6
100
AcDbEntity
  8
0
  6
CONTINUOUS
 62
               4
100
AcDbLine
 10
0.0
 20
0.0
 30
0.0
 11
35.800000000000665
 21
0.0000000000000284
 31
0.0
  0
LINE
  5
A7
100
AcDbEntity
  8
0
  6
CONTINUOUS
 62
               4
100
AcDbLine
 10
4.5362284294550079
 20
7.9999999999993747
 30
0.0
 11
7.9000000000017678
 21
7.9999999999993179
 31
0.0
  0
ARC
  5
A8
100
AcDbEntity
  8
0
  6
CONTINUOUS
 62
               4
100
AcDbCircle
 10
6.3000000000003524
 20
7.4999999999993463
 30
0.0
 40
0.5
100
AcDbArc
 50
89.999999999999289
 51
179.99999999999909
  0
LINE
  5
A9
100
AcDbEntity
  8
0
  6
CONTINUOUS
 62
               4
100
AcDbLine
 10
5.8000000000002387
 20
5.799999999998505
 30
0.0
 11
5.8000000000003524
 21
7.4999999999994031
 31
0.0
  0
ARC
  5
AA
100
AcDbEntity
  8
0
  6
CONTINUOUS
 62
               4
100
AcDbCircle
 10
0.5000000000002842
 20
5.2999999999990166
 30
0.0
 40
0.5
100
AcDbArc
 50
89.999999999999289
 51
179.99999999999909
  0
LINE
  5
AB
100
AcDbEntity
  8
0
  6
CONTINUOUS
 62
               4
100
AcDbLine
 10
5.0000000000005684
 20
12.699999999992571
 30
0.0
 11
5.0000000000005684
 21
11.999999999999915
 31
0.0
  0
ARC
  5
AC
100
AcDbEntity
  8
0
  6
CONTINUOUS
 62
               4
100
AcDbCircle
 10
4.0071067811879857
 20
12.199999999992542
 30
0.0
 40
0.5
100
AcDbArc
 50
89.999999999994301
 51
134.99999999999389
  0
LINE
  5
AD
100
AcDbEntity
  8
0
  6
CONTINUOUS
 62
               4
100
AcDbLine
 10
0.5000000000002842
 20
5.7999999999990166
 30
0.0
 11
5.8000000000002387
 21
5.799999999998505
 31
0.0
  0
LINE
  5
AE
100
AcDbEntity
  8
0
  6
CONTINUOUS
 62
               4
100
AcDbLine
 10
2.0000000000008811
 20
8.1160795923634623
 30
0.0
 11
2.0000000000008811
 21
8.2000000093934204
 31
0.0
  0
LINE
  5
AF
100
AcDbEntity
  8
0
  6
CONTINUOUS
 62
               4
100
AcDbLine
 10
5.8000000000009777
 20
12.199999991712701
 30
0.0
 11
5.8000000000009777
 21
12.699999999992571
 31
0.0
  0
LINE
  5
B0
100
AcDbEntity
  8
0
  6
CONTINUOUS
 62
               4
100
AcDbLine
 10
4.0071067811879857
 20
12.699999999992542
 30
0.0
 11
5.8000000000009777
 21
12.699999999992571
 31
0.0
  0
LINE
  5
B1
100
AcDbEntity
  8
0
  6
CONTINUOUS
 62
               4
100
AcDbLine
 10
5.8000000000009777
 20
12.199999999992571
 30
0.0
 11
7.9000000000010004
 21
12.199999999992599
 31
0.0
  0
ARC
  5
B2
100
AcDbEntity
  8
0
  6
CONTINUOUS
 62
               4
100
AcDbCircle
 10
4.4499998092654209
 20
7.1937456130966098
 30
0.0
 40
0.800000011920929
100
AcDbArc
 50
359.99998201390514
 51
73.808645430463599
  0
ARC
  5
B3
100
AcDbEntity
  8
0
  6
CONTINUOUS
 62
               4
100
AcDbCircle
 10
1.5500001907351475
 20
7.1937456130968371
 30
0.0
 40
0.800000011920929
100
AcDbArc
 50
106.19135456952502
 51
180.00001798608344
  0
ARC
  5
B4
100
AcDbEntity
  8
0
  6
CONTINUOUS
 62
               4
100
AcDbCircle
 10
2.999999999999801
 20
2.1999998092637156
 30
0.0
 40
6.0
100
AcDbArc
 50
73.808717374820958
 51
106.19135456952502
  0
LINE
  5
B5
100
AcDbEntity
  8
0
  6
CONTINUOUS
 62
               4
100
AcDbLine
 10
5.2500000000002842
 20
7.1937456130964677
 30
0.0
 11
5.2500000000001705
 21
5.7999999999983345
 31
0.0
  0
LINE
  5
B6
100
AcDbEntity
  8
0
  6
CONTINUOUS
 62
               4
100
AcDbLine
 10
0.7500000000002842
 20
7.1937456130969224
 30
0.0
 11
0.7500000000001705
 21
5.7999999999987892
 31
0.0
  0
LINE
  5
B7
100
AcDbEntity
  8
0
  6
CONTINUOUS
 62
               4
100
AcDbLine
 10
3.1000000000072987
 20
11.999999999999829
 30
0.0
 11
3.6535533905940838
 21
12.553553390586615
 31
0.0
  0
LINE
  5
B8
100
AcDbEntity
  8
0
  6
CONTINUOUS
 62
               4
100
AcDbLine
 10
0.7500000000001705
 20
6.4999999999990052
 30
0.0
 11
5.2500000000001705
 21
6.4999999999985505
 31
0.0
  0
ARC
  5
B9
100
AcDbEntity
  8
0
  6
CONTINUOUS
 62
               4
100
AcDbCircle
 10
-5.6000000000018133
 20
14.065826257581051
 30
0.0
 40
0.5
100
AcDbArc
 50
179.99999999999909
 51
194.99999999999864
  0
ARC
  5
BA
100
AcDbEntity
  8
0
  6
CONTINUOUS
 62
               4
100
AcDbCircle
 10
-4.9124889263642899
 20
11.499999999999574
 30
0.0
 40
0.5
100
AcDbArc
 50
89.999999999999289
 51
194.99999999999901
  0
ARC
  5
BB
100
AcDbEntity
  8
0
  6
CONTINUOUS
 62
               4
100
AcDbCircle
 10
6.9000000000124828
 20
13.299999999999983
 30
0.0
 40
1.0
100
AcDbArc
 50
197.45760312372391
 51
0.0000000000076333
  0
ARC
  5
BC
100
AcDbEntity
  8
0
  6
CONTINUOUS
 62
               4
100
AcDbCircle
 10
-3.7785677023341862
 20
9.2000000093959216
 30
0.0
 40
1.0
100
AcDbArc
 50
194.99999981259751
 51
269.99999999999892
  0
LINE
  5
BD
100
AcDbEntity
  8
0
  6
CONTINUOUS
 62
               4
100
AcDbLine
 10
-4.7444935236397043
 20
8.9411809690149084
 30
0.0
 11
-6.0829629131463889
 21
13.936416735029724
 31
0.0
  0
LINE
  5
BE
100
AcDbEntity
  8
0
  6
CONTINUOUS
 62
               4
100
AcDbLine
 10
-5.8320508052162268
 20
12.999999999999517
 30
0.0
 11
7.4000000000122554
 21
13.000000000000028
 31
0.0
  0
ARC
  5
BF
100
AcDbEntity
  8
0
  6
CONTINUOUS
 62
               4
100
AcDbCircle
 10
7.4000000000121418
 20
13.500000000000028
 30
0.0
 40
0.5
100
AcDbArc
 50
270.00000000000142
 51
0.0000000000020356
  0
LINE
  5
C0
100
AcDbEntity
  8
0
  6
CONTINUOUS
 62
               4
100
AcDbLine
 10
-3.7785677023333903
 20
8.2000000093933636
 30
0.0
 11
7.1000000000034049
 21
8.2000000093935057
 31
0.0
  0
LINE
  5
C1
100
AcDbEntity
  8
0
  6
CONTINUOUS
 62
               4
100
AcDbLine
 10
-4.9124889263642899
 20
11.999999999999574
 30
0.0
 11
7.1000000000027512
 21
11.999999999999972
 31
0.0
  0
LINE
  5
C2
100
AcDbEntity
  8
0
  6
CONTINUOUS
 62
               4
100
AcDbLine
 10
0.5000000000019327
 20
11.999999999999801
 30
0.0
 11
0.5000000000019327
 21
12.999999999999801
 31
0.0
  0
LINE
  5
C3
100
AcDbEntity
  8
0
  6
CONTINUOUS
 62
               4
100
AcDbLine
 10
1.5000000000019327
 20
11.999999999999773
 30
0.0
 11
1.5000000000019327
 21
12.999999999999773
 31
0.0
  0
LINE
  5
C4
100
AcDbEntity
  8
0
  6
CONTINUOUS
 62
               4
100
AcDbLine
 10
7.6000000000034049
 20
8.7000000093936194
 30
0.0
 11
7.6000000000027512
 21
11.500000000000085
 31
0.0
  0
ARC
  5
C5
100
AcDbEntity
  8
0
  6
CONTINUOUS
 62
               4
100
AcDbCircle
 10
7.1000000000027512
 20
11.499999999999972
 30
0.0
 40
0.5
100
AcDbArc
 50
0.0000000000020356
 51
90.000000000001833
  0
ARC
  5
C6
100
AcDbEntity
  8
0
  6
CONTINUOUS
 62
               4
100
AcDbCircle
 10
7.1000000000034049
 20
8.7000000093935057
 30
0.0
 40
0.5
100
AcDbArc
 50
270.00000000000222
 51
0.0000000000020356
  0
LINE
  5
C7
100
AcDbEntity
  8
0
  6
CONTINUOUS
 62
               4
100
AcDbLine
 10
5.0000000000000853
 20
8.2000000093935057
 30
0.0
 11
5.0000000000000853
 21
7.9999999999999716
 31
0.0
  0
LINE
  5
C8
100
AcDbEntity
  8
0
  6
CONTINUOUS
 62
               4
100
AcDbLine
 10
-6.1000000000018133
 20
14.065826257580994
 30
0.0
 11
-6.1000000000025238
 21
35.999999973399639
 31
0.0
  0
LINE
  5
C9
100
AcDbEntity
  8
0
  6
CONTINUOUS
 62
               4
100
AcDbLine
 10
7.9000000000015405
 20
8.0000000000000568
 30
0.0
 11
7.8999999999975046
 21
40.000000000000014
 31
0.0
  0
LINE
  5
CA
100
AcDbEntity
  8
0
  6
CONTINUOUS
 62
               4
100
AcDbLine
 10
-0.0000000000002842
 20
0.0
 30
0.0
 11
0.0000000000002842
 21
5.2999999999990735
 31
0.0
  0
LINE
  5
CB
100
AcDbEntity
  8
0
  6
CONTINUOUS
 62
               4
100
AcDbLine
 10
35.799999999997766
 20
35.000000000001975
 30
0.0
 11
36.399999999997902
 21
35.000000000002018
 31
0.0
  0
LINE
  5
CC
100
AcDbEntity
  8
0
  6
CONTINUOUS
 62
               4
100
AcDbLine
 10
35.799999999997681
 20
38.000000000001975
 30
0.0
 11
36.39999999999759
 21
38.000000000002018
 31
0.0
  0
LINE
  5
CD
100
AcDbEntity
  8
0
  6
CONTINUOUS
 62
               4
100
AcDbLine
 10
35.799999999997681
 20
37.999999985762642
 30
0.0
 11
35.799999999997596
 21
39.999999985762585
 31
0.0
  0
ARC
  5
CE
100
AcDbEntity
  8
0
  6
CONTINUOUS
 62
               4
100
AcDbCircle
 10
36.399999999997704
 20
37.500000000002018
 30
0.0
 40
0.5
100
AcDbArc
 50
0.0000000000013231
 51
90.000000000001123
  0
ARC
  5
CF
100
AcDbEntity
  8
0
  6
CONTINUOUS
 62
               4
100
AcDbCircle
 10
36.399999999997704
 20
35.500000000002018
 30
0.0
 40
0.5
100
AcDbArc
 50
270.00000000000074
 51
0.0000000000013231
  0
LINE
  5
D0
100
AcDbEntity
  8
0
  6
CONTINUOUS
 62
               4
100
AcDbLine
 10
36.99999999546651
 20
26.599999999999994
 30
0.0
 11
36.899999995466487
 21
26.499999999999972
 31
0.0
  0
LINE
  5
D1
100
AcDbEntity
  8
0
  6
CONTINUOUS
 62
               4
100
AcDbLine
 10
36.899999990935697
 20
33.499999999999972
 30
0.0
 11
36.999999995466482
 21
33.399999995469187
 31
0.0
  0
ARC
  5
D2
100
AcDbEntity
  8
0
  6
CONTINUOUS
 62
               4
100
AcDbCircle
 10
36.399999999997618
 20
39.500000000000028
 30
0.0
 40
0.5
100
AcDbArc
 50
0.0000000000001018
 51
89.999999999999901
  0
LINE
  5
D3
100
AcDbEntity
  8
0
  6
CONTINUOUS
 62
               4
100
AcDbLine
 10
35.799999999997596
 20
39.999999999999986
 30
0.0
 11
36.399999999997618
 21
40.000000000000028
 31
0.0
  0
LINE
  5
D4
100
AcDbEntity
  8
0
  6
CONTINUOUS
 62
               4
100
AcDbLine
 10
36.899999995466686
 20
34.900000000001995
 30
0.0
 11
35.79999999999788
 21
34.900000000001953
 31
0.0
  0
LINE
  5
D5
100
AcDbEntity
  8
0
  6
CONTINUOUS
 62
               4
100
AcDbLine
 10
36.899999995466601
 20
38.100000000001984
 30
0.0
 11
35.79999999999734
 21
38.100000000001941
 31
0.0
  0
LINE
  5
D6
100
AcDbEntity
  8
0
  6
CONTINUOUS
 62
               4
100
AcDbLine
 10
36.899999995467368
 20
0.0
 30
0.0
 11
36.899999995466516
 21
39.500000000000028
 31
0.0
  0
LINE
  5
D7
100
AcDbEntity
  8
0
  6
CONTINUOUS
 62
               4
100
AcDbLine
 10
7.8999999999975046
 20
39.999999999999986
 30
0.0
 11
35.799999999997596
 21
39.999999999999986
 31
0.0
  0
LINE
  5
D8
100
AcDbEntity
  8
0
  6
CONTINUOUS
 62
               4
100
AcDbLine
 10
2.6499999954791349
 20
42.712435099956537
 30
0.0
 11
2.6499999954791349
 21
44.000872599956523
 31
0.0
  0
LINE
  5
D9
100
AcDbEntity
  8
0
  6
CONTINUOUS
 62
               4
100
AcDbLine
 10
1.1499999954791349
 20
42.340872599956583
 30
0.0
 11
1.1499999954791349
 21
44.000872599956551
 31
0.0
  0
LINE
  5
DA
100
AcDbEntity
  8
0
  6
CONTINUOUS
 62
               4
100
AcDbLine
 10
2.6499999954791349
 20
44.000872599956523
 30
0.0
 11
1.1499999954791349
 21
44.000872599956551
 31
0.0
  0
LINE
  5
DB
100
AcDbEntity
  8
0
  6
CONTINUOUS
 62
             200
100
AcDbLine
 10
0.2999999954791122
 20
42.080872599956592
 30
0.0
 11
3.4999999954791576
 21
42.940872599956464
 31
0.0
  0
LINE
  5
DC
100
AcDbEntity
  8
0
  6
CONTINUOUS
 62
             200
100
AcDbLine
 10
0.2999999954791122
 20
41.05087259995662
 30
0.0
 11
3.4999999954791576
 21
41.910872599956491
 31
0.0
  0
LINE
  5
DD
100
AcDbEntity
  8
0
  6
CONTINUOUS
 62
               4
100
AcDbLine
 10
2.1499999954791349
 20
44.000872599956523
 30
0.0
 11
2.1499999954793054
 21
47.500872599956523
 31
0.0
  0
LINE
  5
DE
100
AcDbEntity
  8
0
  6
CONTINUOUS
 62
               4
100
AcDbLine
 10
1.6499999954791349
 20
44.000872599956537
 30
0.0
 11
1.6499999954793054
 21
47.500872599956537
 31
0.0
  0
LINE
  5
DF
100
AcDbEntity
  8
0
  6
CONTINUOUS
 62
               4
100
AcDbLine
 10
1.1499999954790816
 20
36.99999999108865
 30
0.0
 11
1.1499999954791349
 21
41.279310099956547
 31
0.0
  0
LINE
  5
E0
100
AcDbEntity
  8
0
  6
CONTINUOUS
 62
               4
100
AcDbLine
 10
2.6499999954790852
 20
36.999999991088636
 30
0.0
 11
2.6499999954791349
 21
41.682435099956564
 31
0.0
  0
LINE
  5
E1
100
AcDbEntity
  8
0
  6
CENTER
 62
             200
100
AcDbLine
 10
1.8999999954791917
 20
36.510895800239027
 30
0.0
 11
1.8999999954796465
 21
48.410609842086487
 31
0.0
  0
LINE
  5
E2
100
AcDbEntity
  8
0
  6
CONTINUOUS
 62
               4
100
AcDbLine
 10
-5.1000000288909177
 20
36.999999991088714
 30
0.0
 11
3.3999999954786517
 21
36.999999991088629
 31
0.0
  0
ARC
  5
E3
100
AcDbEntity
  8
0
  6
CONTINUOUS
 62
               4
100
AcDbCircle
 10
-5.100000004533257
 20
14.131652503172234
 30
0.0
 40
1.0
100
AcDbArc
 50
179.99999999999909
 51
194.99999999999903
  0
ARC
  5
E4
100
AcDbEntity
  8
0
  6
CONTINUOUS
 62
               4
100
AcDbCircle
 10
3.3999999954786517
 20
37.500000000000085
 30
0.0
 40
0.5
100
AcDbArc
 50
269.99999999999886
 51
359.99999999999869
  0
LINE
  5
E5
100
AcDbEntity
  8
0
  6
CONTINUOUS
 62
               4
100
AcDbLine
 10
3.8999999954786801
 20
39.000000000000085
 30
0.0
 11
3.8999999954786517
 21
37.500000000000085
 31
0.0
  0
ARC
  5
E6
100
AcDbEntity
  8
0
  6
CONTINUOUS
 62
               4
100
AcDbCircle
 10
4.8999999954786801
 20
39.000000000000071
 30
0.0
 40
1.0
100
AcDbArc
 50
89.999999999999289
 51
179.99999999999909
  0
ARC
  5
E7
100
AcDbEntity
  8
0
  6
CONTINUOUS
 62
               4
100
AcDbCircle
 10
-5.1000000045207798
 20
36.000000000000171
 30
0.0
 40
1.0
100
AcDbArc
 50
89.999999999999289
 51
179.99999999999909
  0
LINE
  5
E8
100
AcDbEntity
  8
0
  6
CONTINUOUS
 62
               4
100
AcDbLine
 10
7.8999999999975046
 20
39.999999999999986
 30
0.0
 11
4.8999999954786801
 21
40.000000000000014
 31
0.0
  0
LINE
  5
E9
100
AcDbEntity
  8
0
  6
CONTINUOUS
 62
               4
100
AcDbLine
 10
2.1499999954793054
 20
47.500872599956523
 30
0.0
 11
1.6499999954793054
 21
47.500872599956537
 31
0.0
  0
ENDBLK
  5
EA
100
AcDbEntity
  8
0
100
AcDbBlockEnd
  0
BLOCK
  5
EB
100
AcDbEntity
  8
0
100
AcDbBlockBegin
  2
PA24F7-3
 70
               0
 10
0.0
 20
0.0
 30
0.0
  3
PA24F7-3
  1

  0
LINE
  5
EC
100
AcDbEntity
  8
0
  6
CENTER
 62
               2
100
AcDbLine
 10
-2.6713703633269588
 20
-0.0000000000006679
 30
0.0
 11
3.2398523996402582
 21
0.00000000000081
 31
0.0
  0
LINE
  5
ED
100
AcDbEntity
  8
0
  6
CONTINUOUS
 62
               7
100
AcDbLine
 10
-0.0000000000011937
 20
-82.500000000004476
 30
0.0
 11
36.999999999999147
 21
-82.500000000000952
 31
0.0
  0
CIRCLE
  5
EE
100
AcDbEntity
  8
0
  6
CONTINUOUS
 62
               7
100
AcDbCircle
 10
5.4999995302584352
 20
-15.499999850190065
 30
0.0
 40
2.7000000000000002
  0
CIRCLE
  5
EF
100
AcDbEntity
  8
0
  6
CONTINUOUS
 62
               7
100
AcDbCircle
 10
5.4999995302650291
 20
-40.499999850190065
 30
0.0
 40
2.7000000000000002
  0
LINE
  5
F0
100
AcDbEntity
  8
0
  6
CENTER
 62
               2
100
AcDbLine
 10
5.4999995302563889
 20
-7.9290665275061514
 30
0.0
 11
5.4999995302668481
 21
-47.533020180726439
 31
0.0
  0
LINE
  5
F1
100
AcDbEntity
  8
0
  6
CENTER
 62
               2
100
AcDbLine
 10
12.6513495450302
 20
-15.499999850188019
 30
0.0
 11
-1.5379493121213268
 21
-15.499999850191543
 31
0.0
  0
CIRCLE
  5
F2
100
AcDbEntity
  8
0
  6
CONTINUOUS
 62
               7
100
AcDbCircle
 10
5.4999995302650291
 20
-40.499999850190065
 30
0.0
 40
4.7000000000000002
  0
LINE
  5
F3
100
AcDbEntity
  8
0
  6
CENTER
 62
               2
100
AcDbLine
 10
12.65134954503668
 20
-40.499999850188019
 30
0.0
 11
-1.5379493121148466
 21
-40.499999850191543
 31
0.0
  0
CIRCLE
  5
F4
100
AcDbEntity
  8
0
  6
CONTINUOUS
 62
               7
100
AcDbCircle
 10
5.4999995302584352
 20
-15.499999850190065
 30
0.0
 40
4.7000000000000002
  0
LINE
  5
F5
100
AcDbEntity
  8
0
  6
CONTINUOUS
 62
               7
100
AcDbLine
 10
-0.0000000000011937
 20
-66.000000000004476
 30
0.0
 11
36.999999999999147
 21
-66.000000000000952
 31
0.0
  0
LINE
  5
F6
100
AcDbEntity
  8
0
  6
CONTINUOUS
 62
               7
100
AcDbLine
 10
36.899999995464498
 20
18.499999994243709
 30
0.0
 11
36.899999995464356
 21
23.99999999999666
 31
0.0
  0
LINE
  5
F7
100
AcDbEntity
  8
0
  6
CONTINUOUS
 62
               7
100
AcDbLine
 10
32.899999999994918
 20
23.799999999994739
 30
0.0
 11
35.799999999997397
 21
23.799999999994853
 31
0.0
  0
ARC
  5
F8
100
AcDbEntity
  8
0
  6
CONTINUOUS
 62
               7
100
AcDbCircle
 10
34.399999999995032
 20
13.999999999994785
 30
0.0
 40
2.0
100
AcDbArc
 50
180.00000000000196
 51
0.0000000000015267
  0
LINE
  5
F9
100
AcDbEntity
  8
0
  6
CONTINUOUS
 62
               7
100
AcDbLine
 10
36.399999999995032
 20
13.999999994243595
 30
0.0
 11
36.399999999995032
 21
17.999999994243595
 31
0.0
  0
ARC
  5
FA
100
AcDbEntity
  8
0
  6
CONTINUOUS
 62
               7
100
AcDbCircle
 10
36.399999999995032
 20
18.499999999994444
 30
0.0
 40
0.5
100
AcDbArc
 50
270.00000000000091
 51
0.0000000000015267
  0
ARC
  5
FB
100
AcDbEntity
  8
0
  6
CONTINUOUS
 62
               7
100
AcDbCircle
 10
32.899999999994918
 20
23.299999999994739
 30
0.0
 40
0.5
100
AcDbArc
 50
90.00000000000135
 51
180.00000000000114
  0
LINE
  5
FC
100
AcDbEntity
  8
0
  6
CONTINUOUS
 62
               7
100
AcDbLine
 10
-0.0000000000023306
 20
23.999999999994444
 30
0.0
 11
35.799999999997624
 21
23.999999999996604
 31
0.0
  0
LINE
  5
FD
100
AcDbEntity
  8
0
  6
CONTINUOUS
 62
               7
100
AcDbLine
 10
36.99999999999801
 20
17.999999999998991
 30
0.0
 11
37.000000000012498
 21
-95.500000000000981
 31
0.0
  0
LINE
  5
FE
100
AcDbEntity
  8
0
  6
CONTINUOUS
 62
               7
100
AcDbLine
 10
-0.0000000000011937
 20
8.9999999999954667
 30
0.0
 11
36.999999999999147
 21
8.999999999998991
 31
0.0
  0
LINE
  5
FF
100
AcDbEntity
  8
0
  6
CONTINUOUS
 62
               7
100
AcDbLine
 10
0.0000000000119873
 20
-95.500000000000981
 30
0.0
 11
-0.0000000000030127
 21
23.999999999994444
 31
0.0
  0
LINE
  5
100
100
AcDbEntity
  8
0
  6
CONTINUOUS
 62
               7
100
AcDbLine
 10
36.99999999999801
 20
17.999999999998991
 30
0.0
 11
35.799999999997851
 21
17.999999999998877
 31
0.0
  0
LINE
  5
101
100
AcDbEntity
  8
0
  6
CONTINUOUS
 62
               7
100
AcDbLine
 10
32.399999999997192
 20
23.999999999998423
 30
0.0
 11
32.399999999998556
 21
13.919155751113649
 31
0.0
  0
LINE
  5
102
100
AcDbEntity
  8
0
  6
CONTINUOUS
 62
               7
100
AcDbLine
 10
36.999999999567251
 20
10.499999999998991
 30
0.0
 11
33.554763555093757
 21
12.106540143488488
 31
0.0
  0
ARC
  5
103
100
AcDbEntity
  8
0
  6
CONTINUOUS
 62
               7
100
AcDbCircle
 10
34.399999999998556
 20
13.919155751113877
 30
0.0
 40
2.0
100
AcDbArc
 50
180.00000000000682
 51
245.00000149217658
  0
LINE
  5
104
100
AcDbEntity
  8
0
  6
CONTINUOUS
 62
               7
100
AcDbLine
 10
10.400000000012426
 20
-95.600000000001003
 30
0.0
 11
10.000000000012449
 21
-96.000000000000981
 31
0.0
  0
LINE
  5
105
100
AcDbEntity
  8
0
  6
CONTINUOUS
 62
               7
100
AcDbLine
 10
26.600000000012358
 20
-95.600000000001003
 30
0.0
 11
27.000000000012449
 21
-96.000000000000981
 31
0.0
  0
LINE
  5
106
100
AcDbEntity
  8
0
  6
CONTINUOUS
 62
               7
100
AcDbLine
 10
10.400000000012426
 20
-95.600000000001003
 30
0.0
 11
26.600000000012358
 21
-95.600000000001003
 31
0.0
  0
LINE
  5
107
100
AcDbEntity
  8
0
  6
CONTINUOUS
 62
               7
100
AcDbLine
 10
27.000000000012449
 20
-96.000000000000981
 30
0.0
 11
36.500000000012449
 21
-96.000000000000981
 31
0.0
  0
ARC
  5
108
100
AcDbEntity
  8
0
  6
CONTINUOUS
 62
               7
100
AcDbCircle
 10
0.5000000000123919
 20
-95.500000000000981
 30
0.0
 40
0.5
100
AcDbArc
 50
179.99999999999963
 51
269.99999999999937
  0
LINE
  5
109
100
AcDbEntity
  8
0
  6
CONTINUOUS
 62
               7
100
AcDbLine
 10
0.5000000000123919
 20
-96.000000000000981
 30
0.0
 11
10.000000000012449
 21
-96.000000000000981
 31
0.0
  0
ARC
  5
10A
100
AcDbEntity
  8
0
  6
CONTINUOUS
 62
               7
100
AcDbCircle
 10
36.500000000012449
 20
-95.500000000000981
 30
0.0
 40
0.5
100
AcDbArc
 50
269.99999999999937
 51
0.0
  0
LINE
  5
10B
100
AcDbEntity
  8
0
  6
CENTER
 62
               2
100
AcDbLine
 10
32.328629636673043
 20
-0.0000000000006679
 30
0.0
 11
38.239852399640256
 21
0.00000000000081
 31
0.0
  0
LINE
  5
10C
100
AcDbEntity
  8
0
  6
CONTINUOUS
 62
               7
100
AcDbLine
 10
33.999999992526512
 20
3.0397368307137782
 30
0.0
 11
37.000000000015518
 21
3.0397368307143466
 31
0.0
  0
LINE
  5
10D
100
AcDbEntity
  8
0
  6
CONTINUOUS
 62
               7
100
AcDbLine
 10
33.999999992527989
 20
-3.0397368307142045
 30
0.0
 11
37.000000000016996
 21
-3.0397368307136361
 31
0.0
  0
LINE
  5
10E
100
AcDbEntity
  8
0
  6
CONTINUOUS
 62
               7
100
AcDbLine
 10
34.000000000016996
 20
-3.0397368307142045
 30
0.0
 11
34.000000000015518
 21
3.0397368307137782
 31
0.0
  0
LINE
  5
10F
100
AcDbEntity
  8
0
  6
CONTINUOUS
 62
               7
100
AcDbLine
 10
35.799999999997851
 20
17.999999999998877
 30
0.0
 11
35.799999999997368
 21
23.999999999996604
 31
0.0
  0
LINE
  5
110
100
AcDbEntity
  8
0
  6
CONTINUOUS
 62
               7
100
AcDbLine
 10
0.0000000278136554
 20
-53.267949153683205
 30
0.0
 11
37.000000027813655
 21
-53.267949153683205
 31
0.0
  0
LINE
  5
111
100
AcDbEntity
  8
0
  6
CONTINUOUS
 62
               7
100
AcDbLine
 10
0.0000000278136554
 20
-54.999999989766522
 30
0.0
 11
37.000000027813655
 21
-54.999999989766522
 31
0.0
  0
LINE
  5
112
100
AcDbEntity
  8
0
  6
CONTINUOUS
 62
               7
100
AcDbLine
 10
0.0000000278136554
 20
-58.999999999996575
 30
0.0
 11
37.000000027813655
 21
-58.999999999996575
 31
0.0
  0
LINE
  5
113
100
AcDbEntity
  8
0
  6
CONTINUOUS
 62
               7
100
AcDbLine
 10
0.0000000278136554
 20
-60.732050880259564
 30
0.0
 11
37.000000027813655
 21
-60.732050880259564
 31
0.0
  0
LINE
  5
114
100
AcDbEntity
  8
0
  6
CONTINUOUS
 62
               4
100
AcDbLine
 10
35.799999999998121
 20
23.999999999996973
 30
0.0
 11
35.799999999995237
 21
58.999999999997371
 31
0.0
  0
LINE
  5
115
100
AcDbEntity
  8
0
  6
CONTINUOUS
 62
               4
100
AcDbLine
 10
-7.0999999999926899
 20
41.599999999995404
 30
0.0
 11
-7.0999999999924626
 21
44.999999999995438
 31
0.0
  0
LINE
  5
116
100
AcDbEntity
  8
0
  6
CONTINUOUS
 62
             200
100
AcDbLine
 10
-9.6508726088605385
 20
41.699999999995427
 30
0.0
 11
-10.510872608860439
 21
44.899999999995472
 31
0.0
  0
LINE
  5
117
100
AcDbEntity
  8
0
  6
CONTINUOUS
 62
             200
100
AcDbLine
 10
-10.680872608860511
 20
41.699999999995427
 30
0.0
 11
-11.540872608860411
 21
44.899999999995472
 31
0.0
  0
LINE
  5
118
100
AcDbEntity
  8
0
  6
CONTINUOUS
 62
               4
100
AcDbLine
 10
-17.60087260886047
 20
43.549999999995563
 30
0.0
 11
-17.60087260886047
 21
43.049999999995563
 31
0.0
  0
LINE
  5
119
100
AcDbEntity
  8
0
  6
CONTINUOUS
 62
               4
100
AcDbLine
 10
-14.100872608860472
 20
44.04999999999545
 30
0.0
 11
-14.100872608860472
 21
42.549999999995507
 31
0.0
  0
LINE
  5
11A
100
AcDbEntity
  8
0
  6
CONTINUOUS
 62
               4
100
AcDbLine
 10
-14.100872608860472
 20
43.549999999995507
 30
0.0
 11
-17.60087260886047
 21
43.549999999995563
 31
0.0
  0
LINE
  5
11B
100
AcDbEntity
  8
0
  6
CONTINUOUS
 62
               4
100
AcDbLine
 10
-14.100872608860472
 20
43.049999999995507
 30
0.0
 11
-17.60087260886047
 21
43.049999999995563
 31
0.0
  0
LINE
  5
11C
100
AcDbEntity
  8
0
  6
CONTINUOUS
 62
               4
100
AcDbLine
 10
-10.940872608860502
 20
42.549999999995507
 30
0.0
 11
-14.100872608860472
 21
42.549999999995507
 31
0.0
  0
LINE
  5
11D
100
AcDbEntity
  8
0
  6
CONTINUOUS
 62
               4
100
AcDbLine
 10
-11.312435108860484
 20
44.04999999999545
 30
0.0
 11
-14.100872608860472
 21
44.04999999999545
 31
0.0
  0
ARC
  5
11E
100
AcDbEntity
  8
0
  6
CONTINUOUS
 62
               4
100
AcDbCircle
 10
-6.799999999992508
 20
41.599999999995404
 30
0.0
 40
0.3
100
AcDbArc
 50
179.99999999999963
 51
269.99999999999937
  0
ARC
  5
11F
100
AcDbEntity
  8
0
  6
CONTINUOUS
 62
               4
100
AcDbCircle
 10
-6.799999999992508
 20
44.999999999995381
 30
0.0
 40
0.3
100
AcDbArc
 50
89.999999999999815
 51
179.99999999999963
  0
LINE
  5
120
100
AcDbEntity
  8
0
  6
CONTINUOUS
 62
               4
100
AcDbLine
 10
-6.799999999992508
 20
41.299999999995393
 30
0.0
 11
-6.0999999999924626
 21
41.299999999995393
 31
0.0
  0
LINE
  5
121
100
AcDbEntity
  8
0
  6
CONTINUOUS
 62
               4
100
AcDbLine
 10
-6.799999999992508
 20
45.299999999995393
 30
0.0
 11
-6.0999999999924626
 21
45.299999999995393
 31
0.0
  0
LINE
  5
122
100
AcDbEntity
  8
0
  6
CONTINUOUS
 62
               4
100
AcDbLine
 10
-7.0999999999925762
 20
42.54999999999545
 30
0.0
 11
-9.8793101088604658
 21
42.54999999999545
 31
0.0
  0
LINE
  5
123
100
AcDbEntity
  8
0
  6
CONTINUOUS
 62
               4
100
AcDbLine
 10
-7.0999999999924626
 20
44.04999999999545
 30
0.0
 11
-10.282435108860511
 21
44.04999999999545
 31
0.0
  0
LINE
  5
124
100
AcDbEntity
  8
0
  6
CENTER
 62
             200
100
AcDbLine
 10
-4.6108958091429599
 20
43.299999999995563
 30
0.0
 11
-18.51060985099042
 21
43.299999999995904
 31
0.0
  0
LINE
  5
125
100
AcDbEntity
  8
0
  6
CONTINUOUS
 62
               4
100
AcDbLine
 10
36.899999995463986
 20
62.099999999997394
 30
0.0
 11
35.799999999994668
 21
62.099999999997337
 31
0.0
  0
LINE
  5
126
100
AcDbEntity
  8
0
  6
CONTINUOUS
 62
               4
100
AcDbLine
 10
36.8999999954641
 20
58.899999999997405
 30
0.0
 11
35.799999999995237
 21
58.899999999997348
 31
0.0
  0
LINE
  5
127
100
AcDbEntity
  8
0
  6
CONTINUOUS
 62
               4
100
AcDbLine
 10
35.799999999994952
 20
63.999999999995381
 30
0.0
 11
36.399999999994975
 21
63.999999999995438
 31
0.0
  0
ARC
  5
128
100
AcDbEntity
  8
0
  6
CONTINUOUS
 62
               4
100
AcDbCircle
 10
36.399999999994975
 20
63.499999999995438
 30
0.0
 40
0.5
100
AcDbArc
 50
0.0000000000006361
 51
90.000000000000441
  0
LINE
  5
129
100
AcDbEntity
  8
0
  6
CONTINUOUS
 62
               4
100
AcDbLine
 10
36.999999995463952
 20
50.599999999995404
 30
0.0
 11
36.999999995463895
 21
57.399999995464597
 31
0.0
  0
LINE
  5
12A
100
AcDbEntity
  8
0
  6
CONTINUOUS
 62
               4
100
AcDbLine
 10
36.899999990933111
 20
57.499999999995381
 30
0.0
 11
36.999999995463895
 21
57.399999995464597
 31
0.0
  0
LINE
  5
12B
100
AcDbEntity
  8
0
  6
CONTINUOUS
 62
               4
100
AcDbLine
 10
36.999999995463952
 20
50.599999999995404
 30
0.0
 11
36.899999995463929
 21
50.499999999995381
 31
0.0
  0
LINE
  5
12C
100
AcDbEntity
  8
0
  6
CONTINUOUS
 62
               4
100
AcDbLine
 10
4.9999999999976694
 20
32.200000009388631
 30
0.0
 11
4.9999999999976694
 21
31.999999999995097
 31
0.0
  0
LINE
  5
12D
100
AcDbEntity
  8
0
  6
CONTINUOUS
 62
               4
100
AcDbLine
 10
-6.100000000004286
 20
38.065826257576006
 30
0.0
 11
-6.1000000000051955
 21
59.999999973394651
 31
0.0
  0
ARC
  5
12E
100
AcDbEntity
  8
0
  6
CONTINUOUS
 62
               4
100
AcDbCircle
 10
7.1000000000009891
 20
32.700000009388631
 30
0.0
 40
0.5
100
AcDbArc
 50
270.00000000000267
 51
0.0000000000025444
  0
ARC
  5
12F
100
AcDbEntity
  8
0
  6
CONTINUOUS
 62
               4
100
AcDbCircle
 10
7.100000000000307
 20
35.499999999995097
 30
0.0
 40
0.5
100
AcDbArc
 50
0.000000000002519
 51
90.000000000002316
  0
LINE
  5
130
100
AcDbEntity
  8
0
  6
CONTINUOUS
 62
               4
100
AcDbLine
 10
7.6000000000009891
 20
32.700000009388745
 30
0.0
 11
7.600000000000307
 21
35.499999999995211
 31
0.0
  0
LINE
  5
131
100
AcDbEntity
  8
0
  6
CONTINUOUS
 62
               4
100
AcDbLine
 10
1.4999999999994884
 20
35.99999999999487
 30
0.0
 11
1.4999999999994884
 21
36.99999999999487
 31
0.0
  0
LINE
  5
132
100
AcDbEntity
  8
0
  6
CONTINUOUS
 62
               4
100
AcDbLine
 10
0.4999999999994884
 20
35.99999999999487
 30
0.0
 11
0.4999999999994884
 21
36.99999999999487
 31
0.0
  0
LINE
  5
133
100
AcDbEntity
  8
0
  6
CONTINUOUS
 62
               4
100
AcDbLine
 10
-4.9124889263667342
 20
35.999999999994586
 30
0.0
 11
7.100000000000307
 21
35.999999999995097
 31
0.0
  0
LINE
  5
134
100
AcDbEntity
  8
0
  6
CONTINUOUS
 62
               4
100
AcDbLine
 10
-3.7785677023358057
 20
32.200000009388404
 30
0.0
 11
7.1000000000009891
 21
32.200000009388631
 31
0.0
  0
ARC
  5
135
100
AcDbEntity
  8
0
  6
CONTINUOUS
 62
               4
100
AcDbCircle
 10
7.4000000000096975
 20
37.499999999995154
 30
0.0
 40
0.5
100
AcDbArc
 50
270.00000000000193
 51
0.0000000000081422
  0
LINE
  5
136
100
AcDbEntity
  8
0
  6
CONTINUOUS
 62
               4
100
AcDbLine
 10
-5.832050805218671
 20
36.999999999994529
 30
0.0
 11
7.4000000000098112
 21
36.999999999995154
 31
0.0
  0
LINE
  5
137
100
AcDbEntity
  8
0
  6
CONTINUOUS
 62
               4
100
AcDbLine
 10
-5.1000000012896294
 20
60.999999982170479
 30
0.0
 11
3.3999999987103706
 21
60.999999982170479
 31
0.0
  0
ARC
  5
138
100
AcDbEntity
  8
0
  6
CONTINUOUS
 62
               4
100
AcDbCircle
 10
-5.1000000000051955
 20
59.999999982170479
 30
0.0
 40
1.0
100
AcDbArc
 50
89.999999999999815
 51
179.99999999999963
  0
LINE
  5
139
100
AcDbEntity
  8
0
  6
CONTINUOUS
 62
               4
100
AcDbLine
 10
4.8999999999941224
 20
63.999999999995097
 30
0.0
 11
7.8999999999948045
 21
63.999999999995126
 31
0.0
  0
ARC
  5
13A
100
AcDbEntity
  8
0
  6
CONTINUOUS
 62
               4
100
AcDbCircle
 10
4.8999999999941224
 20
62.999999999995097
 30
0.0
 40
1.0
100
AcDbArc
 50
89.999999999999815
 51
179.99999999999963
  0
ARC
  5
13B
100
AcDbEntity
  8
0
  6
CONTINUOUS
 62
               4
100
AcDbCircle
 10
3.3999999999941224
 20
61.499999982170479
 30
0.0
 40
0.5
100
AcDbArc
 50
269.99999999999937
 51
0.0
  0
LINE
  5
13C
100
AcDbEntity
  8
0
  6
CONTINUOUS
 62
               4
100
AcDbLine
 10
3.8999999999941224
 20
62.999999999995097
 30
0.0
 11
3.8999999999941224
 21
61.499999982170479
 31
0.0
  0
LINE
  5
13D
100
AcDbEntity
  8
0
  6
CONTINUOUS
 62
               4
100
AcDbLine
 10
-4.7444935236421202
 20
32.941180969009949
 30
0.0
 11
-6.0829629131488332
 21
37.936416735024736
 31
0.0
  0
ARC
  5
13E
100
AcDbEntity
  8
0
  6
CONTINUOUS
 62
               4
100
AcDbCircle
 10
-3.7785677023366016
 20
33.200000009390962
 30
0.0
 40
1.0
100
AcDbArc
 50
194.99999981259796
 51
269.99999999999937
  0
ARC
  5
13F
100
AcDbEntity
  8
0
  6
CONTINUOUS
 62
               4
100
AcDbCircle
 10
6.9000000000100385
 20
37.299999999995109
 30
0.0
 40
1.0
100
AcDbArc
 50
197.45760312372443
 51
0.0000000000081422
  0
ARC
  5
140
100
AcDbEntity
  8
0
  6
CONTINUOUS
 62
               4
100
AcDbCircle
 10
-4.9124889263667342
 20
35.499999999994586
 30
0.0
 40
0.5
100
AcDbArc
 50
89.999999999999815
 51
194.99999999999952
  0
ARC
  5
141
100
AcDbEntity
  8
0
  6
CONTINUOUS
 62
               4
100
AcDbCircle
 10
-5.600000000004286
 20
38.065826257576063
 30
0.0
 40
0.5
100
AcDbArc
 50
179.99999999999963
 51
194.99999999999918
  0
LINE
  5
142
100
AcDbEntity
  8
0
  6
CONTINUOUS
 62
               4
100
AcDbLine
 10
0.7499999999977831
 20
30.499999999994074
 30
0.0
 11
5.2499999999977831
 21
30.499999999993676
 31
0.0
  0
ARC
  5
143
100
AcDbEntity
  8
0
  6
CONTINUOUS
 62
               4
100
AcDbCircle
 10
36.399999999995089
 20
59.499999999997428
 30
0.0
 40
0.5
100
AcDbArc
 50
270.00000000000125
 51
0.000000000001832
  0
ARC
  5
144
100
AcDbEntity
  8
0
  6
CONTINUOUS
 62
               4
100
AcDbCircle
 10
36.399999999995032
 20
61.499999999997428
 30
0.0
 40
0.5
100
AcDbArc
 50
0.0000000000018066
 51
90.000000000001606
  0
LINE
  5
145
100
AcDbEntity
  8
0
  6
CONTINUOUS
 62
               4
100
AcDbLine
 10
35.799999999995066
 20
61.999999985758038
 30
0.0
 11
35.799999999994952
 21
63.999999985757981
 31
0.0
  0
LINE
  5
146
100
AcDbEntity
  8
0
  6
CONTINUOUS
 62
               4
100
AcDbLine
 10
35.799999999995066
 20
61.999999999997371
 30
0.0
 11
36.399999999994975
 21
61.999999999997428
 31
0.0
  0
LINE
  5
147
100
AcDbEntity
  8
0
  6
CONTINUOUS
 62
               4
100
AcDbLine
 10
35.79999999999518
 20
58.999999999997371
 30
0.0
 11
36.399999999995259
 21
58.999999999997428
 31
0.0
  0
LINE
  5
148
100
AcDbEntity
  8
0
  6
CONTINUOUS
 62
               4
100
AcDbLine
 10
3.1000000000048544
 20
35.999999999994927
 30
0.0
 11
3.6535533905916395
 21
36.553553390581712
 31
0.0
  0
LINE
  5
149
100
AcDbEntity
  8
0
  6
CONTINUOUS
 62
               4
100
AcDbLine
 10
5.7999999999978513
 20
36.19999999170885
 30
0.0
 11
5.7999999999978513
 21
36.699999999988719
 31
0.0
  0
LINE
  5
14A
100
AcDbEntity
  8
0
  6
CONTINUOUS
 62
               4
100
AcDbLine
 10
4.0071067811847456
 20
36.699999999988435
 30
0.0
 11
5.7999999999978513
 21
36.699999999988719
 31
0.0
  0
LINE
  5
14B
100
AcDbEntity
  8
0
  6
CONTINUOUS
 62
               4
100
AcDbLine
 10
5.7999999999978513
 20
36.199999999988719
 30
0.0
 11
7.8999999999978741
 21
36.199999999989004
 31
0.0
  0
LINE
  5
14C
100
AcDbEntity
  8
0
  6
CONTINUOUS
 62
               4
100
AcDbLine
 10
7.8999999999991246
 20
31.999999999995211
 30
0.0
 11
7.8999999999948045
 21
63.999999999995154
 31
0.0
  0
LINE
  5
14D
100
AcDbEntity
  8
0
  6
CONTINUOUS
 62
               4
100
AcDbLine
 10
7.8999999999954866
 20
58.099999998895655
 30
0.0
 11
7.7999999999955776
 21
58.099999998895655
 31
0.0
  0
LINE
  5
14E
100
AcDbEntity
  8
0
  6
CONTINUOUS
 62
               4
100
AcDbLine
 10
-0.0000000000023306
 20
23.999999999994415
 30
0.0
 11
-0.0000000000021032
 21
29.299999999994142
 31
0.0
  0
LINE
  5
14F
100
AcDbEntity
  8
0
  6
CONTINUOUS
 62
               4
100
AcDbLine
 10
0.7499999999978968
 20
31.193745613091991
 30
0.0
 11
0.7499999999977831
 21
29.799999999993858
 31
0.0
  0
LINE
  5
150
100
AcDbEntity
  8
0
  6
CONTINUOUS
 62
               4
100
AcDbLine
 10
5.2499999999978968
 20
31.193745613091593
 30
0.0
 11
5.2499999999977831
 21
29.79999999999346
 31
0.0
  0
ARC
  5
151
100
AcDbEntity
  8
0
  6
CONTINUOUS
 62
               4
100
AcDbCircle
 10
2.999999999997442
 20
26.199999809258813
 30
0.0
 40
6.0
100
AcDbArc
 50
73.80871737482147
 51
106.19135456952553
  0
ARC
  5
152
100
AcDbEntity
  8
0
  6
CONTINUOUS
 62
               4
100
AcDbCircle
 10
1.5500001907327601
 20
31.193745613091934
 30
0.0
 40
0.800000011920929
100
AcDbArc
 50
106.19135456952553
 51
180.00001798608395
  0
ARC
  5
153
100
AcDbEntity
  8
0
  6
CONTINUOUS
 62
               4
100
AcDbCircle
 10
4.4499998092630335
 20
31.193745613091707
 30
0.0
 40
0.800000011920929
100
AcDbArc
 50
359.99998201390565
 51
73.808645430464111
  0
LINE
  5
154
100
AcDbEntity
  8
0
  6
CONTINUOUS
 62
               4
100
AcDbLine
 10
1.9999999999984652
 20
32.11607959235856
 30
0.0
 11
1.9999999999984652
 21
32.200000009388518
 31
0.0
  0
LINE
  5
155
100
AcDbEntity
  8
0
  6
CONTINUOUS
 62
               4
100
AcDbLine
 10
0.4999999999978968
 20
29.799999999994085
 30
0.0
 11
5.7999999999978513
 21
29.799999999993631
 31
0.0
  0
ARC
  5
156
100
AcDbEntity
  8
0
  6
CONTINUOUS
 62
               4
100
AcDbCircle
 10
4.0071067811855414
 20
36.199999999987639
 30
0.0
 40
0.5
100
AcDbArc
 50
89.999999999994813
 51
134.9999999999944
  0
LINE
  5
157
100
AcDbEntity
  8
0
  6
CONTINUOUS
 62
               4
100
AcDbLine
 10
4.9999999999981242
 20
36.699999999987696
 30
0.0
 11
4.9999999999981242
 21
35.99999999999504
 31
0.0
  0
ARC
  5
158
100
AcDbEntity
  8
0
  6
CONTINUOUS
 62
               4
100
AcDbCircle
 10
0.4999999999978968
 20
29.299999999994085
 30
0.0
 40
0.5
100
AcDbArc
 50
89.999999999999815
 51
179.99999999999963
  0
LINE
  5
159
100
AcDbEntity
  8
0
  6
CONTINUOUS
 62
               4
100
AcDbLine
 10
5.7999999999978513
 20
29.799999999993631
 30
0.0
 11
5.799999999997965
 21
31.499999999994529
 31
0.0
  0
ARC
  5
15A
100
AcDbEntity
  8
0
  6
CONTINUOUS
 62
               4
100
AcDbCircle
 10
6.299999999997965
 20
31.499999999994472
 30
0.0
 40
0.5
100
AcDbArc
 50
89.999999999999815
 51
179.99999999999963
  0
LINE
  5
15B
100
AcDbEntity
  8
0
  6
CONTINUOUS
 62
               4
100
AcDbLine
 10
4.5362284294525921
 20
31.999999999994472
 30
0.0
 11
7.899999999999352
 21
31.999999999994472
 31
0.0
  0
ARC
  5
15D
100
AcDbEntity
  8
0
  6
PHANTOM
 62
             200
100
AcDbCircle
 10
35.900000006130938
 20
41.39999999999678
 30
0.0
 40
9.4000000000000004
100
AcDbArc
 50
276.0724563429203
 51
1.2188752351314154
  0
LINE
  5
15E
100
AcDbEntity
  8
0
  6
PHANTOM
 62
             200
100
AcDbLine
 10
37.50000000613062
 20
41.899999999996922
 30
0.0
 11
35.900000006131052
 21
41.89999999999678
 31
0.0
  0
LINE
  5
15F
100
AcDbEntity
  8
0
  6
PHANTOM
 62
             200
100
AcDbLine
 10
37.500000006130733
 20
41.899999999996922
 30
0.0
 11
37.500000006130847
 21
40.899999999993682
 31
0.0
  0
LINE
  5
160
100
AcDbEntity
  8
0
  6
PHANTOM
 62
             200
100
AcDbLine
 10
44.800000006131256
 20
40.89999999999354
 30
0.0
 11
35.900000006131279
 21
40.899999999993625
 31
0.0
  0
LINE
  5
161
100
AcDbEntity
  8
0
  6
PHANTOM
 62
             200
100
AcDbLine
 10
44.300000006131256
 20
38.799999999993517
 30
0.0
 11
38.500000006131302
 21
38.799999999993545
 31
0.0
  0
LINE
  5
162
100
AcDbEntity
  8
0
  6
PHANTOM
 62
             200
100
AcDbLine
 10
44.800000006131484
 20
39.499999999993676
 30
0.0
 11
38.000000006131302
 21
39.499999999993562
 31
0.0
  0
LINE
  5
163
100
AcDbEntity
  8
0
  6
PHANTOM
 62
             200
100
AcDbLine
 10
44.80000000613137
 20
40.699999999993494
 30
0.0
 11
38.000000006131302
 21
40.699999999993494
 31
0.0
  0
LINE
  5
164
100
AcDbEntity
  8
0
  6
PHANTOM
 62
             200
100
AcDbLine
 10
38.600000006131211
 20
40.699999999993665
 30
0.0
 11
38.600000006131211
 21
39.499999999993449
 31
0.0
  0
LINE
  5
165
100
AcDbEntity
  8
0
  6
PHANTOM
 62
             200
100
AcDbLine
 10
38.000000006131302
 20
39.499999999993562
 30
0.0
 11
38.000000006131302
 21
39.299999999993517
 31
0.0
  0
LINE
  5
166
100
AcDbEntity
  8
0
  6
PHANTOM
 62
             200
100
AcDbLine
 10
38.000000006131188
 20
40.899999995466388
 30
0.0
 11
38.000000006131188
 21
40.700000013347832
 31
0.0
  0
LINE
  5
167
100
AcDbEntity
  8
0
  6
PHANTOM
 62
             200
100
AcDbLine
 10
44.250000006131529
 20
40.699999999993551
 30
0.0
 11
44.250000006131643
 21
39.499999999993392
 31
0.0
  0
LINE
  5
168
100
AcDbEntity
  8
0
  6
PHANTOM
 62
             200
100
AcDbLine
 10
44.800000006131484
 20
39.499999999993676
 30
0.0
 11
44.800000006131256
 21
39.299999999993034
 31
0.0
  0
LINE
  5
169
100
AcDbEntity
  8
0
  6
PHANTOM
 62
             200
100
AcDbLine
 10
44.800000006131143
 20
41.599999999996825
 30
0.0
 11
44.800000006131256
 21
40.700000013347349
 31
0.0
  0
LINE
  5
16A
100
AcDbEntity
  8
0
  6
PHANTOM
 62
             200
100
AcDbLine
 10
45.300000006131938
 20
42.099999999996854
 30
0.0
 11
45.300000006132052
 21
41.599999999996825
 31
0.0
  0
LINE
  5
16B
100
AcDbEntity
  8
0
  6
PHANTOM
 62
             200
100
AcDbLine
 10
45.000000006131984
 20
42.399999999996808
 30
0.0
 11
37.800000006130688
 21
42.399999999996808
 31
0.0
  0
ARC
  5
16C
100
AcDbEntity
  8
0
  6
PHANTOM
 62
             200
100
AcDbCircle
 10
37.800000006130688
 20
42.099999999996825
 30
0.0
 40
0.3
100
AcDbArc
 50
89.999999999999815
 51
179.99999999999963
  0
ARC
  5
16D
100
AcDbEntity
  8
0
  6
PHANTOM
 62
             200
100
AcDbCircle
 10
45.000000006131984
 20
42.099999999996825
 30
0.0
 40
0.3
100
AcDbArc
 50
0.0
 51
89.999999999999815
  0
LINE
  5
16E
100
AcDbEntity
  8
0
  6
CENTER
 62
             200
100
AcDbLine
 10
41.400000006131393
 20
43.027574068768317
 30
0.0
 11
41.400000006131393
 21
37.72196388107416
 31
0.0
  0
ARC
  5
16F
100
AcDbEntity
  8
0
  6
PHANTOM
 62
             200
100
AcDbCircle
 10
38.500000006131302
 20
39.299999999993545
 30
0.0
 40
0.5
100
AcDbArc
 50
179.99999999999963
 51
269.99999999999937
  0
ARC
  5
170
100
AcDbEntity
  8
0
  6
PHANTOM
 62
             200
100
AcDbCircle
 10
44.300000006131256
 20
39.299999999993517
 30
0.0
 40
0.5
100
AcDbArc
 50
269.99999999999937
 51
0.0
  0
LINE
  5
171
100
AcDbEntity
  8
0
  6
PHANTOM
 62
             200
100
AcDbLine
 10
45.300000006132052
 20
41.599999999996825
 30
0.0
 11
44.800000006131143
 21
41.599999999996825
 31
0.0
  0
LINE
  5
172
100
AcDbEntity
  8
0
  6
PHANTOM
 62
             200
100
AcDbLine
 10
37.50000000613062
 20
42.099999994224547
 30
0.0
 11
37.50000000613062
 21
41.900000006145476
 31
0.0
  0
LINE
  5
173
100
AcDbEntity
  8
0
  6
CONTINUOUS
 62
               4
100
AcDbLine
 10
36.899999995465024
 20
23.999999999997058
 30
0.0
 11
36.899999995463872
 21
63.499999999995438
 31
0.0
  0
LINE
  5
174
100
AcDbEntity
  8
0
  6
CONTINUOUS
 62
               4
100
AcDbLine
 10
7.8999999999948045
 20
63.999999999995126
 30
0.0
 11
35.799999999994952
 21
63.999999999995381
 31
0.0
  0
ENDBLK
  5
175
100
AcDbEntity
  8
0
100
AcDbBlockEnd
  0
BLOCK
  5
176
100
AcDbEntity
  8
0
100
AcDbBlockBegin
  2
PA24F7-4
 70
               0
 10
0.0
 20
0.0
 30
0.0
  3
PA24F7-4
  1

  0
LINE
  5
177
100
AcDbEntity
  8
0
  6
CENTER
 62
               2
100
AcDbLine
 10
18.599999999998886
 20
2.8150347609133419
 30
0.0
 11
18.599999999998886
 21
9.2948667885674254
 31
0.0
  0
LINE
  5
178
100
AcDbEntity
  8
0
  6
CENTER
 62
               2
100
AcDbLine
 10
0.0
 20
2.8150347609100237
 30
0.0
 11
0.0
 21
9.2948667885641072
 31
0.0
  0
LINE
  5
179
100
AcDbEntity
  8
0
  6
CENTER
 62
               2
100
AcDbLine
 10
9.299999999993517
 20
43.850000000008649
 30
0.0
 11
9.2999999999931759
 21
-12.410609850993922
 31
0.0
  0
LINE
  5
17A
100
AcDbEntity
  8
0
  6
CONTINUOUS
 62
               2
100
AcDbLine
 10
7.3999999999936392
 20
-3.5508726088640401
 30
0.0
 11
4.1999999999935937
 21
-4.4108726088639401
 31
0.0
  0
LINE
  5
17B
100
AcDbEntity
  8
0
  6
CONTINUOUS
 62
               2
100
AcDbLine
 10
7.3999999999936392
 20
-4.5808726088640128
 30
0.0
 11
4.1999999999935937
 21
-5.4408726088639128
 31
0.0
  0
LINE
  5
17C
100
AcDbEntity
  8
0
  6
CONTINUOUS
 62
               7
100
AcDbLine
 10
5.5499999999935028
 20
-11.500872608863972
 30
0.0
 11
6.0499999999935028
 21
-11.500872608863972
 31
0.0
  0
LINE
  5
17D
100
AcDbEntity
  8
0
  6
CONTINUOUS
 62
               7
100
AcDbLine
 10
5.0499999999936165
 20
-8.0008726088639719
 30
0.0
 11
6.5499999999936165
 21
-8.0008726088639719
 31
0.0
  0
LINE
  5
17E
100
AcDbEntity
  8
0
  6
CONTINUOUS
 62
               7
100
AcDbLine
 10
5.5499999999936165
 20
-8.0008726088639719
 30
0.0
 11
5.5499999999935028
 21
-11.500872608863972
 31
0.0
  0
LINE
  5
17F
100
AcDbEntity
  8
0
  6
CONTINUOUS
 62
               7
100
AcDbLine
 10
6.0499999999936165
 20
-8.0008726088639719
 30
0.0
 11
6.0499999999935028
 21
-11.500872608863972
 31
0.0
  0
LINE
  5
180
100
AcDbEntity
  8
0
  6
CONTINUOUS
 62
               7
100
AcDbLine
 10
6.5499999999936165
 20
-4.8408726088640037
 30
0.0
 11
6.5499999999936165
 21
-8.0008726088639719
 31
0.0
  0
LINE
  5
181
100
AcDbEntity
  8
0
  6
CONTINUOUS
 62
               7
100
AcDbLine
 10
5.0499999999936165
 20
-5.2124351088639855
 30
0.0
 11
5.0499999999936165
 21
-8.0008726088639719
 31
0.0
  0
LINE
  5
182
100
AcDbEntity
  8
0
  6
CONTINUOUS
 62
               7
100
AcDbLine
 10
6.5499999999936165
 20
-0.9999999999960778
 30
0.0
 11
6.5499999999936165
 21
-3.7793101088639673
 31
0.0
  0
LINE
  5
183
100
AcDbEntity
  8
0
  6
CONTINUOUS
 62
               7
100
AcDbLine
 10
5.0499999999936165
 20
-0.9999999999959641
 30
0.0
 11
5.0499999999936165
 21
-4.1824351088640128
 31
0.0
  0
LINE
  5
184
100
AcDbEntity
  8
0
  6
CONTINUOUS
 62
               7
100
AcDbLine
 10
12.049999999993616
 20
-5.2124351088639855
 30
0.0
 11
12.049999999993616
 21
-8.0008726088639719
 31
0.0
  0
LINE
  5
185
100
AcDbEntity
  8
0
  6
CONTINUOUS
 62
               7
100
AcDbLine
 10
13.549999999993616
 20
-4.8408726088640037
 30
0.0
 11
13.549999999993616
 21
-8.0008726088639719
 31
0.0
  0
LINE
  5
186
100
AcDbEntity
  8
0
  6
CONTINUOUS
 62
               7
100
AcDbLine
 10
13.049999999993616
 20
-8.0008726088639719
 30
0.0
 11
13.049999999993503
 21
-11.500872608863972
 31
0.0
  0
LINE
  5
187
100
AcDbEntity
  8
0
  6
CONTINUOUS
 62
               7
100
AcDbLine
 10
12.549999999993616
 20
-8.0008726088639719
 30
0.0
 11
12.549999999993503
 21
-11.500872608863972
 31
0.0
  0
LINE
  5
188
100
AcDbEntity
  8
0
  6
CONTINUOUS
 62
               7
100
AcDbLine
 10
12.049999999993616
 20
-8.0008726088639719
 30
0.0
 11
13.549999999993616
 21
-8.0008726088639719
 31
0.0
  0
LINE
  5
189
100
AcDbEntity
  8
0
  6
CONTINUOUS
 62
               7
100
AcDbLine
 10
12.549999999993503
 20
-11.500872608863972
 30
0.0
 11
13.049999999993503
 21
-11.500872608863972
 31
0.0
  0
LINE
  5
18A
100
AcDbEntity
  8
0
  6
CONTINUOUS
 62
               2
100
AcDbLine
 10
14.399999999993639
 20
-4.5808726088640128
 30
0.0
 11
11.199999999993594
 21
-5.4408726088639128
 31
0.0
  0
LINE
  5
18B
100
AcDbEntity
  8
0
  6
CONTINUOUS
 62
               2
100
AcDbLine
 10
14.399999999993639
 20
-3.5508726088640401
 30
0.0
 11
11.199999999993594
 21
-4.4108726088639401
 31
0.0
  0
LINE
  5
18C
100
AcDbEntity
  8
0
  6
CONTINUOUS
 62
               7
100
AcDbLine
 10
13.549999999993616
 20
-0.9999999999960778
 30
0.0
 11
13.549999999993616
 21
-3.7793101088639673
 31
0.0
  0
LINE
  5
18D
100
AcDbEntity
  8
0
  6
CONTINUOUS
 62
               7
100
AcDbLine
 10
12.049999999993616
 20
-0.9999999999959641
 30
0.0
 11
12.049999999993616
 21
-4.1824351088640128
 31
0.0
  0
ARC
  5
18E
100
AcDbEntity
  8
0
  6
CONTINUOUS
 62
               7
100
AcDbCircle
 10
14.499999999993506
 20
-0.6999999999960664
 30
0.0
 40
0.3
100
AcDbArc
 50
269.99999999999937
 51
0.0
  0
ARC
  5
18F
100
AcDbEntity
  8
0
  6
CONTINUOUS
 62
               7
100
AcDbCircle
 10
4.0999999999934715
 20
-0.6999999999960664
 30
0.0
 40
0.3
100
AcDbArc
 50
179.99999999999963
 51
269.99999999999937
  0
LINE
  5
190
100
AcDbEntity
  8
0
  6
CONTINUOUS
 62
               7
100
AcDbLine
 10
3.799999999993517
 20
-0.0000000000006821
 30
0.0
 11
3.799999999993517
 21
-0.6999999999960664
 31
0.0
  0
LINE
  5
191
100
AcDbEntity
  8
0
  6
CONTINUOUS
 62
               7
100
AcDbLine
 10
14.799999999993517
 20
-0.0000000000026716
 30
0.0
 11
14.799999999993517
 21
-0.6999999999960664
 31
0.0
  0
LINE
  5
192
100
AcDbEntity
  8
0
  6
CONTINUOUS
 62
               7
100
AcDbLine
 10
14.499999979225137
 20
-0.9999999999960778
 30
0.0
 11
4.1000000030669952
 21
-0.9999999999960778
 31
0.0
  0
ARC
  5
193
100
AcDbEntity
  8
0
  6
CONTINUOUS
 62
               7
100
AcDbCircle
 10
12.599999999994324
 20
2.4999999999976694
 30
0.0
 40
0.5
100
AcDbArc
 50
269.99999999999937
 51
0.0
  0
ARC
  5
194
100
AcDbEntity
  8
0
  6
CONTINUOUS
 62
               7
100
AcDbCircle
 10
5.9999999999932214
 20
2.4999999999989768
 30
0.0
 40
0.5
100
AcDbArc
 50
179.99999999999963
 51
269.99999999999937
  0
LINE
  5
195
100
AcDbEntity
  8
0
  6
CONTINUOUS
 62
               7
100
AcDbLine
 10
12.599999999994267
 20
1.9999999999976694
 30
0.0
 11
5.9999999999931646
 21
1.9999999999989768
 31
0.0
  0
LINE
  5
196
100
AcDbEntity
  8
0
  6
CONTINUOUS
 62
               7
100
AcDbLine
 10
14.599999999994324
 20
1.5499999999933607
 30
0.0
 11
3.9999999999930509
 21
1.5499999999942702
 31
0.0
  0
ARC
  5
197
100
AcDbEntity
  8
0
  6
CONTINUOUS
 62
               7
100
AcDbCircle
 10
5.999999999993392
 20
5.299999999993986
 30
0.0
 40
0.5
100
AcDbArc
 50
89.999999999999815
 51
179.99999999999963
  0
ARC
  5
198
100
AcDbEntity
  8
0
  6
CONTINUOUS
 62
               7
100
AcDbCircle
 10
12.599999999994324
 20
5.2999999999935312
 30
0.0
 40
0.5
100
AcDbArc
 50
0.0
 51
89.999999999999815
  0
LINE
  5
199
100
AcDbEntity
  8
0
  6
CONTINUOUS
 62
               7
100
AcDbLine
 10
13.099999999994324
 20
2.4999999999976694
 30
0.0
 11
13.099999999994324
 21
5.2999999999935312
 31
0.0
  0
LINE
  5
19A
100
AcDbEntity
  8
0
  6
CONTINUOUS
 62
               7
100
AcDbLine
 10
5.4999999999932214
 20
2.4999999999990337
 30
0.0
 11
5.499999999993392
 21
5.2999999999940428
 31
0.0
  0
LINE
  5
19B
100
AcDbEntity
  8
0
  6
CONTINUOUS
 62
               7
100
AcDbLine
 10
12.599999999994381
 20
5.7999999999935312
 30
0.0
 11
5.9999999999934488
 21
5.799999999993986
 31
0.0
  0
ARC
  5
19C
100
AcDbEntity
  8
0
  6
CONTINUOUS
 62
               7
100
AcDbCircle
 10
0.9999999999931077
 20
1.9999999999982947
 30
0.0
 40
0.5
100
AcDbArc
 50
179.99999999999125
 51
269.99999999999108
  0
LINE
  5
19D
100
AcDbEntity
  8
0
  6
CONTINUOUS
 62
               7
100
AcDbLine
 10
0.4999999999931077
 20
1.9999999999983515
 30
0.0
 11
0.4999999999936762
 21
6.1000000000086629
 31
0.0
  0
LINE
  5
19E
100
AcDbEntity
  8
0
  6
CONTINUOUS
 62
               7
100
AcDbLine
 10
3.9999999999927667
 20
-0.0000000000005684
 30
0.0
 11
3.999999999993733
 21
6.1000000000086629
 31
0.0
  0
LINE
  5
19F
100
AcDbEntity
  8
0
  6
CONTINUOUS
 62
               7
100
AcDbLine
 10
14.599999999994324
 20
-0.0000000000027853
 30
0.0
 11
14.599999999994324
 21
6.1000000000086629
 31
0.0
  0
LINE
  5
1A0
100
AcDbEntity
  8
0
  6
CONTINUOUS
 62
               7
100
AcDbLine
 10
16.099999999994381
 20
1.9999999999970441
 30
0.0
 11
16.099999999994324
 21
6.1000000000086629
 31
0.0
  0
LINE
  5
1A1
100
AcDbEntity
  8
0
  6
CONTINUOUS
 62
               7
100
AcDbLine
 10
17.599999999994026
 20
1.4999999999968736
 30
0.0
 11
16.599999999994381
 21
1.4999999999969873
 31
0.0
  0
LINE
  5
1A2
100
AcDbEntity
  8
0
  6
CONTINUOUS
 62
               7
100
AcDbLine
 10
21.199999999996635
 20
42.100000000008706
 30
0.0
 11
21.199999999993253
 21
0.4999999999963052
 31
0.0
  0
LINE
  5
1A3
100
AcDbEntity
  8
0
  6
CONTINUOUS
 62
               7
100
AcDbLine
 10
20.699999999993196
 20
-0.0000000000036948
 30
0.0
 11
-1.6000000003050019
 21
0.0000000000002842
 31
0.0
  0
ARC
  5
1A4
100
AcDbEntity
  8
0
  6
CONTINUOUS
 62
               7
100
AcDbCircle
 10
-1.6000000000065739
 20
1.0000000000002842
 30
0.0
 40
1.0
100
AcDbArc
 50
179.99999999998943
 51
269.9999999999892
  0
LINE
  5
1A5
100
AcDbEntity
  8
0
  6
CONTINUOUS
 62
               7
100
AcDbLine
 10
-2.6000000000033339
 20
42.100000000008762
 30
0.0
 11
-2.6000000000065739
 21
1.0000000000003979
 31
0.0
  0
ARC
  5
1A6
100
AcDbEntity
  8
0
  6
CONTINUOUS
 62
               7
100
AcDbCircle
 10
20.699999999993253
 20
0.4999999999964189
 30
0.0
 40
0.5
100
AcDbArc
 50
269.99999999999937
 51
0.0
  0
LINE
  5
1A7
100
AcDbEntity
  8
0
  6
CONTINUOUS
 62
               7
100
AcDbLine
 10
18.099999999994139
 20
1.9999999999968168
 30
0.0
 11
18.099999999994253
 21
6.1000000000086629
 31
0.0
  0
ARC
  5
1A8
100
AcDbEntity
  8
0
  6
CONTINUOUS
 62
               7
100
AcDbCircle
 10
17.599999999994139
 20
1.9999999999968736
 30
0.0
 40
0.5
100
AcDbArc
 50
270.00000000000171
 51
0.0000000000014758
  0
LINE
  5
1A9
100
AcDbEntity
  8
0
  6
CONTINUOUS
 62
               7
100
AcDbLine
 10
2.499999999992994
 20
1.9999999999982379
 30
0.0
 11
2.4999999999936762
 21
6.1000000000086629
 31
0.0
  0
LINE
  5
1AA
100
AcDbEntity
  8
0
  6
CONTINUOUS
 62
               7
100
AcDbLine
 10
0.9999999999932214
 20
1.4999999999982947
 30
0.0
 11
1.9999999999928235
 21
1.4999999999982379
 31
0.0
  0
LINE
  5
1AB
100
AcDbEntity
  8
0
  6
CONTINUOUS
 62
               7
100
AcDbLine
 10
16.099999999994381
 20
1.9999999999970441
 30
0.0
 11
16.599999999994381
 21
1.4999999999969873
 31
0.0
  0
LINE
  5
1AC
100
AcDbEntity
  8
0
  6
CONTINUOUS
 62
               7
100
AcDbLine
 10
2.499999999992994
 20
1.9999999999982379
 30
0.0
 11
1.9999999999928235
 21
1.4999999999982379
 31
0.0
  0
LINE
  5
1AD
100
AcDbEntity
  8
0
  6
CONTINUOUS
 62
               7
100
AcDbLine
 10
10.899999999993994
 20
6.1000000000086629
 30
0.0
 11
10.899999999993994
 21
5.7999999999936449
 31
0.0
  0
LINE
  5
1AE
100
AcDbEntity
  8
0
  6
CONTINUOUS
 62
               7
100
AcDbLine
 10
7.6999999999940059
 20
6.1000000000086629
 30
0.0
 11
7.6999999999940059
 21
5.7999999999938723
 31
0.0
  0
CIRCLE
  5
1AF
100
AcDbEntity
  8
0
  6
CONTINUOUS
 62
               7
100
AcDbCircle
 10
9.299999999993517
 20
10.350000000008663
 30
0.0
 40
4.0
  0
CIRCLE
  5
1B0
100
AcDbEntity
  8
0
  6
CONTINUOUS
 62
               7
100
AcDbCircle
 10
9.299999999993517
 20
38.850000000008649
 30
0.0
 40
4.0
  0
LINE
  5
1B1
100
AcDbEntity
  8
0
  6
CONTINUOUS
 62
               7
100
AcDbLine
 10
7.6029438808783851
 20
37.152944023944755
 30
0.0
 11
10.99705679345827
 21
40.547056650422277
 31
0.0
  0
LINE
  5
1B2
100
AcDbEntity
  8
0
  6
CONTINUOUS
 62
               7
100
AcDbLine
 10
10.997055871749396
 20
37.152943776585388
 30
0.0
 11
7.60294324527176
 21
40.547056689165331
 31
0.0
  0
LINE
  5
1B3
100
AcDbEntity
  8
0
  6
CONTINUOUS
 62
               7
100
AcDbLine
 10
7.6029438808783851
 20
12.047055976072784
 30
0.0
 11
10.99705679345827
 21
8.652943349595148
 31
0.0
  0
LINE
  5
1B4
100
AcDbEntity
  8
0
  6
CONTINUOUS
 62
               7
100
AcDbLine
 10
10.997055871749396
 20
12.047056223431923
 30
0.0
 11
7.60294324527176
 21
8.6529433108520379
 31
0.0
  0
CIRCLE
  5
1B5
100
AcDbEntity
  8
0
  6
CONTINUOUS
 62
               2
100
AcDbCircle
 10
1.799999999993517
 20
11.649999999759871
 30
0.0
 40
2.0
  0
CIRCLE
  5
1B6
100
AcDbEntity
  8
0
  6
CONTINUOUS
 62
               7
100
AcDbCircle
 10
1.799999999993517
 20
11.649999999759871
 30
0.0
 40
1.6499999999999999
  0
CIRCLE
  5
1B7
100
AcDbEntity
  8
0
  6
CONTINUOUS
 62
               7
100
AcDbCircle
 10
16.799999999993517
 20
37.550000000257555
 30
0.0
 40
1.6499999999999999
  0
CIRCLE
  5
1B8
100
AcDbEntity
  8
0
  6
CONTINUOUS
 62
               2
100
AcDbCircle
 10
16.799999999993517
 20
37.550000000257555
 30
0.0
 40
2.0
  0
CIRCLE
  5
1B9
100
AcDbEntity
  8
0
  6
CONTINUOUS
 62
               7
100
AcDbCircle
 10
9.299999999993517
 20
10.350000000008663
 30
0.0
 40
4.0999999999999996
  0
CIRCLE
  5
1BA
100
AcDbEntity
  8
0
  6
CONTINUOUS
 62
               7
100
AcDbCircle
 10
9.299999999993517
 20
38.850000000008649
 30
0.0
 40
4.0999999999999996
  0
ARC
  5
1BB
100
AcDbEntity
  8
0
  6
CONTINUOUS
 62
               7
100
AcDbCircle
 10
20.69999999999348
 20
10.014213568666037
 30
0.0
 40
0.5
100
AcDbArc
 50
269.99999999999937
 51
0.0
  0
ARC
  5
1BC
100
AcDbEntity
  8
0
  6
CONTINUOUS
 62
               7
100
AcDbCircle
 10
-2.1000000000064603
 20
39.185786431351389
 30
0.0
 40
0.5
100
AcDbArc
 50
89.999999999999815
 51
179.99999999999963
  0
ARC
  5
1BD
100
AcDbEntity
  8
0
  6
CONTINUOUS
 62
               7
100
AcDbCircle
 10
14.699999999993494
 20
6.6000000000086629
 30
0.0
 40
0.5
100
AcDbArc
 50
269.99999999999937
 51
0.0
  0
ARC
  5
1BE
100
AcDbEntity
  8
0
  6
CONTINUOUS
 62
               7
100
AcDbCircle
 10
15.699999999993494
 20
9.0142135686660367
 30
0.0
 40
0.5
100
AcDbArc
 50
89.999999999999815
 51
179.99999999999963
  0
LINE
  5
1BF
100
AcDbEntity
  8
0
  6
CONTINUOUS
 62
               7
100
AcDbLine
 10
15.699999999993494
 20
9.5142135686660367
 30
0.0
 11
20.69999999999348
 21
9.5142135686660367
 31
0.0
  0
LINE
  5
1C0
100
AcDbEntity
  8
0
  6
CONTINUOUS
 62
               7
100
AcDbLine
 10
15.199999999993494
 20
9.0142135686660367
 30
0.0
 11
15.199999999993494
 21
6.6000000000086629
 31
0.0
  0
ARC
  5
1C1
100
AcDbEntity
  8
0
  6
CONTINUOUS
 62
               7
100
AcDbCircle
 10
3.8999999999934261
 20
42.600000000008706
 30
0.0
 40
0.5
100
AcDbArc
 50
89.999999999999815
 51
179.99999999999963
  0
ARC
  5
1C2
100
AcDbEntity
  8
0
  6
CONTINUOUS
 62
               7
100
AcDbCircle
 10
2.8999999999934261
 20
40.185786431351389
 30
0.0
 40
0.5
100
AcDbArc
 50
269.99999999999937
 51
0.0
  0
LINE
  5
1C3
100
AcDbEntity
  8
0
  6
CONTINUOUS
 62
               7
100
AcDbLine
 10
2.8999999999934261
 20
39.685786431351389
 30
0.0
 11
-2.1000000000064603
 21
39.685786431351389
 31
0.0
  0
LINE
  5
1C4
100
AcDbEntity
  8
0
  6
CONTINUOUS
 62
               7
100
AcDbLine
 10
3.3999999999934261
 20
40.185786431351389
 30
0.0
 11
3.3999999999934261
 21
42.600000000008706
 31
0.0
  0
LINE
  5
1C5
100
AcDbEntity
  8
0
  6
CENTER
 62
               2
100
AcDbLine
 10
19.988191971267184
 20
37.600000000257623
 30
0.0
 11
14.045776841571225
 21
37.600000000257623
 31
0.0
  0
LINE
  5
1C6
100
AcDbEntity
  8
0
  6
CENTER
 62
               2
100
AcDbLine
 10
16.799999999993517
 20
34.815034761158913
 30
0.0
 11
16.799999999993517
 21
40.794866788812996
 31
0.0
  0
LINE
  5
1C7
100
AcDbEntity
  8
0
  6
CENTER
 62
               2
100
AcDbLine
 10
-1.3881919712801647
 20
11.599999999759916
 30
0.0
 11
4.9608310573679972
 21
11.599999999759916
 31
0.0
  0
LINE
  5
1C8
100
AcDbEntity
  8
0
  6
CENTER
 62
               2
100
AcDbLine
 10
1.799999999993517
 20
14.884965238858513
 30
0.0
 11
1.799999999993517
 21
8.4051332112044292
 31
0.0
  0
LINE
  5
1C9
100
AcDbEntity
  8
0
  6
CENTER
 62
               2
100
AcDbLine
 10
-4.3157572548701211
 20
24.600000000008663
 30
0.0
 11
22.50590294846009
 21
24.600000000008663
 31
0.0
  0
ARC
  5
1CA
100
AcDbEntity
  8
0
  6
CONTINUOUS
 62
               7
100
AcDbCircle
 10
-1.6000000000064603
 20
7.1000000000086629
 30
0.0
 40
1.0
100
AcDbArc
 50
179.99999999999963
 51
269.99999999999937
  0
ARC
  5
1CB
100
AcDbEntity
  8
0
  6
CONTINUOUS
 62
               7
100
AcDbCircle
 10
-1.6000000000064603
 20
42.100000000008706
 30
0.0
 40
1.0
100
AcDbArc
 50
89.999999999999815
 51
179.99999999999963
  0
ARC
  5
1CC
100
AcDbEntity
  8
0
  6
CONTINUOUS
 62
               7
100
AcDbCircle
 10
20.199999999993508
 20
42.100000000008706
 30
0.0
 40
1.0
100
AcDbArc
 50
0.0
 51
89.999999999999815
  0
ARC
  5
1CD
100
AcDbEntity
  8
0
  6
CONTINUOUS
 62
               7
100
AcDbCircle
 10
20.19999999999348
 20
7.1000000000086629
 30
0.0
 40
1.0
100
AcDbArc
 50
269.99999999999937
 51
0.0
  0
LINE
  5
1CE
100
AcDbEntity
  8
0
  6
CONTINUOUS
 62
               7
100
AcDbLine
 10
-1.6000000000064603
 20
43.100000000008706
 30
0.0
 11
20.199999999993508
 21
43.100000000008706
 31
0.0
  0
LINE
  5
1CF
100
AcDbEntity
  8
0
  6
CONTINUOUS
 62
               7
100
AcDbLine
 10
-1.6000000000064603
 20
6.1000000000086629
 30
0.0
 11
20.19999999999348
 21
6.1000000000086629
 31
0.0
  0
LINE
  5
1D0
100
AcDbEntity
  8
0
  6
CENTER
 62
               2
100
AcDbLine
 10
5.7999999999936165
 20
-12.410609850993922
 30
0.0
 11
5.7999999999936165
 21
-0.9999999999960778
 31
0.0
  0
LINE
  5
1D1
100
AcDbEntity
  8
0
  6
CENTER
 62
               2
100
AcDbLine
 10
12.799999999993616
 20
-12.410609850993922
 30
0.0
 11
12.799999999993616
 21
-0.9999999999960778
 31
0.0
  0
LINE
  5
1D2
100
AcDbEntity
  8
0
  6
CENTER
 62
               2
100
AcDbLine
 10
-4.3157572548701211
 20
24.600000000008663
 30
0.0
 11
22.50590294846009
 21
24.600000000008663
 31
0.0
  0
LINE
  5
1D3
100
AcDbEntity
  8
0
  6
CENTER
 62
               2
100
AcDbLine
 10
-4.3157572548701211
 20
24.600000000008663
 30
0.0
 11
22.50590294846009
 21
24.600000000008663
 31
0.0
  0
LINE
  5
1D4
100
AcDbEntity
  8
0
  6
CONTINUOUS
 62
               7
100
AcDbLine
 10
-2.6000000000040435
 20
33.100000000008663
 30
0.0
 11
21.199999999995903
 21
33.100000000008663
 31
0.0
  0
LINE
  5
1D5
100
AcDbEntity
  8
0
  6
CONTINUOUS
 62
               7
100
AcDbLine
 10
-2.6000000000053838
 20
16.100000000008663
 30
0.0
 11
21.199999999994521
 21
16.100000000008663
 31
0.0
  0
LINE
  5
1D6
100
AcDbEntity
  8
0
  6
CONTINUOUS
 62
               2
100
AcDbLine
 10
10.899999999993639
 20
-3.5508726088640401
 30
0.0
 11
7.6999999999935937
 21
-4.4108726088639401
 31
0.0
  0
LINE
  5
1D7
100
AcDbEntity
  8
0
  6
CONTINUOUS
 62
               2
100
AcDbLine
 10
10.899999999993639
 20
-4.5808726088640128
 30
0.0
 11
7.6999999999935937
 21
-5.4408726088639128
 31
0.0
  0
LINE
  5
1D8
100
AcDbEntity
  8
0
  6
CONTINUOUS
 62
               7
100
AcDbLine
 10
10.049999999993616
 20
-0.9999999999960778
 30
0.0
 11
10.049999999993616
 21
-3.7793101088639673
 31
0.0
  0
LINE
  5
1D9
100
AcDbEntity
  8
0
  6
CONTINUOUS
 62
               7
100
AcDbLine
 10
8.5499999999936165
 20
-0.9999999999959641
 30
0.0
 11
8.5499999999936165
 21
-4.1824351088640128
 31
0.0
  0
LINE
  5
1DA
100
AcDbEntity
  8
0
  6
CENTER
 62
               2
100
AcDbLine
 10
9.2999999999936165
 20
-12.410609850993922
 30
0.0
 11
9.2999999999936165
 21
-0.9999999999960778
 31
0.0
  0
LINE
  5
1DB
100
AcDbEntity
  8
0
  6
CONTINUOUS
 62
               7
100
AcDbLine
 10
8.5499999999936165
 20
-5.2124351088639855
 30
0.0
 11
8.5499999999936165
 21
-8.0008726088639719
 31
0.0
  0
LINE
  5
1DC
100
AcDbEntity
  8
0
  6
CONTINUOUS
 62
               7
100
AcDbLine
 10
10.049999999993616
 20
-4.8408726088640037
 30
0.0
 11
10.049999999993616
 21
-8.0008726088639719
 31
0.0
  0
LINE
  5
1DD
100
AcDbEntity
  8
0
  6
CONTINUOUS
 62
               7
100
AcDbLine
 10
9.5499999999936165
 20
-8.0008726088639719
 30
0.0
 11
9.5499999999935028
 21
-11.500872608863972
 31
0.0
  0
LINE
  5
1DE
100
AcDbEntity
  8
0
  6
CONTINUOUS
 62
               7
100
AcDbLine
 10
9.0499999999936165
 20
-8.0008726088639719
 30
0.0
 11
9.0499999999935028
 21
-11.500872608863972
 31
0.0
  0
LINE
  5
1DF
100
AcDbEntity
  8
0
  6
CONTINUOUS
 62
               7
100
AcDbLine
 10
8.5499999999936165
 20
-8.0008726088639719
 30
0.0
 11
10.049999999993616
 21
-8.0008726088639719
 31
0.0
  0
LINE
  5
1E0
100
AcDbEntity
  8
0
  6
CONTINUOUS
 62
               7
100
AcDbLine
 10
9.0499999999935028
 20
-11.500872608863972
 30
0.0
 11
9.5499999999935028
 21
-11.500872608863972
 31
0.0
  0
ENDBLK
  5
1E1
100
AcDbEntity
  8
0
100
AcDbBlockEnd
  0
BLOCK
  5
1E2
100
AcDbEntity
  8
0
100
AcDbBlockBegin
  2
PA24F7-5
 70
               0
 10
0.0
 20
0.0
 30
0.0
  3
PA24F7-5
  1

  0
LINE
  5
1E3
100
AcDbEntity
  8
0
  6
CONTINUOUS
 62
               7
100
AcDbLine
 10
2.6000000000003922
 20
23.999999999994472
 30
0.0
 11
2.6000000000419448
 21
-53.26794916852073
 31
0.0
  0
LINE
  5
1E4
100
AcDbEntity
  8
0
  6
CENTER
 62
               2
100
AcDbLine
 10
-9.2999999999852037
 20
-98.189318247922827
 30
0.0
 11
-9.3000000000178602
 21
23.999999999994813
 31
0.0
  0
CIRCLE
  5
1E5
100
AcDbEntity
  8
0
  6
CONTINUOUS
 62
               7
100
AcDbCircle
 10
-9.3000000000224929
 20
15.999999999994813
 30
0.0
 40
4.2000000000000002
  0
LINE
  5
1E6
100
AcDbEntity
  8
0
  6
CONTINUOUS
 62
               7
100
AcDbLine
 10
2.6000000224341591
 20
23.999999999994472
 30
0.0
 11
-21.19999998948677
 21
23.999999999995154
 31
0.0
  0
LINE
  5
1E7
100
AcDbEntity
  8
0
  6
CENTER
 62
               2
100
AcDbLine
 10
-4.2418279370188259
 20
15.999999999994699
 30
0.0
 11
-14.390457446526085
 21
15.999999999994927
 31
0.0
  0
CIRCLE
  5
1E8
100
AcDbEntity
  8
0
  6
CONTINUOUS
 62
               7
100
AcDbCircle
 10
-0.0000000000000284
 20
-0.0000000000000711
 30
0.0
 40
2.1000000000000001
  0
LINE
  5
1E9
100
AcDbEntity
  8
0
  6
CENTER
 62
               2
100
AcDbLine
 10
-0.0000000000018474
 20
3.291794418230765
 30
0.0
 11
0.0000000000017906
 21
-3.2097526030772343
 31
0.0
  0
LINE
  5
1EA
100
AcDbEntity
  8
0
  6
CENTER
 62
               2
100
AcDbLine
 10
3.5165993645402693
 20
0.0000000000019185
 30
0.0
 11
-3.0324042043685324
 21
-0.0000000000016627
 31
0.0
  0
CIRCLE
  5
1EB
100
AcDbEntity
  8
0
  6
CONTINUOUS
 62
               7
100
AcDbCircle
 10
-18.59999999996856
 20
-57.000000000010303
 30
0.0
 40
2.1000000000000001
  0
LINE
  5
1EC
100
AcDbEntity
  8
0
  6
CENTER
 62
               2
100
AcDbLine
 10
-18.599999999966286
 20
-60.667594510252414
 30
0.0
 11
-18.599999999970379
 21
-53.501679491463349
 31
0.0
  0
LINE
  5
1ED
100
AcDbEntity
  8
0
  6
CENTER
 62
               2
100
AcDbLine
 10
-22.206886020701205
 20
-57.000000000012236
 30
0.0
 11
-15.040971001912141
 21
-57.00000000000837
 31
0.0
  0
CIRCLE
  5
1EE
100
AcDbEntity
  8
0
  6
CONTINUOUS
 62
               7
100
AcDbCircle
 10
-9.3000000000229477
 20
-5.000000000005187
 30
0.0
 40
5.6800003051757812
  0
CIRCLE
  5
1EF
100
AcDbEntity
  8
0
  6
CONTINUOUS
 62
               2
100
AcDbCircle
 10
-9.3000000000229477
 20
-5.000000000005187
 30
0.0
 40
6.5
  0
LINE
  5
1F0
100
AcDbEntity
  8
0
  6
CENTER
 62
               2
100
AcDbLine
 10
-17.070370193423997
 20
-5.0000000000049596
 30
0.0
 11
-0.9823424410435848
 21
-5.0000000000054143
 31
0.0
  0
LINE
  5
1F1
100
AcDbEntity
  8
0
  6
CENTER
 62
               2
100
AcDbLine
 10
-19.453587473514929
 20
-28.000000000002856
 30
0.0
 11
1.2918452100751381
 21
-28.000000000003482
 31
0.0
  0
LINE
  5
1F2
100
AcDbEntity
  8
0
  6
CONTINUOUS
 62
               7
100
AcDbLine
 10
2.6000000224341591
 20
8.999999999994472
 30
0.0
 11
-21.19999998948677
 21
8.9999999999951541
 31
0.0
  0
LINE
  5
1F3
100
AcDbEntity
  8
0
  6
CONTINUOUS
 62
               7
100
AcDbLine
 10
2.0999999999766885
 20
-96.000000000005187
 30
0.0
 11
-20.70000000002338
 21
-96.000000000004619
 31
0.0
  0
ARC
  5
1F4
100
AcDbEntity
  8
0
  6
CONTINUOUS
 62
               7
100
AcDbCircle
 10
2.0999999999769159
 20
-95.500000000005187
 30
0.0
 40
0.5
100
AcDbArc
 50
269.99999999999784
 51
359.99999999999761
  0
ARC
  5
1F5
100
AcDbEntity
  8
0
  6
CONTINUOUS
 62
               7
100
AcDbCircle
 10
-20.700000000024403
 20
-95.500000000004505
 30
0.0
 40
0.5
100
AcDbArc
 50
179.99999999999801
 51
269.99999999999784
  0
LINE
  5
1F6
100
AcDbEntity
  8
0
  6
CONTINUOUS
 62
               7
100
AcDbLine
 10
2.6000000224321127
 20
-66.000000000005244
 30
0.0
 11
-21.199999989488816
 21
-66.000000000004562
 31
0.0
  0
LINE
  5
1F7
100
AcDbEntity
  8
0
  6
CONTINUOUS
 62
               7
100
AcDbLine
 10
-21.199999987488383
 20
-82.500000000005244
 30
0.0
 11
2.5999999999766885
 21
-82.500000000005244
 31
0.0
  0
CIRCLE
  5
1F8
100
AcDbEntity
  8
0
  6
DASHED
 62
               7
100
AcDbCircle
 10
-9.3000000000231751
 20
-28.000000000003141
 30
0.0
 40
5.6800003051757812
  0
CIRCLE
  5
1F9
100
AcDbEntity
  8
0
  6
DASHED
 62
               2
100
AcDbCircle
 10
-9.3000000000231751
 20
-28.000000000003141
 30
0.0
 40
6.5
  0
CIRCLE
  5
1FA
100
AcDbEntity
  8
0
  6
CONTINUOUS
 62
               7
100
AcDbCircle
 10
-9.2999998092723501
 20
-28.000000000005187
 30
0.0
 40
7.4000000000000004
  0
CIRCLE
  5
1FB
100
AcDbEntity
  8
0
  6
CONTINUOUS
 62
               2
100
AcDbCircle
 10
-9.2999998092723501
 20
-28.000000000005187
 30
0.0
 40
8.3000001907348633
  0
CIRCLE
  5
1FC
100
AcDbEntity
  8
0
  6
CONTINUOUS
 62
               7
100
AcDbCircle
 10
-9.3000000000241982
 20
-51.000000000001094
 30
0.0
 40
5.6800003051757812
  0
CIRCLE
  5
1FD
100
AcDbEntity
  8
0
  6
CONTINUOUS
 62
               2
100
AcDbCircle
 10
-9.3000000000241982
 20
-51.000000000001094
 30
0.0
 40
6.5
  0
LINE
  5
1FE
100
AcDbEntity
  8
0
  6
CENTER
 62
               2
100
AcDbLine
 10
-1.5296298066131442
 20
-51.000000000005187
 30
0.0
 11
-17.617657558993614
 21
-51.000000000005187
 31
0.0
  0
LINE
  5
1FF
100
AcDbEntity
  8
0
  6
CONTINUOUS
 62
               7
100
AcDbLine
 10
2.6000000000475723
 20
-60.732050833859503
 30
0.0
 11
2.6000000000649663
 21
-95.500000000005187
 31
0.0
  0
LINE
  5
200
100
AcDbEntity
  8
0
  6
CONTINUOUS
 62
               7
100
AcDbLine
 10
2.5999999350258065
 20
-60.732050767641184
 30
0.0
 11
1.6000000244327737
 21
-59.000000110368845
 31
0.0
  0
LINE
  5
201
100
AcDbEntity
  8
0
  6
CONTINUOUS
 62
               7
100
AcDbLine
 10
1.5999999648281289
 20
-55.0000000507642
 30
0.0
 11
2.5999999648281289
 21
-53.267949214677927
 31
0.0
  0
LINE
  5
202
100
AcDbEntity
  8
0
  6
CONTINUOUS
 62
               7
100
AcDbLine
 10
1.6000000000470607
 20
-58.999999999999162
 30
0.0
 11
1.6000000000436501
 21
-54.999999999999162
 31
0.0
  0
LINE
  5
203
100
AcDbEntity
  8
0
  6
CONTINUOUS
 62
               7
100
AcDbLine
 10
-21.199999999984669
 20
-3.7320507851687381
 30
0.0
 11
-21.199999999934363
 21
-95.500000000004789
 31
0.0
  0
LINE
  5
204
100
AcDbEntity
  8
0
  6
CONTINUOUS
 62
               7
100
AcDbLine
 10
-21.199999999992059
 20
3.7320507784620958
 30
0.0
 11
-21.200000000001722
 21
23.999999999995154
 31
0.0
  0
LINE
  5
205
100
AcDbEntity
  8
0
  6
CONTINUOUS
 62
               7
100
AcDbLine
 10
-21.200000017290478
 20
-3.7320508272458284
 30
0.0
 11
-20.199999999985636
 21
-1.9999999897040226
 31
0.0
  0
LINE
  5
206
100
AcDbEntity
  8
0
  6
CONTINUOUS
 62
               7
100
AcDbLine
 10
-20.199999987488155
 20
1.9999999492358
 30
0.0
 11
-21.199999999992059
 21
3.7320507784620958
 31
0.0
  0
LINE
  5
207
100
AcDbEntity
  8
0
  6
CONTINUOUS
 62
               7
100
AcDbLine
 10
-20.199999999985636
 20
-2.0000000000113261
 30
0.0
 11
-20.199999999988933
 21
1.9999999999886739
 31
0.0
  0
LINE
  5
208
100
AcDbEntity
  8
0
  6
CENTER
 62
             200
100
AcDbLine
 10
-9.3000000000178744
 20
23.999999999994841
 30
0.0
 11
-9.3000000000290868
 21
65.999318119179193
 31
0.0
  0
LINE
  5
209
100
AcDbEntity
  8
0
  6
CONTINUOUS
 62
               4
100
AcDbLine
 10
1.8362284630806869
 20
31.999999999994387
 30
0.0
 11
2.5999999961830724
 21
31.999999999994387
 31
0.0
  0
ARC
  5
20A
100
AcDbEntity
  8
0
  6
CONTINUOUS
 62
               4
100
AcDbCircle
 10
0.299999999979633
 20
26.199999818170411
 30
0.0
 40
6.0
100
AcDbArc
 50
73.80871737482147
 51
106.19135456952553
  0
LINE
  5
20B
100
AcDbEntity
  8
0
  6
CONTINUOUS
 62
               4
100
AcDbLine
 10
2.5499999999800878
 20
31.193745622003192
 30
0.0
 11
2.5499999999799741
 21
29.800000008905059
 31
0.0
  0
ARC
  5
20C
100
AcDbEntity
  8
0
  6
CONTINUOUS
 62
               4
100
AcDbCircle
 10
1.7499998092452245
 20
31.193745622003306
 30
0.0
 40
0.800000011920929
100
AcDbArc
 50
359.99998201390565
 51
73.808645430464111
  0
LINE
  5
20D
100
AcDbEntity
  8
0
  6
CONTINUOUS
 62
               4
100
AcDbLine
 10
-1.9500000000200259
 20
30.500000008905673
 30
0.0
 11
2.5499999999799741
 21
30.500000008905275
 31
0.0
  0
LINE
  5
20E
100
AcDbEntity
  8
0
  6
CONTINUOUS
 62
               4
100
AcDbLine
 10
-1.9500000000199122
 20
31.19374562200359
 30
0.0
 11
-1.9500000000200259
 21
29.800000008905457
 31
0.0
  0
ARC
  5
20F
100
AcDbEntity
  8
0
  6
CONTINUOUS
 62
               4
100
AcDbCircle
 10
-1.149999809285049
 20
31.193745622003533
 30
0.0
 40
0.800000011920929
100
AcDbArc
 50
106.19135456952553
 51
180.00001798608395
  0
CIRCLE
  5
210
100
AcDbEntity
  8
0
  6
CONTINUOUS
 62
               4
100
AcDbCircle
 10
-12.800000000028632
 20
43.299999999996672
 30
0.0
 40
0.25
  0
CIRCLE
  5
211
100
AcDbEntity
  8
0
  6
CONTINUOUS
 62
               4
100
AcDbCircle
 10
-5.800000000028632
 20
43.299999999996615
 30
0.0
 40
0.25
  0
LINE
  5
212
100
AcDbEntity
  8
0
  6
CONTINUOUS
 62
               4
100
AcDbLine
 10
-16.100000000027137
 20
32.200000006189796
 30
0.0
 11
-16.100000000028018
 21
36.999999996796149
 31
0.0
  0
LINE
  5
213
100
AcDbEntity
  8
0
  6
CONTINUOUS
 62
               4
100
AcDbLine
 10
-2.5000000000285638
 20
36.699999999995512
 30
0.0
 11
2.6000000042728004
 21
36.69999999999574
 31
0.0
  0
LINE
  5
214
100
AcDbEntity
  8
0
  6
CONTINUOUS
 62
               4
100
AcDbLine
 10
-3.5000000000271996
 20
31.999999999994387
 30
0.0
 11
-3.5000000000271996
 21
32.200000006189796
 31
0.0
  0
LINE
  5
215
100
AcDbEntity
  8
0
  6
CONTINUOUS
 62
               4
100
AcDbLine
 10
2.5999999999729368
 20
29.799999999995762
 30
0.0
 11
-5.5499999981051644
 21
29.799999999995251
 31
0.0
  0
LINE
  5
216
100
AcDbEntity
  8
0
  6
CONTINUOUS
 62
               4
100
AcDbLine
 10
-21.200000007648129
 20
36.699999999994546
 30
0.0
 11
-16.100000000028018
 21
36.699999999994773
 31
0.0
  0
LINE
  5
217
100
AcDbEntity
  8
0
  6
CONTINUOUS
 62
               4
100
AcDbLine
 10
-5.5499999981051644
 20
31.999999999994387
 30
0.0
 11
-1.2362284631214777
 21
31.999999999994387
 31
0.0
  0
LINE
  5
218
100
AcDbEntity
  8
0
  6
CONTINUOUS
 62
               4
100
AcDbLine
 10
-14.500000009777438
 20
25.999999999999275
 30
0.0
 11
-4.1000000097773466
 21
25.999999999999275
 31
0.0
  0
LINE
  5
219
100
AcDbEntity
  8
0
  6
CONTINUOUS
 62
               4
100
AcDbLine
 10
-14.500000009777438
 20
27.899999999999253
 30
0.0
 11
-4.1000000097773466
 21
27.899999999999253
 31
0.0
  0
LINE
  5
21A
100
AcDbEntity
  8
0
  6
CONTINUOUS
 62
               4
100
AcDbLine
 10
-4.1000000000266539
 20
25.999999999999275
 30
0.0
 11
-4.1000000000268813
 21
27.899999999999253
 31
0.0
  0
LINE
  5
21B
100
AcDbEntity
  8
0
  6
CONTINUOUS
 62
               4
100
AcDbLine
 10
-14.500000000026745
 20
25.999999999998707
 30
0.0
 11
-14.500000000026972
 21
27.899999999998684
 31
0.0
  0
LINE
  5
21C
100
AcDbEntity
  8
0
  6
CONTINUOUS
 62
               4
100
AcDbLine
 10
-5.5499999981051644
 20
29.799999999995251
 30
0.0
 11
-5.5499999981051644
 21
31.999999999994387
 31
0.0
  0
LINE
  5
21D
100
AcDbEntity
  8
0
  6
CONTINUOUS
 62
               4
100
AcDbLine
 10
-3.1800000000270359
 20
29.799999999995421
 30
0.0
 11
-3.1800000000272632
 21
31.999999999994387
 31
0.0
  0
LINE
  5
21E
100
AcDbEntity
  8
0
  6
CONTINUOUS
 62
               4
100
AcDbLine
 10
2.5999999999724821
 20
63.000000008917041
 30
0.0
 11
2.5999999999934573
 21
23.999999999995467
 31
0.0
  0
ARC
  5
21F
100
AcDbEntity
  8
0
  6
CONTINUOUS
 62
               4
100
AcDbCircle
 10
0.1999999999712543
 20
39.799999999996388
 30
0.0
 40
0.5
100
AcDbArc
 50
269.99999999999937
 51
0.0
  0
ARC
  5
220
100
AcDbEntity
  8
0
  6
CONTINUOUS
 62
               4
100
AcDbCircle
 10
0.199999999971709
 20
46.799999999996388
 30
0.0
 40
0.5
100
AcDbArc
 50
0.0
 51
89.999999999999815
  0
ARC
  5
221
100
AcDbEntity
  8
0
  6
CONTINUOUS
 62
               4
100
AcDbCircle
 10
-18.800000000028291
 20
46.799999999996388
 30
0.0
 40
0.5
100
AcDbArc
 50
89.999999999999815
 51
179.99999999999963
  0
ARC
  5
222
100
AcDbEntity
  8
0
  6
CONTINUOUS
 62
               4
100
AcDbCircle
 10
-18.800000000028632
 20
39.799999999996388
 30
0.0
 40
0.5
100
AcDbArc
 50
179.99999999999963
 51
269.99999999999937
  0
LINE
  5
223
100
AcDbEntity
  8
0
  6
CONTINUOUS
 62
               4
100
AcDbLine
 10
0.299999999971277
 20
39.299999999996388
 30
0.0
 11
-18.900000000028655
 21
39.299999999996388
 31
0.0
  0
LINE
  5
224
100
AcDbEntity
  8
0
  6
CONTINUOUS
 62
               4
100
AcDbLine
 10
0.199999999971709
 20
47.299999999996388
 30
0.0
 11
-18.800000000028291
 21
47.299999999996388
 31
0.0
  0
LINE
  5
225
100
AcDbEntity
  8
0
  6
CONTINUOUS
 62
               4
100
AcDbLine
 10
-19.300000000028632
 20
39.799999999996444
 30
0.0
 11
-19.300000000028291
 21
46.899999999996353
 31
0.0
  0
LINE
  5
226
100
AcDbEntity
  8
0
  6
CONTINUOUS
 62
               4
100
AcDbLine
 10
0.6999999999712543
 20
39.799999999996331
 30
0.0
 11
0.699999999971709
 21
46.899999999996353
 31
0.0
  0
LINE
  5
227
100
AcDbEntity
  8
0
  6
CENTER
 62
             200
100
AcDbLine
 10
-12.800000000028632
 20
44.529318342785373
 30
0.0
 11
-12.800000000028518
 21
41.995604771849131
 31
0.0
  0
LINE
  5
228
100
AcDbEntity
  8
0
  6
CENTER
 62
             200
100
AcDbLine
 10
-5.800000000028291
 20
44.529318342784634
 30
0.0
 11
-5.8000000000285183
 21
41.995604771848448
 31
0.0
  0
ARC
  5
229
100
AcDbEntity
  8
0
  6
CONTINUOUS
 62
               4
100
AcDbCircle
 10
-5.800000000028632
 20
43.299999999996615
 30
0.0
 40
2.0
100
AcDbArc
 50
269.99999999999937
 51
89.999999999999801
  0
LINE
  5
22A
100
AcDbEntity
  8
0
  6
CONTINUOUS
 62
               4
100
AcDbLine
 10
-12.799999988487258
 20
45.299999999996615
 30
0.0
 11
-5.8000000000286311
 21
45.299999999996615
 31
0.0
  0
LINE
  5
22B
100
AcDbEntity
  8
0
  6
CONTINUOUS
 62
               4
100
AcDbLine
 10
-12.799999988487258
 20
41.299999999996615
 30
0.0
 11
-5.800000000028632
 21
41.299999999996615
 31
0.0
  0
ARC
  5
22C
100
AcDbEntity
  8
0
  6
CONTINUOUS
 62
               4
100
AcDbCircle
 10
-12.800000000028291
 20
43.299999999996956
 30
0.0
 40
2.0
100
AcDbArc
 50
89.999999999994003
 51
269.99999999999358
  0
CIRCLE
  5
22D
100
AcDbEntity
  8
0
  6
CONTINUOUS
 62
               4
100
AcDbCircle
 10
-5.800000000028632
 20
43.299999999996615
 30
0.0
 40
0.8
  0
CIRCLE
  5
22E
100
AcDbEntity
  8
0
  6
CONTINUOUS
 62
               4
100
AcDbCircle
 10
-12.800000000028632
 20
43.299999999996672
 30
0.0
 40
0.8
  0
LINE
  5
22F
100
AcDbEntity
  8
0
  6
CONTINUOUS
 62
               4
100
AcDbLine
 10
-17.300000000028973
 20
53.499999999996376
 30
0.0
 11
-1.3000000000289731
 21
53.499999999996376
 31
0.0
  0
LINE
  5
230
100
AcDbEntity
  8
0
  6
CONTINUOUS
 62
               4
100
AcDbLine
 10
-17.800000000028973
 20
53.999999999996376
 30
0.0
 11
-17.800000000029087
 21
60.999999991083669
 31
0.0
  0
LINE
  5
231
100
AcDbEntity
  8
0
  6
CONTINUOUS
 62
               4
100
AcDbLine
 10
-0.8000000000289731
 20
53.999999999996376
 30
0.0
 11
-0.8000000000292005
 21
60.999999991083669
 31
0.0
  0
LINE
  5
232
100
AcDbEntity
  8
0
  6
CENTER
 62
             200
100
AcDbLine
 10
-13.857369836032941
 20
43.299999999996388
 30
0.0
 11
-4.6609717587850561
 21
43.299999999996388
 31
0.0
  0
ARC
  5
233
100
AcDbEntity
  8
0
  6
CONTINUOUS
 62
               4
100
AcDbCircle
 10
-20.200000000029291
 20
62.999999999994557
 30
0.0
 40
1.0
100
AcDbArc
 50
90.000000000005542
 51
180.00000000000534
  0
ARC
  5
234
100
AcDbEntity
  8
0
  6
CONTINUOUS
 62
               4
100
AcDbCircle
 10
1.5999999999706631
 20
62.999999999995694
 30
0.0
 40
1.0
100
AcDbArc
 50
0.0000000000057504
 51
90.000000000005542
  0
LINE
  5
235
100
AcDbEntity
  8
0
  6
CONTINUOUS
 62
               4
100
AcDbLine
 10
1.5999999999704357
 20
63.999999999995694
 30
0.0
 11
-20.200000000029405
 21
63.999999999994557
 31
0.0
  0
ARC
  5
236
100
AcDbEntity
  8
0
  6
CONTINUOUS
 62
               4
100
AcDbCircle
 10
-1.3000000000289731
 20
53.999999999996376
 30
0.0
 40
0.5
100
AcDbArc
 50
269.99999999999937
 51
0.0
  0
ARC
  5
237
100
AcDbEntity
  8
0
  6
CONTINUOUS
 62
               4
100
AcDbCircle
 10
-17.300000000028973
 20
53.999999999996376
 30
0.0
 40
0.5
100
AcDbArc
 50
179.99999999999963
 51
269.99999999999937
  0
LINE
  5
238
100
AcDbEntity
  8
0
  6
CONTINUOUS
 62
               4
100
AcDbLine
 10
-21.200000000029291
 20
60.999999991083669
 30
0.0
 11
2.6000000046466027
 21
60.999999991083669
 31
0.0
  0
LINE
  5
239
100
AcDbEntity
  8
0
  6
CONTINUOUS
 62
               4
100
AcDbLine
 10
-20.200000000028155
 20
36.999999996796149
 30
0.0
 11
-14.600000000028018
 21
36.999999996796149
 31
0.0
  0
LINE
  5
23A
100
AcDbEntity
  8
0
  6
CONTINUOUS
 62
               4
100
AcDbLine
 10
-17.599999995353329
 20
36.29999999679616
 30
0.0
 11
-16.100000000028018
 21
36.29999999679616
 31
0.0
  0
LINE
  5
23B
100
AcDbEntity
  8
0
  6
CONTINUOUS
 62
               4
100
AcDbLine
 10
-1.0000000000283364
 20
32.200000006189796
 30
0.0
 11
-17.600000000027791
 21
32.200000006189796
 31
0.0
  0
LINE
  5
23C
100
AcDbEntity
  8
0
  6
CONTINUOUS
 62
               4
100
AcDbLine
 10
-18.100000000027791
 20
32.700000006189796
 30
0.0
 11
-18.100000000028018
 21
35.79999999679616
 31
0.0
  0
ARC
  5
23D
100
AcDbEntity
  8
0
  6
CONTINUOUS
 62
               4
100
AcDbCircle
 10
-17.600000000027791
 20
32.700000006189796
 30
0.0
 40
0.5
100
AcDbArc
 50
179.99999999999963
 51
269.99999999999937
  0
ARC
  5
23E
100
AcDbEntity
  8
0
  6
CONTINUOUS
 62
               4
100
AcDbCircle
 10
-17.600000000028018
 20
35.79999999679616
 30
0.0
 40
0.5
100
AcDbArc
 50
89.999999999999815
 51
179.99999999999963
  0
LINE
  5
23F
100
AcDbEntity
  8
0
  6
CONTINUOUS
 62
               4
100
AcDbLine
 10
-14.600000000027791
 20
32.200000006189853
 30
0.0
 11
-14.600000000028018
 21
36.999999996796149
 31
0.0
  0
LINE
  5
240
100
AcDbEntity
  8
0
  6
CONTINUOUS
 62
               4
100
AcDbLine
 10
-2.5000000000283364
 20
32.200000006190535
 30
0.0
 11
-2.5000000000285638
 21
36.999999996796888
 31
0.0
  0
LINE
  5
241
100
AcDbEntity
  8
0
  6
CONTINUOUS
 62
               4
100
AcDbLine
 10
-4.0000000000283364
 20
32.200000006190422
 30
0.0
 11
-4.0000000000285638
 21
36.999999996796774
 31
0.0
  0
ARC
  5
242
100
AcDbEntity
  8
0
  6
CONTINUOUS
 62
               4
100
AcDbCircle
 10
-1.0000000000285638
 20
35.799999996797013
 30
0.0
 40
0.5
100
AcDbArc
 50
0.0000000000055978
 51
90.0000000000054
  0
ARC
  5
243
100
AcDbEntity
  8
0
  6
CONTINUOUS
 62
               4
100
AcDbCircle
 10
-1.0000000000283364
 20
32.700000006190649
 30
0.0
 40
0.5
100
AcDbArc
 50
270.000000000005
 51
0.0000000000055978
  0
LINE
  5
244
100
AcDbEntity
  8
0
  6
CONTINUOUS
 62
               4
100
AcDbLine
 10
-0.5000000000283364
 20
32.700000006190649
 30
0.0
 11
-0.5000000000285638
 21
35.799999996797013
 31
0.0
  0
LINE
  5
245
100
AcDbEntity
  8
0
  6
CONTINUOUS
 62
               4
100
AcDbLine
 10
-1.0000000047031392
 20
36.299999996797013
 30
0.0
 11
-2.5000000000285638
 21
36.299999996796842
 31
0.0
  0
LINE
  5
246
100
AcDbEntity
  8
0
  6
CONTINUOUS
 62
               4
100
AcDbLine
 10
-4.0000000000285638
 20
36.999999996796149
 30
0.0
 11
1.5999999999718
 21
36.999999996796149
 31
0.0
  0
ARC
  5
247
100
AcDbEntity
  8
0
  6
CONTINUOUS
 62
               4
100
AcDbCircle
 10
-20.200000000028155
 20
37.999999996796149
 30
0.0
 40
1.0
100
AcDbArc
 50
179.99999999999963
 51
269.99999999999937
  0
ARC
  5
248
100
AcDbEntity
  8
0
  6
CONTINUOUS
 62
               4
100
AcDbCircle
 10
1.5999999999718
 20
37.999999996796149
 30
0.0
 40
1.0
100
AcDbArc
 50
270.00000000000023
 51
0.0
  0
LINE
  5
249
100
AcDbEntity
  8
0
  6
CONTINUOUS
 62
               4
100
AcDbLine
 10
-21.200000007274326
 20
38.000000005581242
 30
0.0
 11
2.6000000046466027
 21
38.000000005581242
 31
0.0
  0
LINE
  5
24A
100
AcDbEntity
  8
0
  6
CONTINUOUS
 62
               4
100
AcDbLine
 10
-16.65000000001919
 20
30.50000000890175
 30
0.0
 11
-21.15000000001919
 21
30.500000008898937
 31
0.0
  0
ARC
  5
24B
100
AcDbEntity
  8
0
  6
CONTINUOUS
 62
               4
100
AcDbCircle
 10
-17.450000190754537
 20
31.193745621999184
 30
0.0
 40
0.800000011920929
100
AcDbArc
 50
359.9999820139455
 51
73.808645430504711
  0
LINE
  5
24C
100
AcDbEntity
  8
0
  6
CONTINUOUS
 62
               4
100
AcDbLine
 10
-21.200000000011769
 20
29.799999999989396
 30
0.0
 11
-13.050000001933668
 21
29.799999999993261
 31
0.0
  0
LINE
  5
24D
100
AcDbEntity
  8
0
  6
CONTINUOUS
 62
               4
100
AcDbLine
 10
-13.050000001933668
 20
29.799999999993261
 30
0.0
 11
-13.050000001934848
 21
31.999999999992397
 31
0.0
  0
LINE
  5
24E
100
AcDbEntity
  8
0
  6
CONTINUOUS
 62
               4
100
AcDbLine
 10
-15.420000000011797
 20
29.799999999992153
 30
0.0
 11
-15.420000000012749
 21
31.999999999991118
 31
0.0
  0
LINE
  5
24F
100
AcDbEntity
  8
0
  6
CONTINUOUS
 62
               4
100
AcDbLine
 10
-16.650000000019674
 20
31.193745621999668
 30
0.0
 11
-16.650000000018807
 21
29.800000008901534
 31
0.0
  0
LINE
  5
250
100
AcDbEntity
  8
0
  6
CONTINUOUS
 62
               4
100
AcDbLine
 10
-20.436228463120699
 20
31.999999999988447
 30
0.0
 11
-21.199999996223085
 21
31.99999999998802
 31
0.0
  0
ARC
  5
251
100
AcDbEntity
  8
0
  6
CONTINUOUS
 62
               4
100
AcDbCircle
 10
-18.900000000016547
 20
26.199999818165296
 30
0.0
 40
6.0
100
AcDbArc
 50
73.808645430504711
 51
106.19128262520877
  0
ARC
  5
252
100
AcDbEntity
  8
0
  6
CONTINUOUS
 62
               4
100
AcDbCircle
 10
-20.34999980928481
 20
31.193745621997394
 30
0.0
 40
0.800000011920929
100
AcDbArc
 50
106.19135456956614
 51
180.00001798612456
  0
LINE
  5
253
100
AcDbEntity
  8
0
  6
CONTINUOUS
 62
               4
100
AcDbLine
 10
-13.050000001934848
 20
31.999999999992397
 30
0.0
 11
-17.363771536918534
 21
31.999999999990067
 31
0.0
  0
LINE
  5
254
100
AcDbEntity
  8
0
  6
CONTINUOUS
 62
               4
100
AcDbLine
 10
-15.100000000012813
 20
31.999999999991289
 30
0.0
 11
-15.100000000012926
 21
32.200000006186698
 31
0.0
  0
LINE
  5
255
100
AcDbEntity
  8
0
  6
CONTINUOUS
 62
               4
100
AcDbLine
 10
-21.150000000019674
 20
31.193745621996854
 30
0.0
 11
-21.150000000018807
 21
29.800000008898721
 31
0.0
  0
LINE
  5
256
100
AcDbEntity
  8
0
  6
CONTINUOUS
 62
               4
100
AcDbLine
 10
-21.200000000008643
 20
23.999999999994216
 30
0.0
 11
-21.200000000027245
 21
62.999999999989328
 31
0.0
  0
CIRCLE
  5
257
100
AcDbEntity
  8
0
  6
CONTINUOUS
 62
               4
100
AcDbCircle
 10
-9.300000000028632
 20
43.299999999996672
 30
0.0
 40
0.8
  0
CIRCLE
  5
258
100
AcDbEntity
  8
0
  6
CONTINUOUS
 62
               4
100
AcDbCircle
 10
-9.300000000028632
 20
43.299999999996672
 30
0.0
 40
0.25
  0
CIRCLE
  5
259
100
AcDbEntity
  8
0
  6
CONTINUOUS
 62
               7
100
AcDbCircle
 10
-9.3000000000157215
 20
15.999999999994813
 30
0.0
 40
2.6499999999999999
  0
CIRCLE
  5
25A
100
AcDbEntity
  8
0
  6
CONTINUOUS
 62
               7
100
AcDbCircle
 10
-9.3000000000157215
 20
15.999999999994813
 30
0.0
 40
2.0499999999999998
  0
LINE
  5
25B
100
AcDbEntity
  8
0
  6
CONTINUOUS
 62
               7
100
AcDbLine
 10
-8.7000000000152014
 20
14.039770421603706
 30
0.0
 11
-8.7000000000162458
 21
17.96022957838624
 31
0.0
  0
LINE
  5
25C
100
AcDbEntity
  8
0
  6
CONTINUOUS
 62
               7
100
AcDbLine
 10
-9.9000000000152006
 20
14.039770421603388
 30
0.0
 11
-9.9000000000162451
 21
17.960229578385917
 31
0.0
  0
LINE
  5
25D
100
AcDbEntity
  8
0
  6
CONTINUOUS
 62
               7
100
AcDbLine
 10
-7.3397704216244399
 20
16.599999999994761
 30
0.0
 11
-11.260229578406971
 21
16.599999999994868
 31
0.0
  0
LINE
  5
25E
100
AcDbEntity
  8
0
  6
CONTINUOUS
 62
               7
100
AcDbLine
 10
-7.3397704216244719
 20
15.399999999994762
 30
0.0
 11
-11.260229578407003
 21
15.399999999994863
 31
0.0
  0
ENDBLK
  5
25F
100
AcDbEntity
  8
0
100
AcDbBlockEnd
  0
BLOCK
  5
260
100
AcDbEntity
  8
0
100
AcDbBlockBegin
  2
PA24F7-6
 70
               0
 10
0.0
 20
0.0
 30
0.0
  3
PA24F7-6
  1

  0
LINE
  5
261
100
AcDbEntity
  8
0
  6
CONTINUOUS
 62
               4
100
AcDbLine
 10
-3.9999999999998153
 20
7.8999999999998636
 30
0.0
 11
-8.7999999999998835
 21
7.8999999999998636
 31
0.0
  0
LINE
  5
262
100
AcDbEntity
  8
0
  6
CONTINUOUS
 62
               4
100
AcDbLine
 10
-2.0999999999997243
 20
26.599999999998658
 30
0.0
 11
-7.8999999999996788
 21
26.599999999998772
 31
0.0
  0
LINE
  5
263
100
AcDbEntity
  8
0
  6
CONTINUOUS
 62
               4
100
AcDbLine
 10
-2.0999999999996106
 20
33.399999999998613
 30
0.0
 11
-2.0999999999997243
 21
26.599999999998658
 31
0.0
  0
LINE
  5
264
100
AcDbEntity
  8
0
  6
CONTINUOUS
 62
               4
100
AcDbLine
 10
-7.8999999999995651
 20
33.399999999998727
 30
0.0
 11
-7.8999999999996788
 21
26.599999999998772
 31
0.0
  0
LINE
  5
265
100
AcDbEntity
  8
0
  6
CONTINUOUS
 62
               4
100
AcDbLine
 10
-2.0999999999996106
 20
33.399999999998613
 30
0.0
 11
-7.8999999999995651
 21
33.399999999998727
 31
0.0
  0
LINE
  5
266
100
AcDbEntity
  8
0
  6
CONTINUOUS
 62
               4
100
AcDbLine
 10
2.1000000000004349
 20
26.599999999998658
 30
0.0
 11
7.9000000000005031
 21
26.599999999998545
 31
0.0
  0
LINE
  5
267
100
AcDbEntity
  8
0
  6
CONTINUOUS
 62
               4
100
AcDbLine
 10
2.1000000000005485
 20
33.399999999998613
 30
0.0
 11
2.1000000000004349
 21
26.599999999998658
 31
0.0
  0
LINE
  5
268
100
AcDbEntity
  8
0
  6
CONTINUOUS
 62
               4
100
AcDbLine
 10
7.9000000000005031
 20
33.399999999998499
 30
0.0
 11
7.9000000000005031
 21
26.599999999998545
 31
0.0
  0
LINE
  5
269
100
AcDbEntity
  8
0
  6
CONTINUOUS
 62
               4
100
AcDbLine
 10
2.1000000000005485
 20
33.399999999998613
 30
0.0
 11
7.9000000000005031
 21
33.399999999998499
 31
0.0
  0
LINE
  5
26A
100
AcDbEntity
  8
0
  6
CONTINUOUS
 62
               4
100
AcDbLine
 10
-7.9999999999995879
 20
33.499999999998749
 30
0.0
 11
-7.9999999999997016
 21
26.499999999998749
 31
0.0
  0
LINE
  5
26B
100
AcDbEntity
  8
0
  6
CONTINUOUS
 62
               4
100
AcDbLine
 10
-1.9999999999995879
 20
33.499999999998636
 30
0.0
 11
-1.9999999999997016
 21
26.499999999998636
 31
0.0
  0
LINE
  5
26C
100
AcDbEntity
  8
0
  6
CONTINUOUS
 62
               4
100
AcDbLine
 10
-1.9999999999997016
 20
26.499999999998636
 30
0.0
 11
-7.9999999999997016
 21
26.499999999998749
 31
0.0
  0
LINE
  5
26D
100
AcDbEntity
  8
0
  6
CONTINUOUS
 62
               4
100
AcDbLine
 10
-1.9999999999995879
 20
33.499999999998636
 30
0.0
 11
-7.9999999999995879
 21
33.499999999998749
 31
0.0
  0
LINE
  5
26E
100
AcDbEntity
  8
0
  6
CONTINUOUS
 62
               4
100
AcDbLine
 10
2.0000000000004121
 20
26.499999999998636
 30
0.0
 11
8.0000000000004121
 21
26.499999999998522
 31
0.0
  0
LINE
  5
26F
100
AcDbEntity
  8
0
  6
CONTINUOUS
 62
               4
100
AcDbLine
 10
2.0000000000005258
 20
33.499999999998636
 30
0.0
 11
8.0000000000005258
 21
33.499999999998522
 31
0.0
  0
LINE
  5
270
100
AcDbEntity
  8
0
  6
CONTINUOUS
 62
               4
100
AcDbLine
 10
7.9000000000002757
 20
18.299999994247401
 30
0.0
 11
7.9000000000002757
 21
18.700207536078665
 31
0.0
  0
ARC
  5
271
100
AcDbEntity
  8
0
  6
CONTINUOUS
 62
               4
100
AcDbCircle
 10
7.6000000000002075
 20
18.299999994247401
 30
0.0
 40
0.3
100
AcDbArc
 50
269.9999999999979
 51
359.99999999999767
  0
LINE
  5
272
100
AcDbEntity
  8
0
  6
CONTINUOUS
 62
               4
100
AcDbLine
 10
7.9000000000002757
 20
18.700207536078665
 30
0.0
 11
9.2999999874520682
 21
18.700207536078665
 31
0.0
  0
ARC
  5
273
100
AcDbEntity
  8
0
  6
CONTINUOUS
 62
               4
100
AcDbCircle
 10
-7.5999999999997243
 20
18.299999994247628
 30
0.0
 40
0.3
100
AcDbArc
 50
179.99999999999963
 51
269.99999999999937
  0
LINE
  5
274
100
AcDbEntity
  8
0
  6
CONTINUOUS
 62
               4
100
AcDbLine
 10
7.1000000000002075
 20
16.399999999999636
 30
0.0
 11
7.1000000000002075
 21
17.999999994247446
 31
0.0
  0
LINE
  5
275
100
AcDbEntity
  8
0
  6
CONTINUOUS
 62
               4
100
AcDbLine
 10
-7.8999999999996788
 20
18.299999994247742
 30
0.0
 11
-7.8999999999996788
 21
18.700207536078892
 31
0.0
  0
LINE
  5
276
100
AcDbEntity
  8
0
  6
CONTINUOUS
 62
               4
100
AcDbLine
 10
7.1000000000002075
 20
17.999999994247446
 30
0.0
 11
9.300000000000253
 21
17.999999994247446
 31
0.0
  0
LINE
  5
277
100
AcDbEntity
  8
0
  6
CONTINUOUS
 62
               4
100
AcDbLine
 10
-7.8999999999996788
 20
18.700207536078892
 30
0.0
 11
-9.2999999874515851
 21
18.700207536078892
 31
0.0
  0
LINE
  5
278
100
AcDbEntity
  8
0
  6
CONTINUOUS
 62
               4
100
AcDbLine
 10
-7.0999999999997243
 20
17.999999994247673
 30
0.0
 11
-9.2999999999996561
 21
17.999999994247673
 31
0.0
  0
LINE
  5
279
100
AcDbEntity
  8
0
  6
CONTINUOUS
 62
               4
100
AcDbLine
 10
9.3000000000001393
 20
8.3999999999998636
 30
0.0
 11
9.300000000000253
 21
18.700207536078665
 31
0.0
  0
ARC
  5
27A
100
AcDbEntity
  8
0
  6
CONTINUOUS
 62
               4
100
AcDbCircle
 10
-3.4999999999998153
 20
7.1999999999999318
 30
0.0
 40
0.5
100
AcDbArc
 50
179.99999999999807
 51
269.9999999999979
  0
LINE
  5
27B
100
AcDbEntity
  8
0
  6
CONTINUOUS
 62
               4
100
AcDbLine
 10
-3.9999999999998153
 20
7.1999999999999318
 30
0.0
 11
-3.9999999999998153
 21
7.8999999999999773
 31
0.0
  0
ARC
  5
27C
100
AcDbEntity
  8
0
  6
CONTINUOUS
 62
               4
100
AcDbCircle
 10
3.5000000000001847
 20
7.1999999999998181
 30
0.0
 40
0.5
100
AcDbArc
 50
269.99999999999937
 51
0.0
  0
LINE
  5
27D
100
AcDbEntity
  8
0
  6
CONTINUOUS
 62
               4
100
AcDbLine
 10
4.0000000000001847
 20
7.1999999999998181
 30
0.0
 11
4.0000000000001847
 21
7.8999999999998636
 31
0.0
  0
LINE
  5
27E
100
AcDbEntity
  8
0
  6
CONTINUOUS
 62
               4
100
AcDbLine
 10
3.5000000000001847
 20
6.6999999999998181
 30
0.0
 11
-3.4999999999998153
 21
6.6999999999998181
 31
0.0
  0
ARC
  5
27F
100
AcDbEntity
  8
0
  6
CONTINUOUS
 62
               4
100
AcDbCircle
 10
6.6000000000002075
 20
16.399999999999864
 30
0.0
 40
0.5
100
AcDbArc
 50
270.00000000000023
 51
0.0
  0
ARC
  5
280
100
AcDbEntity
  8
0
  6
CONTINUOUS
 62
               4
100
AcDbCircle
 10
-6.5999999999997243
 20
16.399999999999864
 30
0.0
 40
0.5
100
AcDbArc
 50
179.99999999999963
 51
269.99999999999937
  0
LINE
  5
281
100
AcDbEntity
  8
0
  6
CONTINUOUS
 62
               4
100
AcDbLine
 10
-7.0999999999997243
 20
16.399999999999864
 30
0.0
 11
-7.0999999999997243
 21
17.999999994247673
 31
0.0
  0
ARC
  5
282
100
AcDbEntity
  8
0
  6
CONTINUOUS
 62
               4
100
AcDbCircle
 10
-8.7999999999998835
 20
8.3999999999998636
 30
0.0
 40
0.5
100
AcDbArc
 50
179.99999999999963
 51
269.99999999999937
  0
LINE
  5
283
100
AcDbEntity
  8
0
  6
CONTINUOUS
 62
               4
100
AcDbLine
 10
-9.2999999999998835
 20
8.4000000000000909
 30
0.0
 11
-9.2999999999996561
 21
18.700207536078892
 31
0.0
  0
ARC
  5
284
100
AcDbEntity
  8
0
  6
CONTINUOUS
 62
               4
100
AcDbCircle
 10
8.8000000000001393
 20
8.3999999999998636
 30
0.0
 40
0.5
100
AcDbArc
 50
270.00000000000023
 51
0.0
  0
LINE
  5
285
100
AcDbEntity
  8
0
  6
CONTINUOUS
 62
               4
100
AcDbLine
 10
8.8000000000001393
 20
7.8999999999998636
 30
0.0
 11
4.0000000000001847
 21
7.8999999999998636
 31
0.0
  0
LINE
  5
286
100
AcDbEntity
  8
0
  6
CONTINUOUS
 62
               4
100
AcDbLine
 10
6.6000000000002075
 20
15.899999999999864
 30
0.0
 11
-6.5999999999997243
 21
15.899999999999864
 31
0.0
  0
LINE
  5
287
100
AcDbEntity
  8
0
  6
CONTINUOUS
 62
               4
100
AcDbLine
 10
-10.699999999372423
 20
34.900000000001
 30
0.0
 11
-11.899999993412095
 21
34.900000000001
 31
0.0
  0
LINE
  5
288
100
AcDbEntity
  8
0
  6
CONTINUOUS
 62
               4
100
AcDbLine
 10
-10.69999999999952
 20
34.900000000001
 30
0.0
 11
-10.69999999999952
 21
38.100000000001046
 31
0.0
  0
LINE
  5
289
100
AcDbEntity
  8
0
  6
CONTINUOUS
 62
               4
100
AcDbLine
 10
2.0000000000005258
 20
33.499999999998636
 30
0.0
 11
2.0000000000004121
 21
26.499999999998636
 31
0.0
  0
LINE
  5
28A
100
AcDbEntity
  8
0
  6
CONTINUOUS
 62
               4
100
AcDbLine
 10
8.0000000000005258
 20
33.499999999998522
 30
0.0
 11
8.0000000000004121
 21
26.499999999998522
 31
0.0
  0
LINE
  5
28B
100
AcDbEntity
  8
0
  6
CONTINUOUS
 62
               4
100
AcDbLine
 10
-10.699999999372423
 20
38.100000000001046
 30
0.0
 11
-11.899999993412095
 21
38.100000000001046
 31
0.0
  0
ARC
  5
28C
100
AcDbEntity
  8
0
  6
CONTINUOUS
 62
               4
100
AcDbCircle
 10
-10.899999999999338
 20
38.999999999998749
 30
0.0
 40
1.0
100
AcDbArc
 50
89.999999999999815
 51
179.99999999999963
  0
LINE
  5
28D
100
AcDbEntity
  8
0
  6
CONTINUOUS
 62
               4
100
AcDbLine
 10
10.700000000000458
 20
34.900000000000773
 30
0.0
 11
10.700000000000571
 21
38.100000000000819
 31
0.0
  0
LINE
  5
28E
100
AcDbEntity
  8
0
  6
CONTINUOUS
 62
               4
100
AcDbLine
 10
-10.899999999999338
 20
39.999999999998749
 30
0.0
 11
10.900000000000617
 21
39.999999999998522
 31
0.0
  0
ARC
  5
28F
100
AcDbEntity
  8
0
  6
CONTINUOUS
 62
               4
100
AcDbCircle
 10
10.900000000000503
 20
38.999999999998408
 30
0.0
 40
1.0
100
AcDbArc
 50
359.99999999999847
 51
89.999999999998266
  0
LINE
  5
290
100
AcDbEntity
  8
0
  6
CONTINUOUS
 62
               4
100
AcDbLine
 10
10.699999999373588
 20
38.100000000000819
 30
0.0
 11
11.899999993413147
 21
38.100000000000705
 31
0.0
  0
LINE
  5
291
100
AcDbEntity
  8
0
  6
CONTINUOUS
 62
               4
100
AcDbLine
 10
10.699999999373588
 20
34.900000000000773
 30
0.0
 11
11.899999993413033
 21
34.900000000000659
 31
0.0
  0
ARC
  5
292
100
AcDbEntity
  8
0
  6
CONTINUOUS
 62
               4
100
AcDbCircle
 10
3.5171572868647019
 20
9.6999999999985675
 30
0.0
 40
0.2
100
AcDbArc
 50
269.99999999999937
 51
45.000000000000966
  0
ARC
  5
293
100
AcDbEntity
  8
0
  6
CONTINUOUS
 62
               4
100
AcDbCircle
 10
-3.5171572868644461
 20
9.6999999999985675
 30
0.0
 40
0.2
100
AcDbArc
 50
134.99999999999793
 51
269.99999999999937
  0
ARC
  5
294
100
AcDbEntity
  8
0
  6
CONTINUOUS
 62
               4
100
AcDbCircle
 10
0.0000000000001847
 20
13.217157286862971
 30
0.0
 40
0.2
100
AcDbArc
 50
44.99999999999919
 51
134.99999999999898
  0
LINE
  5
295
100
AcDbEntity
  8
0
  6
CONTINUOUS
 62
               4
100
AcDbLine
 10
0.1414213562374727
 20
13.358578643100259
 30
0.0
 11
3.6585786431019898
 21
9.8414213562358555
 31
0.0
  0
LINE
  5
296
100
AcDbEntity
  8
0
  6
CONTINUOUS
 62
               4
100
AcDbLine
 10
-0.1414213562371032
 20
13.358578643100259
 30
0.0
 11
-3.658578643101734
 21
9.8414213562358555
 31
0.0
  0
LINE
  5
297
100
AcDbEntity
  8
0
  6
CONTINUOUS
 62
               4
100
AcDbLine
 10
3.5171572868647019
 20
9.4999999999985221
 30
0.0
 11
-3.5171572868644461
 21
9.4999999999985221
 31
0.0
  0
LINE
  5
298
100
AcDbEntity
  8
0
  6
CONTINUOUS
 62
               4
100
AcDbLine
 10
-7.8999999999997925
 20
15.799999999998704
 30
0.0
 11
-7.8999999999996788
 21
17.899999999998613
 31
0.0
  0
LINE
  5
299
100
AcDbEntity
  8
0
  6
CONTINUOUS
 62
               4
100
AcDbLine
 10
-7.8999999999996788
 20
17.899999999998613
 30
0.0
 11
-9.2999999999996561
 21
17.899999999998613
 31
0.0
  0
ARC
  5
29A
100
AcDbEntity
  8
0
  6
CONTINUOUS
 62
               4
100
AcDbCircle
 10
-8.7999999999998835
 20
8.4999999999985221
 30
0.0
 40
0.5
100
AcDbArc
 50
179.99999999999963
 51
269.99999999999937
  0
LINE
  5
29B
100
AcDbEntity
  8
0
  6
CONTINUOUS
 62
               4
100
AcDbLine
 10
8.8000000000001393
 20
7.9999999999985221
 30
0.0
 11
-8.7999999999998835
 21
7.9999999999985221
 31
0.0
  0
ARC
  5
29C
100
AcDbEntity
  8
0
  6
CONTINUOUS
 62
               4
100
AcDbCircle
 10
8.8000000000001393
 20
8.4999999999982947
 30
0.0
 40
0.5
100
AcDbArc
 50
269.9999999999979
 51
359.99999999999767
  0
LINE
  5
29D
100
AcDbEntity
  8
0
  6
CONTINUOUS
 62
               4
100
AcDbLine
 10
7.9000000000002757
 20
15.799999999998704
 30
0.0
 11
7.9000000000002757
 21
17.899999999998158
 31
0.0
  0
LINE
  5
29E
100
AcDbEntity
  8
0
  6
CONTINUOUS
 62
               4
100
AcDbLine
 10
7.9000000000002757
 20
17.899999999998158
 30
0.0
 11
9.300000000000253
 21
17.899999999998158
 31
0.0
  0
LINE
  5
29F
100
AcDbEntity
  8
0
  6
CONTINUOUS
 62
               4
100
AcDbLine
 10
9.300000000000221
 20
15.799999999998704
 30
0.0
 11
-9.2999999999997698
 21
15.799999999998704
 31
0.0
  0
LINE
  5
2A0
100
AcDbEntity
  8
0
  6
DASHED
 62
               2
100
AcDbLine
 10
-11.900000000003544
 20
0.0
 30
0.0
 11
11.89999999999857
 21
0.0
 31
0.0
  0
LINE
  5
2A1
100
AcDbEntity
  8
0
  6
CENTER
 62
             200
100
AcDbLine
 10
-0.0000000000000426
 20
-4.9708179906839405
 30
0.0
 11
0.0000000000005258
 21
60.661108033213281
 31
0.0
  0
LINE
  5
2A2
100
AcDbEntity
  8
0
  6
CONTINUOUS
 62
               4
100
AcDbLine
 10
11.89999999999857
 20
0.0
 30
0.0
 11
11.900000000018238
 21
38.999999991078425
 31
0.0
  0
LINE
  5
2A3
100
AcDbEntity
  8
0
  6
CONTINUOUS
 62
               4
100
AcDbLine
 10
-11.899999999981489
 20
39.000000000006821
 30
0.0
 11
-11.900000000003544
 21
0.0
 31
0.0
  0
LINE
  5
2A4
100
AcDbEntity
  8
0
  6
CENTER
 62
             200
100
AcDbLine
 10
-10.280775623268184
 20
50.49999999997226
 30
0.0
 11
10.493518005540707
 21
50.49999999997226
 31
0.0
  0
LINE
  5
2A5
100
AcDbEntity
  8
0
  6
CONTINUOUS
 62
               4
100
AcDbLine
 10
7.0000000000005258
 20
46.99999999997226
 30
0.0
 11
6.4951905283838443
 21
46.99999999997226
 31
0.0
  0
LINE
  5
2A6
100
AcDbEntity
  8
0
  6
CONTINUOUS
 62
               4
100
AcDbLine
 10
7.0000000000005258
 20
46.99999999997226
 30
0.0
 11
7.0000000000005258
 21
53.99999999997226
 31
0.0
  0
LINE
  5
2A7
100
AcDbEntity
  8
0
  6
CONTINUOUS
 62
               4
100
AcDbLine
 10
7.0000000000005258
 20
53.99999999997226
 30
0.0
 11
6.4951905283838443
 21
53.99999999997226
 31
0.0
  0
LINE
  5
2A8
100
AcDbEntity
  8
0
  6
CONTINUOUS
 62
               4
100
AcDbLine
 10
-6.9999999999994742
 20
46.99999999997226
 30
0.0
 11
-6.4951905283827926
 21
46.99999999997226
 31
0.0
  0
LINE
  5
2A9
100
AcDbEntity
  8
0
  6
CONTINUOUS
 62
               4
100
AcDbLine
 10
-6.9999999999994742
 20
53.99999999997226
 30
0.0
 11
-6.4951905283827926
 21
53.99999999997226
 31
0.0
  0
LINE
  5
2AA
100
AcDbEntity
  8
0
  6
CONTINUOUS
 62
               4
100
AcDbLine
 10
-6.9999999999994742
 20
46.99999999997226
 30
0.0
 11
-6.9999999999994742
 21
53.99999999997226
 31
0.0
  0
CIRCLE
  5
2AB
100
AcDbEntity
  8
0
  6
CONTINUOUS
 62
               4
100
AcDbCircle
 10
0.0000000000005258
 20
50.49999999997226
 30
0.0
 40
3.5
  0
ARC
  5
2AC
100
AcDbEntity
  8
0
  6
CONTINUOUS
 62
               4
100
AcDbCircle
 10
7.2500000000005258
 20
54.99999999997226
 30
0.0
 40
0.5
100
AcDbArc
 50
0.0
 51
89.999999999999815
  0
ARC
  5
2AD
100
AcDbEntity
  8
0
  6
CONTINUOUS
 62
               4
100
AcDbCircle
 10
-7.2499999999994742
 20
54.99999999997226
 30
0.0
 40
0.5
100
AcDbArc
 50
89.999999999999815
 51
179.99999999999963
  0
LINE
  5
2AE
100
AcDbEntity
  8
0
  6
CONTINUOUS
 62
               4
100
AcDbLine
 10
4.8989794855670681
 20
55.49999999997226
 30
0.0
 11
7.2500000000005258
 21
55.49999999997226
 31
0.0
  0
ARC
  5
2AF
100
AcDbEntity
  8
0
  6
CONTINUOUS
 62
               4
100
AcDbCircle
 10
0.0000000000005258
 20
50.49999999997226
 30
0.0
 40
7.0
100
AcDbArc
 50
38.107391093313929
 51
81.892608906685837
  0
ARC
  5
2B0
100
AcDbEntity
  8
0
  6
CONTINUOUS
 62
               4
100
AcDbCircle
 10
0.0000000000005258
 20
50.49999999997226
 30
0.0
 40
7.0
100
AcDbArc
 50
338.10739109331331
 51
21.892608906685858
  0
ARC
  5
2B1
100
AcDbEntity
  8
0
  6
CONTINUOUS
 62
               4
100
AcDbCircle
 10
0.0000000000005258
 20
50.49999999997226
 30
0.0
 40
7.0
100
AcDbArc
 50
278.10739109331342
 51
321.89260890668527
  0
ARC
  5
2B2
100
AcDbEntity
  8
0
  6
CONTINUOUS
 62
               4
100
AcDbCircle
 10
0.0000000000005258
 20
50.49999999997226
 30
0.0
 40
7.0
100
AcDbArc
 50
218.10739109331354
 51
261.89260890668538
  0
ARC
  5
2B3
100
AcDbEntity
  8
0
  6
CONTINUOUS
 62
               4
100
AcDbCircle
 10
0.0000000000005258
 20
50.49999999997226
 30
0.0
 40
7.0
100
AcDbArc
 50
158.10739109331371
 51
201.89260890668552
  0
ARC
  5
2B4
100
AcDbEntity
  8
0
  6
CONTINUOUS
 62
               4
100
AcDbCircle
 10
0.0000000000005258
 20
50.49999999997226
 30
0.0
 40
7.0
100
AcDbArc
 50
98.107391093313822
 51
141.89260890668567
  0
LINE
  5
2B5
100
AcDbEntity
  8
0
  6
CONTINUOUS
 62
               4
100
AcDbLine
 10
-7.2499999999994742
 20
55.49999999997226
 30
0.0
 11
-4.8989794855657891
 21
55.49999999997226
 31
0.0
  0
ARC
  5
2B6
100
AcDbEntity
  8
0
  6
CONTINUOUS
 62
               4
100
AcDbCircle
 10
0.0000000000005258
 20
50.49999999997226
 30
0.0
 40
6.5
100
AcDbArc
 50
225.8533523675616
 51
254.14664763243732
  0
ARC
  5
2B7
100
AcDbEntity
  8
0
  6
CONTINUOUS
 62
               4
100
AcDbCircle
 10
0.0000000000005258
 20
50.49999999997226
 30
0.0
 40
6.5
100
AcDbArc
 50
285.85335236756146
 51
314.14664763243718
  0
ARC
  5
2B8
100
AcDbEntity
  8
0
  6
CONTINUOUS
 62
               4
100
AcDbCircle
 10
0.0000000000005258
 20
50.49999999997226
 30
0.0
 40
6.5
100
AcDbArc
 50
345.85335236756129
 51
14.146647632437864
  0
ARC
  5
2B9
100
AcDbEntity
  8
0
  6
CONTINUOUS
 62
               4
100
AcDbCircle
 10
0.0000000000005258
 20
50.49999999997226
 30
0.0
 40
6.5
100
AcDbArc
 50
45.853352367561996
 51
74.146647632437677
  0
ARC
  5
2BA
100
AcDbEntity
  8
0
  6
CONTINUOUS
 62
               4
100
AcDbCircle
 10
0.0000000000005258
 20
50.49999999997226
 30
0.0
 40
6.5
100
AcDbArc
 50
105.85335236756191
 51
134.14664763243758
  0
LINE
  5
2BB
100
AcDbEntity
  8
0
  6
CONTINUOUS
 62
               4
100
AcDbLine
 10
-4.7631397208137258
 20
55.24999999997226
 30
0.0
 11
-4.5272320069556571
 21
55.164136614094105
 31
0.0
  0
LINE
  5
2BC
100
AcDbEntity
  8
0
  6
CONTINUOUS
 62
               4
100
AcDbLine
 10
-6.4951905283827926
 20
52.24999999997226
 30
0.0
 11
-6.3028767980280662
 21
52.088629619761377
 31
0.0
  0
LINE
  5
2BD
100
AcDbEntity
  8
0
  6
CONTINUOUS
 62
               4
100
AcDbLine
 10
-6.4951905283827926
 20
48.74999999997226
 30
0.0
 11
-6.3028767980280662
 21
48.911370380183143
 31
0.0
  0
LINE
  5
2BE
100
AcDbEntity
  8
0
  6
CONTINUOUS
 62
               4
100
AcDbLine
 10
-4.7631397208137258
 20
45.74999999997226
 30
0.0
 11
-4.5272320069556571
 21
45.835863385850416
 31
0.0
  0
LINE
  5
2BF
100
AcDbEntity
  8
0
  6
CONTINUOUS
 62
               4
100
AcDbLine
 10
-1.7320508075683136
 20
43.99999999997226
 30
0.0
 11
-1.7756447910718833
 21
44.247233766061299
 31
0.0
  0
LINE
  5
2C0
100
AcDbEntity
  8
0
  6
CONTINUOUS
 62
               4
100
AcDbLine
 10
1.7320508075695926
 20
43.99999999997226
 30
0.0
 11
1.7756447910731623
 21
44.247233766061299
 31
0.0
  0
LINE
  5
2C1
100
AcDbEntity
  8
0
  6
CONTINUOUS
 62
               4
100
AcDbLine
 10
4.7631397208150048
 20
45.74999999997226
 30
0.0
 11
4.5272320069567087
 21
45.835863385850416
 31
0.0
  0
LINE
  5
2C2
100
AcDbEntity
  8
0
  6
CONTINUOUS
 62
               4
100
AcDbLine
 10
6.4951905283838443
 20
48.74999999997226
 30
0.0
 11
6.3028767980293452
 21
48.911370380183143
 31
0.0
  0
LINE
  5
2C3
100
AcDbEntity
  8
0
  6
CONTINUOUS
 62
               4
100
AcDbLine
 10
6.4951905283838443
 20
52.24999999997226
 30
0.0
 11
6.3028767980293452
 21
52.088629619761377
 31
0.0
  0
LINE
  5
2C4
100
AcDbEntity
  8
0
  6
CONTINUOUS
 62
               4
100
AcDbLine
 10
4.7631397208150048
 20
55.24999999997226
 30
0.0
 11
4.5272320069567087
 21
55.164136614094105
 31
0.0
  0
LINE
  5
2C5
100
AcDbEntity
  8
0
  6
CONTINUOUS
 62
               4
100
AcDbLine
 10
1.7320508075695926
 20
56.99999999997226
 30
0.0
 11
1.7756447910731623
 21
56.752766233883222
 31
0.0
  0
LINE
  5
2C6
100
AcDbEntity
  8
0
  6
CONTINUOUS
 62
               4
100
AcDbLine
 10
-1.7320508075683136
 20
56.99999999997226
 30
0.0
 11
-1.7756447910718833
 21
56.752766233883222
 31
0.0
  0
ARC
  5
2C7
100
AcDbEntity
  8
0
  6
CONTINUOUS
 62
               4
100
AcDbCircle
 10
0.0000000000005258
 20
50.49999999997226
 30
0.0
 40
6.5
100
AcDbArc
 50
165.85335236756171
 51
194.14664763243749
  0
LINE
  5
2C8
100
AcDbEntity
  8
0
  6
CONTINUOUS
 62
               4
100
AcDbLine
 10
-6.4951905283827926
 20
54.24999999997226
 30
0.0
 11
-4.7631397208137258
 21
55.24999999997226
 31
0.0
  0
LINE
  5
2C9
100
AcDbEntity
  8
0
  6
CONTINUOUS
 62
               4
100
AcDbLine
 10
-6.4951905283827926
 20
54.24999999997226
 30
0.0
 11
-6.4951905283827926
 21
52.24999999997226
 31
0.0
  0
LINE
  5
2CA
100
AcDbEntity
  8
0
  6
CONTINUOUS
 62
               4
100
AcDbLine
 10
-6.4951905283827926
 20
46.74999999997226
 30
0.0
 11
-6.4951905283827926
 21
48.74999999997226
 31
0.0
  0
LINE
  5
2CB
100
AcDbEntity
  8
0
  6
CONTINUOUS
 62
               4
100
AcDbLine
 10
-6.4951905283827926
 20
46.74999999997226
 30
0.0
 11
-4.7631397208137258
 21
45.74999999997226
 31
0.0
  0
LINE
  5
2CC
100
AcDbEntity
  8
0
  6
CONTINUOUS
 62
               4
100
AcDbLine
 10
0.0000000000005258
 20
42.99999999997226
 30
0.0
 11
-1.7320508075683136
 21
43.99999999997226
 31
0.0
  0
LINE
  5
2CD
100
AcDbEntity
  8
0
  6
CONTINUOUS
 62
               4
100
AcDbLine
 10
0.0000000000005258
 20
42.99999999997226
 30
0.0
 11
1.7320508075695926
 21
43.99999999997226
 31
0.0
  0
LINE
  5
2CE
100
AcDbEntity
  8
0
  6
CONTINUOUS
 62
               4
100
AcDbLine
 10
6.4951905283838443
 20
46.74999999997226
 30
0.0
 11
4.7631397208150048
 21
45.74999999997226
 31
0.0
  0
LINE
  5
2CF
100
AcDbEntity
  8
0
  6
CONTINUOUS
 62
               4
100
AcDbLine
 10
6.4951905283838443
 20
46.74999999997226
 30
0.0
 11
6.4951905283838443
 21
48.74999999997226
 31
0.0
  0
LINE
  5
2D0
100
AcDbEntity
  8
0
  6
CONTINUOUS
 62
               4
100
AcDbLine
 10
6.4951905283838443
 20
54.24999999997226
 30
0.0
 11
6.4951905283838443
 21
52.24999999997226
 31
0.0
  0
LINE
  5
2D1
100
AcDbEntity
  8
0
  6
CONTINUOUS
 62
               4
100
AcDbLine
 10
6.4951905283838443
 20
54.24999999997226
 30
0.0
 11
4.7631397208150048
 21
55.24999999997226
 31
0.0
  0
LINE
  5
2D2
100
AcDbEntity
  8
0
  6
CONTINUOUS
 62
               4
100
AcDbLine
 10
0.0000000000005258
 20
57.99999999997226
 30
0.0
 11
-1.7320508075683136
 21
56.99999999997226
 31
0.0
  0
LINE
  5
2D3
100
AcDbEntity
  8
0
  6
CONTINUOUS
 62
               4
100
AcDbLine
 10
0.0000000000005258
 20
57.99999999997226
 30
0.0
 11
1.7320508075695926
 21
56.99999999997226
 31
0.0
  0
LINE
  5
2D4
100
AcDbEntity
  8
0
  6
CONTINUOUS
 62
               4
100
AcDbLine
 10
-7.7499999999994742
 20
39.999999999998636
 30
0.0
 11
-7.7499999999994742
 21
54.99999999997226
 31
0.0
  0
LINE
  5
2D5
100
AcDbEntity
  8
0
  6
CONTINUOUS
 62
               4
100
AcDbLine
 10
7.7500000000005258
 20
39.999999999998408
 30
0.0
 11
7.7500000000005258
 21
54.99999999997226
 31
0.0
  0
ENDBLK
  5
2D6
100
AcDbEntity
  8
0
100
AcDbBlockEnd
  0
BLOCK
  5
2D7
100
AcDbEntity
  8
0
100
AcDbBlockBegin
  2
PA24F7-7
 70
               0
 10
0.0
 20
0.0
 30
0.0
  3
PA24F7-7
  1

  0
LINE
  5
2D8
100
AcDbEntity
  8
0
  6
CONTINUOUS
 62
               4
100
AcDbLine
 10
8.0000000000003411
 20
39.999999999999957
 30
0.0
 11
4.8000000000002103
 21
39.999999999999986
 31
0.0
  0
LINE
  5
2D9
100
AcDbEntity
  8
0
  6
CONTINUOUS
 62
               4
100
AcDbLine
 10
3.0000000100989723
 20
55.500000000000085
 30
0.0
 11
-11.499999989901028
 21
55.500000000002501
 31
0.0
  0
LINE
  5
2DA
100
AcDbEntity
  8
0
  6
CONTINUOUS
 62
               4
100
AcDbLine
 10
0.2500000100981197
 20
51.000000000000568
 30
0.0
 11
-8.7499999899018803
 21
51.000000000002018
 31
0.0
  0
LINE
  5
2DB
100
AcDbEntity
  8
0
  6
CONTINUOUS
 62
               4
100
AcDbLine
 10
0.2500000100962154
 20
39.000000000000568
 30
0.0
 11
-8.749999989903813
 21
39.000000000002018
 31
0.0
  0
LINE
  5
2DC
100
AcDbEntity
  8
0
  6
CONTINUOUS
 62
               4
100
AcDbLine
 10
-2.2999999999994714
 20
1.9999999915609976
 30
0.0
 11
0.0000000000001421
 21
1.9999999915609692
 31
0.0
  0
LINE
  5
2DD
100
AcDbEntity
  8
0
  6
CONTINUOUS
 62
               4
100
AcDbLine
 10
-8.4999999999994031
 20
16.000000000000199
 30
0.0
 11
0.5000000000000284
 21
16.000000000000114
 31
0.0
  0
LINE
  5
2DE
100
AcDbEntity
  8
0
  6
DASHED
 62
             200
100
AcDbLine
 10
-9.9999999999994031
 20
15.000000000000199
 30
0.0
 11
2.0000000000000284
 21
15.000000000000085
 31
0.0
  0
LINE
  5
2DF
100
AcDbEntity
  8
0
  6
CONTINUOUS
 62
               4
100
AcDbLine
 10
3.8000000000002672
 20
33.000000000000085
 30
0.0
 11
-11.999999999999233
 21
33.000000000000512
 31
0.0
  0
LINE
  5
2E0
100
AcDbEntity
  8
0
  6
DASHED
 62
             200
100
AcDbLine
 10
-9.9999999999994031
 20
15.000000000000199
 30
0.0
 11
-9.9999999999992326
 21
33.000000000000483
 31
0.0
  0
LINE
  5
2E1
100
AcDbEntity
  8
0
  6
CONTINUOUS
 62
               4
100
AcDbLine
 10
-8.9999999999994031
 20
16.500000000000199
 30
0.0
 11
-8.999999999999261
 21
32.500000000000426
 31
0.0
  0
LINE
  5
2E2
100
AcDbEntity
  8
0
  6
CONTINUOUS
 62
               4
100
AcDbLine
 10
-11.999999999999432
 20
11.999999991558582
 30
0.0
 11
-11.999999999999233
 21
33.000000000007901
 31
0.0
  0
ARC
  5
2E3
100
AcDbEntity
  8
0
  6
CONTINUOUS
 62
               4
100
AcDbCircle
 10
-2.4999999999974989
 20
11.499999991558497
 30
0.0
 40
0.5
100
AcDbArc
 50
0.0000000000020356
 51
90.000000000001833
  0
LINE
  5
2E4
100
AcDbEntity
  8
0
  6
CONTINUOUS
 62
               4
100
AcDbLine
 10
-1.9999999999974989
 20
11.499999991558497
 30
0.0
 11
-1.9999999999975842
 21
2.4999999915609976
 31
0.0
  0
ARC
  5
2E5
100
AcDbEntity
  8
0
  6
CONTINUOUS
 62
               4
100
AcDbCircle
 10
-1.9999999999994316
 20
11.999999991558497
 30
0.0
 40
10.0
100
AcDbArc
 50
180.00000000000162
 51
270.00000000000142
  0
LINE
  5
2E6
100
AcDbEntity
  8
0
  6
CONTINUOUS
 62
               4
100
AcDbLine
 10
-2.4999999999976126
 20
11.999999991558497
 30
0.0
 11
-11.499999999999432
 21
11.999999991558184
 31
0.0
  0
ARC
  5
2E7
100
AcDbEntity
  8
0
  6
CONTINUOUS
 62
               4
100
AcDbCircle
 10
-11.499999999999432
 20
12.499999991558184
 30
0.0
 40
0.5
100
AcDbArc
 50
179.99999999999909
 51
269.99999999999886
  0
ARC
  5
2E8
100
AcDbEntity
  8
0
  6
CONTINUOUS
 62
               4
100
AcDbCircle
 10
-1.4999999999975842
 20
2.4999999915609692
 30
0.0
 40
0.5
100
AcDbArc
 50
179.99999999999909
 51
269.99999999999886
  0
ARC
  5
2E9
100
AcDbEntity
  8
0
  6
CONTINUOUS
 62
               4
100
AcDbCircle
 10
-8.4999999999994031
 20
16.500000000000199
 30
0.0
 40
0.5
100
AcDbArc
 50
179.99999999999909
 51
269.99999999999886
  0
ARC
  5
2EA
100
AcDbEntity
  8
0
  6
CONTINUOUS
 62
               4
100
AcDbCircle
 10
-9.499999999999261
 20
32.500000000000426
 30
0.0
 40
0.5
100
AcDbArc
 50
359.99999999999869
 51
89.999999999999289
  0
ARC
  5
2EB
100
AcDbEntity
  8
0
  6
CONTINUOUS
 62
               4
100
AcDbCircle
 10
-8.7499999899036709
 20
39.500000000002018
 30
0.0
 40
0.5
100
AcDbArc
 50
179.99999999999034
 51
269.99999999999011
  0
ARC
  5
2EC
100
AcDbEntity
  8
0
  6
CONTINUOUS
 62
               4
100
AcDbCircle
 10
-8.7499999899018803
 20
50.500000000002018
 30
0.0
 40
0.5
100
AcDbArc
 50
89.999999999990493
 51
179.99999999999028
  0
LINE
  5
2ED
100
AcDbEntity
  8
0
  6
CONTINUOUS
 62
               4
100
AcDbLine
 10
-9.2499999899036709
 20
39.500000000002132
 30
0.0
 11
-9.2499999899018803
 21
50.500000000002132
 31
0.0
  0
ARC
  5
2EE
100
AcDbEntity
  8
0
  6
CONTINUOUS
 62
               4
100
AcDbCircle
 10
-10.999999989903557
 20
40.514702703392445
 30
0.0
 40
1.0
100
AcDbArc
 50
179.99999999999022
 51
181.68468431788651
  0
LINE
  5
2EF
100
AcDbEntity
  8
0
  6
CONTINUOUS
 62
               4
100
AcDbLine
 10
-11.999567744367909
 20
40.485303651790673
 30
0.0
 11
-11.779411754610493
 21
33.000000000000512
 31
0.0
  0
ARC
  5
2F0
100
AcDbEntity
  8
0
  6
CONTINUOUS
 62
               4
100
AcDbCircle
 10
-11.499999989901141
 20
55.000000000002501
 30
0.0
 40
0.5
100
AcDbArc
 50
89.999999999990493
 51
179.99999999999028
  0
LINE
  5
2F1
100
AcDbEntity
  8
0
  6
CONTINUOUS
 62
               4
100
AcDbLine
 10
-11.999999989903557
 20
40.514702703392572
 30
0.0
 11
-11.999999989901141
 21
55.000000000002615
 31
0.0
  0
LINE
  5
2F2
100
AcDbEntity
  8
0
  6
CONTINUOUS
 62
               4
100
AcDbLine
 10
36.999999995469352
 20
26.599999999999909
 30
0.0
 11
36.899999995469329
 21
26.499999999999886
 31
0.0
  0
LINE
  5
2F3
100
AcDbEntity
  8
0
  6
CONTINUOUS
 62
               4
100
AcDbLine
 10
36.899999990938653
 20
33.499999999999886
 30
0.0
 11
36.999999995469437
 21
33.399999995469102
 31
0.0
  0
LINE
  5
2F4
100
AcDbEntity
  8
0
  6
CONTINUOUS
 62
               4
100
AcDbLine
 10
36.999999995469352
 20
26.599999999999909
 30
0.0
 11
36.999999995469437
 21
33.399999995469102
 31
0.0
  0
LINE
  5
2F5
100
AcDbEntity
  8
0
  6
CONTINUOUS
 62
               4
100
AcDbLine
 10
35.800000000000523
 20
0.0000000000000284
 30
0.0
 11
35.799999999997993
 21
35.000000000002004
 31
0.0
  0
LINE
  5
2F6
100
AcDbEntity
  8
0
  6
CONTINUOUS
 62
               4
100
AcDbLine
 10
0.0
 20
0.0
 30
0.0
 11
0.0000000000005116
 21
5.9999999999979536
 31
0.0
  0
LINE
  5
2F7
100
AcDbEntity
  8
0
  6
CONTINUOUS
 62
               4
100
AcDbLine
 10
8.0000000000003411
 20
39.999999999999957
 30
0.0
 11
35.799999999997709
 21
40.000000000000014
 31
0.0
  0
LINE
  5
2F8
100
AcDbEntity
  8
0
  6
CONTINUOUS
 62
               4
100
AcDbLine
 10
8.0000000000003695
 20
39.999999999999929
 30
0.0
 11
8.0000000000000853
 21
7.9999999999977547
 31
0.0
  0
LINE
  5
2F9
100
AcDbEntity
  8
0
  6
DASHED
 62
             200
100
AcDbLine
 10
8.0000000000003411
 20
37.100000012398752
 30
0.0
 11
8.0000000000003126
 21
34.099999990464923
 31
0.0
  0
ARC
  5
2FA
100
AcDbEntity
  8
0
  6
CONTINUOUS
 62
               4
100
AcDbCircle
 10
4.8000000000002103
 20
38.999999999999957
 30
0.0
 40
1.0
100
AcDbArc
 50
89.999999999999289
 51
179.99999999999909
  0
LINE
  5
2FB
100
AcDbEntity
  8
0
  6
CONTINUOUS
 62
               4
100
AcDbLine
 10
3.8000000000002672
 20
33.000000000000085
 30
0.0
 11
3.8000000000002103
 21
38.999999999999972
 31
0.0
  0
LINE
  5
2FC
100
AcDbEntity
  8
0
  6
DASHED
 62
             200
100
AcDbLine
 10
2.000000000000199
 20
32.999999973150778
 30
0.0
 11
2.0000000000000284
 21
15.000000000000085
 31
0.0
  0
LINE
  5
2FD
100
AcDbEntity
  8
0
  6
CONTINUOUS
 62
               4
100
AcDbLine
 10
1.0000000000001705
 20
32.500000000000114
 30
0.0
 11
1.0000000000000284
 21
16.500000000000099
 31
0.0
  0
LINE
  5
2FE
100
AcDbEntity
  8
0
  6
CONTINUOUS
 62
               4
100
AcDbLine
 10
2.00000000000054
 20
7.9999999999978115
 30
0.0
 11
7.9999999999995168
 21
7.9999999999977547
 31
0.0
  0
ARC
  5
2FF
100
AcDbEntity
  8
0
  6
CONTINUOUS
 62
               4
100
AcDbCircle
 10
2.0000000000005116
 20
5.9999999999978115
 30
0.0
 40
2.0
100
AcDbArc
 50
89.999999999999289
 51
179.99999999999909
  0
ARC
  5
300
100
AcDbEntity
  8
0
  6
CONTINUOUS
 62
               4
100
AcDbCircle
 10
0.5000000000000284
 20
16.500000000000114
 30
0.0
 40
0.5
100
AcDbArc
 50
269.99999999999886
 51
359.99999999999869
  0
ARC
  5
301
100
AcDbEntity
  8
0
  6
CONTINUOUS
 62
               4
100
AcDbCircle
 10
1.5000000000001705
 20
32.500000000000099
 30
0.0
 40
0.5
100
AcDbArc
 50
89.999999999999289
 51
179.99999999999909
  0
LINE
  5
302
100
AcDbEntity
  8
0
  6
CONTINUOUS
 62
               4
100
AcDbLine
 10
36.899999995467397
 20
0.0
 30
0.0
 11
36.899999995466629
 21
39.500000000000057
 31
0.0
  0
LINE
  5
303
100
AcDbEntity
  8
0
  6
CONTINUOUS
 62
               4
100
AcDbLine
 10
35.79999999999788
 20
35.000000000002004
 30
0.0
 11
36.399999999997902
 21
35.000000000002046
 31
0.0
  0
LINE
  5
304
100
AcDbEntity
  8
0
  6
CONTINUOUS
 62
               4
100
AcDbLine
 10
35.799999999997794
 20
38.000000000002004
 30
0.0
 11
36.399999999997704
 21
38.000000000002046
 31
0.0
  0
LINE
  5
305
100
AcDbEntity
  8
0
  6
CONTINUOUS
 62
               4
100
AcDbLine
 10
35.799999999997794
 20
37.99999998576267
 30
0.0
 11
35.799999999997709
 21
39.999999985762614
 31
0.0
  0
ARC
  5
306
100
AcDbEntity
  8
0
  6
CONTINUOUS
 62
               4
100
AcDbCircle
 10
36.399999999997704
 20
37.500000000002046
 30
0.0
 40
0.5
100
AcDbArc
 50
0.0000000000013231
 51
90.000000000001123
  0
ARC
  5
307
100
AcDbEntity
  8
0
  6
CONTINUOUS
 62
               4
100
AcDbCircle
 10
36.399999999997817
 20
35.500000000002046
 30
0.0
 40
0.5
100
AcDbArc
 50
270.00000000000074
 51
0.0000000000013231
  0
ARC
  5
308
100
AcDbEntity
  8
0
  6
CONTINUOUS
 62
               4
100
AcDbCircle
 10
36.399999999997732
 20
39.500000000000057
 30
0.0
 40
0.5
100
AcDbArc
 50
0.0000000000001018
 51
89.999999999999901
  0
LINE
  5
309
100
AcDbEntity
  8
0
  6
CONTINUOUS
 62
               4
100
AcDbLine
 10
35.799999999997709
 20
40.000000000000014
 30
0.0
 11
36.399999999997732
 21
40.000000000000057
 31
0.0
  0
LINE
  5
30A
100
AcDbEntity
  8
0
  6
CONTINUOUS
 62
               4
100
AcDbLine
 10
36.8999999954668
 20
34.900000000002024
 30
0.0
 11
35.799999999997993
 21
34.900000000001981
 31
0.0
  0
LINE
  5
30B
100
AcDbEntity
  8
0
  6
CONTINUOUS
 62
               4
100
AcDbLine
 10
36.899999995466715
 20
38.100000000002012
 30
0.0
 11
35.79999999999734
 21
38.10000000000197
 31
0.0
  0
LINE
  5
30C
100
AcDbEntity
  8
0
  6
CONTINUOUS
 62
               4
100
AcDbLine
 10
0.0
 20
0.0
 30
0.0
 11
35.800000000000523
 21
0.0000000000000284
 31
0.0
  0
ARC
  5
30D
100
AcDbEntity
  8
0
  6
CONTINUOUS
 62
               4
100
AcDbCircle
 10
6.3000000000003524
 20
7.5000000000000568
 30
0.0
 40
0.5
100
AcDbArc
 50
89.999999999999289
 51
179.99999999999909
  0
LINE
  5
30E
100
AcDbEntity
  8
0
  6
CONTINUOUS
 62
               4
100
AcDbLine
 10
0.5000000000002842
 20
5.7999999999997272
 30
0.0
 11
5.8000000000002387
 21
5.7999999999992156
 31
0.0
  0
LINE
  5
30F
100
AcDbEntity
  8
0
  6
CONTINUOUS
 62
               4
100
AcDbLine
 10
5.8000000000002387
 20
5.7999999999992156
 30
0.0
 11
5.8000000000003524
 21
7.5000000000000568
 31
0.0
  0
ARC
  5
310
100
AcDbEntity
  8
0
  6
CONTINUOUS
 62
               4
100
AcDbCircle
 10
4.449999792960682
 20
7.5937456130977523
 30
0.0
 40
0.800000011920929
100
AcDbArc
 50
359.99998201390514
 51
30.518595218098678
  0
LINE
  5
311
100
AcDbEntity
  8
0
  6
CONTINUOUS
 62
               4
100
AcDbLine
 10
5.2499999836955453
 20
7.5937456130976102
 30
0.0
 11
5.249999983695318
 21
6.1999999999995339
 31
0.0
  0
LINE
  5
312
100
AcDbEntity
  8
0
  6
CONTINUOUS
 62
               4
100
AcDbLine
 10
0.7499999836955453
 20
7.5612494865430335
 30
0.0
 11
0.749999983695318
 21
6.1999999999995907
 31
0.0
  0
LINE
  5
313
100
AcDbEntity
  8
0
  6
CONTINUOUS
 62
               4
100
AcDbLine
 10
0.7500000000001705
 20
6.8999999999995225
 30
0.0
 11
5.2500000000001705
 21
6.8999999999994657
 31
0.0
  0
LINE
  5
314
100
AcDbEntity
  8
0
  6
CONTINUOUS
 62
               4
100
AcDbLine
 10
0.5000000000001705
 20
6.5499999999994998
 30
0.0
 11
0.0771115476979389
 21
6.5499999999994998
 31
0.0
  0
LINE
  5
315
100
AcDbEntity
  8
0
  6
CONTINUOUS
 62
               4
100
AcDbLine
 10
0.5000000000001705
 20
4.7499999999995453
 30
0.0
 11
0.0000000000000568
 21
4.7499999999995453
 31
0.0
  0
LINE
  5
316
100
AcDbEntity
  8
0
  6
CONTINUOUS
 62
               4
100
AcDbLine
 10
0.5000000000001705
 20
6.5499999999994998
 30
0.0
 11
0.5000000000001705
 21
6.199999999999477
 31
0.0
  0
LINE
  5
317
100
AcDbEntity
  8
0
  6
CONTINUOUS
 62
               4
100
AcDbLine
 10
0.5000000000001705
 20
4.7499999999995453
 30
0.0
 11
0.5000000000001705
 21
5.7999999999994998
 31
0.0
  0
LINE
  5
318
100
AcDbEntity
  8
0
  6
CONTINUOUS
 62
               4
100
AcDbLine
 10
5.5000000000001705
 20
5.7999999999994429
 30
0.0
 11
5.5000000000001705
 21
6.1999999999994202
 31
0.0
  0
LINE
  5
319
100
AcDbEntity
  8
0
  6
CONTINUOUS
 62
               4
100
AcDbLine
 10
5.5000000000001705
 20
6.1999999999994202
 30
0.0
 11
0.5000000000001705
 21
6.199999999999477
 31
0.0
  0
LINE
  5
31A
100
AcDbEntity
  8
0
  6
CONTINUOUS
 62
               4
100
AcDbLine
 10
16.000000010098972
 20
55.552999999997922
 30
0.0
 11
15.053000010099083
 21
56.499999999998153
 31
0.0
  0
LINE
  5
31B
100
AcDbEntity
  8
0
  6
CONTINUOUS
 62
               4
100
AcDbLine
 10
16.000000010097295
 20
45.446999999997928
 30
0.0
 11
15.053000010097151
 21
44.499999999998153
 31
0.0
  0
LINE
  5
31C
100
AcDbEntity
  8
0
  6
CONTINUOUS
 62
               4
100
AcDbLine
 10
22.000000010096926
 20
43.499999999996959
 30
0.0
 11
21.500000010096926
 21
42.999999999997073
 31
0.0
  0
LINE
  5
31D
100
AcDbEntity
  8
0
  6
CONTINUOUS
 62
               4
100
AcDbLine
 10
22.000000010099313
 20
57.499999999997073
 30
0.0
 11
21.500000010099342
 21
57.999999999997073
 31
0.0
  0
LINE
  5
31E
100
AcDbEntity
  8
0
  6
CONTINUOUS
 62
             200
100
AcDbLine
 10
16.000000010097295
 20
45.446999999997928
 30
0.0
 11
14.000000010097295
 21
45.446999999998397
 31
0.0
  0
LINE
  5
31F
100
AcDbEntity
  8
0
  6
CONTINUOUS
 62
               4
100
AcDbLine
 10
16.000000010098972
 20
55.552999999997922
 30
0.0
 11
17.000000010098972
 21
55.552999999997795
 31
0.0
  0
LINE
  5
320
100
AcDbEntity
  8
0
  6
CONTINUOUS
 62
               4
100
AcDbLine
 10
3.0124882441419345
 20
57.357492927820402
 30
0.0
 11
0.7500000100989723
 21
55.500000000000455
 31
0.0
  0
LINE
  5
321
100
AcDbEntity
  8
0
  6
CONTINUOUS
 62
               4
100
AcDbLine
 10
10.500000010097892
 20
48.499999999998892
 30
0.0
 11
5.5000000100978923
 21
48.499999999999716
 31
0.0
  0
LINE
  5
322
100
AcDbEntity
  8
0
  6
CONTINUOUS
 62
               4
100
AcDbLine
 10
10.500000010098375
 20
52.499999999998892
 30
0.0
 11
5.5000000100983755
 21
52.499999999999716
 31
0.0
  0
ARC
  5
323
100
AcDbEntity
  8
0
  6
CONTINUOUS
 62
               4
100
AcDbCircle
 10
5.5000000100976365
 20
47.999999999999716
 30
0.0
 40
1.0
100
AcDbArc
 50
179.99999999999034
 51
269.99999999999011
  0
ARC
  5
324
100
AcDbEntity
  8
0
  6
CONTINUOUS
 62
               4
100
AcDbCircle
 10
5.5000000100986028
 20
52.999999999999716
 30
0.0
 40
1.0
100
AcDbArc
 50
89.999999999990436
 51
179.99999999999022
  0
ARC
  5
325
100
AcDbEntity
  8
0
  6
CONTINUOUS
 62
               4
100
AcDbCircle
 10
10.500000010097637
 20
47.999999999998892
 30
0.0
 40
1.0
100
AcDbArc
 50
269.99999999999005
 51
359.99999999998983
  0
ARC
  5
326
100
AcDbEntity
  8
0
  6
CONTINUOUS
 62
               4
100
AcDbCircle
 10
10.500000010098603
 20
52.999999999998892
 30
0.0
 40
1.0
100
AcDbArc
 50
359.99999999998983
 51
89.999999999990436
  0
LINE
  5
327
100
AcDbEntity
  8
0
  6
CONTINUOUS
 62
               4
100
AcDbLine
 10
4.5000000100976365
 20
47.999999999999844
 30
0.0
 11
4.5000000100986028
 21
52.999999999999844
 31
0.0
  0
LINE
  5
328
100
AcDbEntity
  8
0
  6
CONTINUOUS
 62
               4
100
AcDbLine
 10
11.500000010097637
 20
47.999999999998749
 30
0.0
 11
11.500000010098603
 21
52.999999999998749
 31
0.0
  0
LINE
  5
329
100
AcDbEntity
  8
0
  6
CONTINUOUS
 62
               4
100
AcDbLine
 10
10.500000010097637
 20
46.999999999998892
 30
0.0
 11
5.5000000100976365
 21
46.999999999999716
 31
0.0
  0
LINE
  5
32A
100
AcDbEntity
  8
0
  6
CONTINUOUS
 62
               4
100
AcDbLine
 10
10.500000010098717
 20
53.999999999998892
 30
0.0
 11
5.5000000100987165
 21
53.999999999999716
 31
0.0
  0
ARC
  5
32B
100
AcDbEntity
  8
0
  6
CONTINUOUS
 62
               4
100
AcDbCircle
 10
0.2500000100963291
 20
39.500000000000568
 30
0.0
 40
0.5
100
AcDbArc
 50
269.99999999999005
 51
359.99999999998983
  0
ARC
  5
32C
100
AcDbEntity
  8
0
  6
CONTINUOUS
 62
               4
100
AcDbCircle
 10
0.2500000100981197
 20
50.500000000000568
 30
0.0
 40
0.5
100
AcDbArc
 50
359.99999999998983
 51
89.999999999990436
  0
LINE
  5
32D
100
AcDbEntity
  8
0
  6
CONTINUOUS
 62
               4
100
AcDbLine
 10
0.7500000100963291
 20
39.500000000000455
 30
0.0
 11
0.7500000100981197
 21
50.500000000000455
 31
0.0
  0
LINE
  5
32E
100
AcDbEntity
  8
0
  6
CONTINUOUS
 62
               4
100
AcDbLine
 10
22.000000022859751
 20
43.999999999997073
 30
0.0
 11
17.00000001009704
 21
43.999999999997797
 31
0.0
  0
LINE
  5
32F
100
AcDbEntity
  8
0
  6
CONTINUOUS
 62
               4
100
AcDbLine
 10
22.000000010097409
 20
45.749999999997073
 30
0.0
 11
17.000000010097409
 21
45.749999999997797
 31
0.0
  0
LINE
  5
330
100
AcDbEntity
  8
0
  6
CONTINUOUS
 62
               4
100
AcDbLine
 10
21.544286638978264
 20
46.749999999997073
 30
0.0
 11
17.34982679763786
 21
46.749999999997797
 31
0.0
  0
LINE
  5
331
100
AcDbEntity
  8
0
  6
CONTINUOUS
 62
               4
100
AcDbLine
 10
22.000000022860604
 20
48.749999999997073
 30
0.0
 11
17.000000010097892
 21
48.749999999997797
 31
0.0
  0
LINE
  5
332
100
AcDbEntity
  8
0
  6
CONTINUOUS
 62
               4
100
AcDbLine
 10
22.000000022861087
 20
52.249999999997073
 30
0.0
 11
17.000000010098375
 21
52.249999999997797
 31
0.0
  0
LINE
  5
333
100
AcDbEntity
  8
0
  6
CONTINUOUS
 62
               4
100
AcDbLine
 10
21.544286638979457
 20
54.249999999997073
 30
0.0
 11
17.349826797639167
 21
54.249999999997797
 31
0.0
  0
LINE
  5
334
100
AcDbEntity
  8
0
  6
CONTINUOUS
 62
               4
100
AcDbLine
 10
22.00000002286157
 20
55.249999999997073
 30
0.0
 11
17.000000010098859
 21
55.249999999997797
 31
0.0
  0
LINE
  5
335
100
AcDbEntity
  8
0
  6
CONTINUOUS
 62
               4
100
AcDbLine
 10
22.000000022861911
 20
56.999999999997073
 30
0.0
 11
17.0000000100992
 21
56.999999999997797
 31
0.0
  0
ARC
  5
336
100
AcDbEntity
  8
0
  6
CONTINUOUS
 62
               4
100
AcDbCircle
 10
2.5000000100964428
 20
40.51470270339027
 30
0.0
 40
1.0
100
AcDbArc
 50
358.31531568209357
 51
359.99999999998983
  0
LINE
  5
337
100
AcDbEntity
  8
0
  6
CONTINUOUS
 62
               4
100
AcDbLine
 10
3.4995677645607941
 20
40.485303651788143
 30
0.0
 11
3.2794117748012184
 21
33.000000000000085
 31
0.0
  0
ARC
  5
338
100
AcDbEntity
  8
0
  6
CONTINUOUS
 62
               4
100
AcDbCircle
 10
3.0000000100988586
 20
55.000000000000085
 30
0.0
 40
0.5
100
AcDbArc
 50
359.99999999998983
 51
89.999999999990436
  0
LINE
  5
339
100
AcDbEntity
  8
0
  6
CONTINUOUS
 62
               4
100
AcDbLine
 10
3.5000000100964428
 20
40.514702703390043
 30
0.0
 11
3.5000000100988586
 21
54.999999999999972
 31
0.0
  0
LINE
  5
33A
100
AcDbEntity
  8
0
  6
CENTER
 62
             200
100
AcDbLine
 10
25.733153595186764
 20
50.499999999996362
 30
0.0
 11
11.960187326084565
 21
50.499999999998636
 31
0.0
  0
LINE
  5
33B
100
AcDbEntity
  8
0
  6
CONTINUOUS
 62
               4
100
AcDbLine
 10
17.000000010097295
 20
45.4469999999978
 30
0.0
 11
16.000000010097295
 21
45.446999999997928
 31
0.0
  0
LINE
  5
33C
100
AcDbEntity
  8
0
  6
CONTINUOUS
 62
             200
100
AcDbLine
 10
14.000000010098972
 20
55.552999999998391
 30
0.0
 11
16.000000010098972
 21
55.552999999997922
 31
0.0
  0
LINE
  5
33D
100
AcDbEntity
  8
0
  6
CONTINUOUS
 62
               4
100
AcDbLine
 10
15.053000010097151
 20
44.499999999998153
 30
0.0
 11
14.000000010097153
 21
44.49999999999828
 31
0.0
  0
LINE
  5
33E
100
AcDbEntity
  8
0
  6
CONTINUOUS
 62
               4
100
AcDbLine
 10
15.053000010099083
 20
56.499999999998153
 30
0.0
 11
14.000000010099086
 21
56.49999999999828
 31
0.0
  0
LINE
  5
33F
100
AcDbEntity
  8
0
  6
CONTINUOUS
 62
               4
100
AcDbLine
 10
16.000000010098972
 20
55.552999999997922
 30
0.0
 11
16.000000010097295
 21
45.446999999997928
 31
0.0
  0
LINE
  5
340
100
AcDbEntity
  8
0
  6
CONTINUOUS
 62
               4
100
AcDbLine
 10
17.000000010096926
 20
42.999999986069113
 30
0.0
 11
17.000000010099342
 21
57.999999986069113
 31
0.0
  0
LINE
  5
341
100
AcDbEntity
  8
0
  6
CONTINUOUS
 62
               4
100
AcDbLine
 10
21.500000010096926
 20
42.999999999997073
 30
0.0
 11
17.000000010096926
 21
42.999999999997797
 31
0.0
  0
LINE
  5
342
100
AcDbEntity
  8
0
  6
CONTINUOUS
 62
               4
100
AcDbLine
 10
22.000000010096926
 20
43.499999999996959
 30
0.0
 11
22.000000010099313
 21
57.499999999997073
 31
0.0
  0
ARC
  5
343
100
AcDbEntity
  8
0
  6
CONTINUOUS
 62
               4
100
AcDbCircle
 10
3.5269839960565719
 20
56.499999999999972
 30
0.0
 40
1.0
100
AcDbArc
 50
89.999999999990493
 51
120.96375629734234
  0
ARC
  5
344
100
AcDbEntity
  8
0
  6
CONTINUOUS
 62
               4
100
AcDbCircle
 10
13.000000010099086
 20
56.499999999998522
 30
0.0
 40
1.0
100
AcDbArc
 50
359.99999999999068
 51
89.999999999990479
  0
ARC
  5
345
100
AcDbEntity
  8
0
  6
CONTINUOUS
 62
               4
100
AcDbCircle
 10
13.000000010097153
 20
44.499999999998522
 30
0.0
 40
1.0
100
AcDbArc
 50
269.99999999999011
 51
359.99999999998994
  0
LINE
  5
346
100
AcDbEntity
  8
0
  6
CONTINUOUS
 62
               4
100
AcDbLine
 10
13.000000010096926
 20
43.499999999998522
 30
0.0
 11
3.500000010096926
 21
43.499999999999972
 31
0.0
  0
LINE
  5
347
100
AcDbEntity
  8
0
  6
CONTINUOUS
 62
               4
100
AcDbLine
 10
13.000000010099313
 20
57.499999999998522
 30
0.0
 11
3.5269839960566856
 21
57.499999999999972
 31
0.0
  0
LINE
  5
348
100
AcDbEntity
  8
0
  6
CONTINUOUS
 62
               4
100
AcDbLine
 10
14.000000010097153
 20
44.499999986069597
 30
0.0
 11
14.000000010099086
 21
56.49999999999828
 31
0.0
  0
LINE
  5
349
100
AcDbEntity
  8
0
  6
CONTINUOUS
 62
               4
100
AcDbLine
 10
21.500000010099342
 20
57.999999999997073
 30
0.0
 11
17.000000010099342
 21
57.999999999997797
 31
0.0
  0
ENDBLK
  5
34A
100
AcDbEntity
  8
0
100
AcDbBlockEnd
  0
BLOCK
  5
34B
100
AcDbEntity
  8
0
100
AcDbBlockBegin
  2
PA24F7-8
 70
               0
 10
0.0
 20
0.0
 30
0.0
  3
PA24F7-8
  1

  0
LINE
  5
34C
100
AcDbEntity
  8
0
  6
CONTINUOUS
 62
               4
100
AcDbLine
 10
-11.900000021647884
 20
0.0
 30
0.0
 11
11.899999999998272
 21
0.0
 31
0.0
  0
LINE
  5
34D
100
AcDbEntity
  8
0
  6
DASHED
 62
             200
100
AcDbLine
 10
-9.9000000129383352
 20
15.00000000000432
 30
0.0
 11
-10.899999999999409
 21
15.00000000000432
 31
0.0
  0
LINE
  5
34E
100
AcDbEntity
  8
0
  6
DASHED
 62
             200
100
AcDbLine
 10
-9.8999999999994088
 20
15.00000000000432
 30
0.0
 11
-9.9000000000003183
 21
33.000000000010004
 31
0.0
  0
LINE
  5
34F
100
AcDbEntity
  8
0
  6
DASHED
 62
             200
100
AcDbLine
 10
-10.899999999999409
 20
15.00000000000432
 30
0.0
 11
-10.900000000000318
 21
33.000000000009948
 31
0.0
  0
LINE
  5
350
100
AcDbEntity
  8
0
  6
DASHED
 62
             200
100
AcDbLine
 10
-10.899999999999409
 20
16.00000000000432
 30
0.0
 11
-11.900000012938335
 21
16.00000000000432
 31
0.0
  0
LINE
  5
351
100
AcDbEntity
  8
0
  6
CONTINUOUS
 62
               4
100
AcDbLine
 10
7.75
 20
39.999999991574441
 30
0.0
 11
10.900000000000546
 21
39.999999991574271
 31
0.0
  0
LINE
  5
352
100
AcDbEntity
  8
0
  6
CONTINUOUS
 62
               4
100
AcDbLine
 10
-8.1000000000015007
 20
3.000000000013415
 30
0.0
 11
-8.1000000000010459
 21
11.499999991562447
 31
0.0
  0
ARC
  5
353
100
AcDbEntity
  8
0
  6
CONTINUOUS
 62
               4
100
AcDbCircle
 10
-7.1000000000015007
 20
3.0000000000133014
 30
0.0
 40
1.0
100
AcDbArc
 50
179.99999999999653
 51
269.99999999999636
  0
LINE
  5
354
100
AcDbEntity
  8
0
  6
CONTINUOUS
 62
               4
100
AcDbLine
 10
-11.900000000001683
 20
0.0
 30
0.0
 11
-11.899999999999636
 21
38.999999991575351
 31
0.0
  0
LINE
  5
355
100
AcDbEntity
  8
0
  6
CONTINUOUS
 62
               4
100
AcDbLine
 10
11.899999999998272
 20
0.0
 30
0.0
 11
11.900000000000318
 21
38.999999991574157
 31
0.0
  0
LINE
  5
356
100
AcDbEntity
  8
0
  6
CONTINUOUS
 62
               4
100
AcDbLine
 10
-10.900000000001683
 20
2.0000000000134719
 30
0.0
 11
10.899999999998272
 21
2.000000000012335
 31
0.0
  0
LINE
  5
357
100
AcDbEntity
  8
0
  6
CONTINUOUS
 62
               4
100
AcDbLine
 10
-7.7000000000000455
 20
31.000000000010971
 30
0.0
 11
7.7000000000000455
 21
31.000000000010175
 31
0.0
  0
LINE
  5
358
100
AcDbEntity
  8
0
  6
CONTINUOUS
 62
               4
100
AcDbLine
 10
-10.899999999999636
 20
39.999999991575351
 30
0.0
 11
-7.75
 21
39.99999999157518
 31
0.0
  0
ARC
  5
359
100
AcDbEntity
  8
0
  6
CONTINUOUS
 62
               4
100
AcDbCircle
 10
-10.899999999999636
 20
38.999999991575351
 30
0.0
 40
1.0
100
AcDbArc
 50
90.000000000002316
 51
180.0000000000021
  0
ARC
  5
35A
100
AcDbEntity
  8
0
  6
CONTINUOUS
 62
               4
100
AcDbCircle
 10
10.900000000000318
 20
38.999999991574271
 30
0.0
 40
1.0
100
AcDbArc
 50
0.000000000002519
 51
90.000000000002316
  0
ARC
  5
35B
100
AcDbEntity
  8
0
  6
CONTINUOUS
 62
               4
100
AcDbCircle
 10
-10.900000000001455
 20
3.0000000000134719
 30
0.0
 40
1.0
100
AcDbArc
 50
180.0000000000021
 51
270.00000000000193
  0
ARC
  5
35C
100
AcDbEntity
  8
0
  6
CONTINUOUS
 62
               4
100
AcDbCircle
 10
10.899999999998499
 20
3.000000000012335
 30
0.0
 40
1.0
100
AcDbArc
 50
270.00000000000193
 51
0.0000000000025444
  0
LINE
  5
35D
100
AcDbEntity
  8
0
  6
CONTINUOUS
 62
               4
100
AcDbLine
 10
7.0999999953266979
 20
12.000000000001876
 30
0.0
 11
-7.1000000000019554
 21
12.000000000001307
 31
0.0
  0
LINE
  5
35E
100
AcDbEntity
  8
0
  6
CONTINUOUS
 62
               4
100
AcDbLine
 10
-7.7000000000000455
 20
31.000000000010971
 30
0.0
 11
-7.7000000000000455
 21
33.000000000010971
 31
0.0
  0
LINE
  5
35F
100
AcDbEntity
  8
0
  6
CONTINUOUS
 62
               4
100
AcDbLine
 10
-11.400000000000091
 20
33.000000000011084
 30
0.0
 11
-7.7000000000000455
 21
33.000000000010971
 31
0.0
  0
ARC
  5
360
100
AcDbEntity
  8
0
  6
CONTINUOUS
 62
               4
100
AcDbCircle
 10
-11.399999999999864
 20
32.500000000011084
 30
0.0
 40
0.5
100
AcDbArc
 50
90.000000000002316
 51
180.0000000000021
  0
LINE
  5
361
100
AcDbEntity
  8
0
  6
CONTINUOUS
 62
               4
100
AcDbLine
 10
11.400000000000091
 20
33.000000000009891
 30
0.0
 11
7.7000000000000455
 21
33.000000000010118
 31
0.0
  0
LINE
  5
362
100
AcDbEntity
  8
0
  6
CONTINUOUS
 62
               4
100
AcDbLine
 10
7.7000000000000455
 20
31.000000000010118
 30
0.0
 11
7.7000000000000455
 21
33.000000000010118
 31
0.0
  0
LINE
  5
363
100
AcDbEntity
  8
0
  6
CONTINUOUS
 62
               4
100
AcDbLine
 10
-10.899999998982821
 20
11.999999991562447
 30
0.0
 11
-8.5999999870618922
 21
11.999999991562447
 31
0.0
  0
ARC
  5
364
100
AcDbEntity
  8
0
  6
CONTINUOUS
 62
               4
100
AcDbCircle
 10
-8.6000000000012733
 20
11.499999991562447
 30
0.0
 40
0.5
100
AcDbArc
 50
0.0
 51
89.999999999999815
  0
ARC
  5
365
100
AcDbEntity
  8
0
  6
CONTINUOUS
 62
               4
100
AcDbCircle
 10
-10.900000000001
 20
12.999999991562447
 30
0.0
 40
1.0
100
AcDbArc
 50
179.99999999999963
 51
269.99999999999937
  0
ARC
  5
366
100
AcDbEntity
  8
0
  6
CONTINUOUS
 62
               4
100
AcDbCircle
 10
7.0999999999983174
 20
3.0000000000125624
 30
0.0
 40
1.0
100
AcDbArc
 50
269.99999999999636
 51
359.99999999999608
  0
ARC
  5
367
100
AcDbEntity
  8
0
  6
CONTINUOUS
 62
               4
100
AcDbCircle
 10
10.899999999998954
 20
12.99999999156131
 30
0.0
 40
1.0
100
AcDbArc
 50
269.99999999999318
 51
359.99999999999301
  0
ARC
  5
368
100
AcDbEntity
  8
0
  6
CONTINUOUS
 62
               4
100
AcDbCircle
 10
8.5999999999989996
 20
11.499999991561538
 30
0.0
 40
0.5
100
AcDbArc
 50
89.999999999993619
 51
179.99999999999341
  0
LINE
  5
369
100
AcDbEntity
  8
0
  6
CONTINUOUS
 62
               4
100
AcDbLine
 10
10.899999998980547
 20
11.99999999156131
 30
0.0
 11
8.5999999870596184
 21
11.999999991561538
 31
0.0
  0
LINE
  5
36A
100
AcDbEntity
  8
0
  6
CONTINUOUS
 62
               4
100
AcDbLine
 10
8.0999999999983174
 20
3.0000000000125624
 30
0.0
 11
8.0999999999989996
 21
11.499999991561594
 31
0.0
  0
ARC
  5
36B
100
AcDbEntity
  8
0
  6
CONTINUOUS
 62
               4
100
AcDbCircle
 10
11.400000000000091
 20
32.500000000009891
 30
0.0
 40
0.5
100
AcDbArc
 50
0.0
 51
89.999999999999815
  0
LINE
  5
36C
100
AcDbEntity
  8
0
  6
DASHED
 62
             200
100
AcDbLine
 10
9.8999999999991815
 20
15.00000000000432
 30
0.0
 11
9.9000000000000909
 21
33.000000000010004
 31
0.0
  0
LINE
  5
36D
100
AcDbEntity
  8
0
  6
DASHED
 62
             200
100
AcDbLine
 10
10.899999999999181
 20
15.00000000000432
 30
0.0
 11
10.900000000000091
 21
33.000000000009948
 31
0.0
  0
LINE
  5
36E
100
AcDbEntity
  8
0
  6
DASHED
 62
             200
100
AcDbLine
 10
9.9000000129381078
 20
15.00000000000432
 30
0.0
 11
10.899999999999181
 21
15.00000000000432
 31
0.0
  0
LINE
  5
36F
100
AcDbEntity
  8
0
  6
DASHED
 62
             200
100
AcDbLine
 10
10.899999999999181
 20
16.00000000000432
 30
0.0
 11
11.900000012938108
 21
16.00000000000432
 31
0.0
  0
LINE
  5
370
100
AcDbEntity
  8
0
  6
CONTINUOUS
 62
               4
100
AcDbLine
 10
7.75
 20
40.514702703400644
 30
0.0
 11
7.75
 21
55.000000000010573
 31
0.0
  0
LINE
  5
371
100
AcDbEntity
  8
0
  6
CONTINUOUS
 62
               4
100
AcDbLine
 10
-7.75
 20
40.514702703400701
 30
0.0
 11
-7.75
 21
55.000000000010573
 31
0.0
  0
LINE
  5
372
100
AcDbEntity
  8
0
  6
CONTINUOUS
 62
               4
100
AcDbLine
 10
0.0
 20
58.000000000010573
 30
0.0
 11
0.9872025991885494
 21
57.430038313624379
 31
0.0
  0
LINE
  5
373
100
AcDbEntity
  8
0
  6
CONTINUOUS
 62
               4
100
AcDbLine
 10
0.0
 20
58.000000000010573
 30
0.0
 11
-0.9872025991885494
 21
57.430038313624379
 31
0.0
  0
ARC
  5
374
100
AcDbEntity
  8
0
  6
CONTINUOUS
 62
               4
100
AcDbCircle
 10
0.0
 20
50.500000000010573
 30
0.0
 40
7.0
100
AcDbArc
 50
45.584691402806847
 51
134.41530859719276
  0
LINE
  5
375
100
AcDbEntity
  8
0
  6
CONTINUOUS
 62
               4
100
AcDbLine
 10
-7.25
 20
55.500000000010573
 30
0.0
 11
7.25
 21
55.500000000010573
 31
0.0
  0
ARC
  5
376
100
AcDbEntity
  8
0
  6
CONTINUOUS
 62
               4
100
AcDbCircle
 10
-7.25
 20
55.000000000010573
 30
0.0
 40
0.5
100
AcDbArc
 50
89.999999999999815
 51
179.99999999999963
  0
ARC
  5
377
100
AcDbEntity
  8
0
  6
CONTINUOUS
 62
               4
100
AcDbCircle
 10
7.25
 20
55.000000000010573
 30
0.0
 40
0.5
100
AcDbArc
 50
0.0
 51
89.999999999999815
  0
LINE
  5
378
100
AcDbEntity
  8
0
  6
CONTINUOUS
 62
               4
100
AcDbLine
 10
7.7495677544643513
 20
40.485303651798745
 30
0.0
 11
7.5
 21
32.000000000010573
 31
0.0
  0
LINE
  5
379
100
AcDbEntity
  8
0
  6
CONTINUOUS
 62
               4
100
AcDbLine
 10
-7.7495677544643513
 20
40.485303651798802
 30
0.0
 11
-7.5
 21
32.000000000010573
 31
0.0
  0
LINE
  5
37A
100
AcDbEntity
  8
0
  6
CONTINUOUS
 62
               4
100
AcDbLine
 10
7.5
 20
32.000000000010573
 30
0.0
 11
7.5
 21
31.000000000010573
 31
0.0
  0
LINE
  5
37B
100
AcDbEntity
  8
0
  6
CONTINUOUS
 62
               4
100
AcDbLine
 10
-7.5
 20
32.000000000010573
 30
0.0
 11
-7.5
 21
31.000000000010573
 31
0.0
  0
LINE
  5
37C
100
AcDbEntity
  8
0
  6
CONTINUOUS
 62
               4
100
AcDbLine
 10
-7.5
 20
32.000000000010573
 30
0.0
 11
7.5
 21
32.000000000010573
 31
0.0
  0
ARC
  5
37D
100
AcDbEntity
  8
0
  6
CONTINUOUS
 62
               4
100
AcDbCircle
 10
6.75
 20
40.514702703400644
 30
0.0
 40
1.0
100
AcDbArc
 50
358.31531568210374
 51
0.0
  0
ARC
  5
37E
100
AcDbEntity
  8
0
  6
CONTINUOUS
 62
               4
100
AcDbCircle
 10
-6.75
 20
40.514702703400701
 30
0.0
 40
1.0
100
AcDbArc
 50
179.99999999999963
 51
181.68468431789586
  0
LINE
  5
37F
100
AcDbEntity
  8
0
  6
CENTER
 62
             200
100
AcDbLine
 10
0.0
 20
26.680299168985641
 30
0.0
 11
0.0
 21
60.661108033251594
 31
0.0
  0
LINE
  5
380
100
AcDbEntity
  8
0
  6
CENTER
 62
             200
100
AcDbLine
 10
-10.28077562326871
 20
50.500000000010573
 30
0.0
 11
10.493518005539954
 21
50.500000000010573
 31
0.0
  0
ENDBLK
  5
381
100
AcDbEntity
  8
0
100
AcDbBlockEnd
  0
BLOCK
  5
382
100
AcDbEntity
  8
0
100
AcDbBlockBegin
  2
PA24F7-9
 70
               0
 10
0.0
 20
0.0
 30
0.0
  3
PA24F7-9
  1

  0
LINE
  5
383
100
AcDbEntity
  8
0
  6
CONTINUOUS
 62
               4
100
AcDbLine
 10
-5.8320508052159266
 20
12.999999999999488
 30
0.0
 11
7.4000000000125574
 21
13.000000000000057
 31
0.0
  0
LINE
  5
384
100
AcDbEntity
  8
0
  6
CONTINUOUS
 62
               4
100
AcDbLine
 10
7.8999999999977959
 20
39.999999999999986
 30
0.0
 11
35.799999999997894
 21
39.999999999999986
 31
0.0
  0
LINE
  5
385
100
AcDbEntity
  8
0
  6
CONTINUOUS
 62
               4
100
AcDbLine
 10
36.999999995466709
 20
26.599999999999909
 30
0.0
 11
36.99999999546678
 21
33.399999995469216
 31
0.0
  0
LINE
  5
386
100
AcDbEntity
  8
0
  6
CONTINUOUS
 62
               4
100
AcDbLine
 10
35.800000000000978
 20
0.0000000000000284
 30
0.0
 11
35.799999999998192
 21
35.000000000001947
 31
0.0
  0
LINE
  5
387
100
AcDbEntity
  8
0
  6
CONTINUOUS
 62
               4
100
AcDbLine
 10
0.0000000000002949
 20
0.0
 30
0.0
 11
35.800000000000978
 21
0.0000000000000284
 31
0.0
  0
LINE
  5
388
100
AcDbEntity
  8
0
  6
CONTINUOUS
 62
               4
100
AcDbLine
 10
36.899999995466914
 20
38.100000000001984
 30
0.0
 11
35.799999999997652
 21
38.100000000001941
 31
0.0
  0
LINE
  5
389
100
AcDbEntity
  8
0
  6
CONTINUOUS
 62
               4
100
AcDbLine
 10
36.899999995466999
 20
34.900000000002024
 30
0.0
 11
35.799999999998192
 21
34.900000000001924
 31
0.0
  0
LINE
  5
38A
100
AcDbEntity
  8
0
  6
CONTINUOUS
 62
               4
100
AcDbLine
 10
35.799999999997894
 20
39.999999999999986
 30
0.0
 11
36.399999999997917
 21
40.000000000000028
 31
0.0
  0
ARC
  5
38B
100
AcDbEntity
  8
0
  6
CONTINUOUS
 62
               4
100
AcDbCircle
 10
36.399999999997917
 20
39.500000000000028
 30
0.0
 40
0.5
100
AcDbArc
 50
0.0000000000001018
 51
89.999999999999901
  0
LINE
  5
38C
100
AcDbEntity
  8
0
  6
CONTINUOUS
 62
               4
100
AcDbLine
 10
36.899999990935996
 20
33.5
 30
0.0
 11
36.99999999546678
 21
33.399999995469216
 31
0.0
  0
LINE
  5
38D
100
AcDbEntity
  8
0
  6
CONTINUOUS
 62
               4
100
AcDbLine
 10
36.999999995466823
 20
26.600000000000023
 30
0.0
 11
36.8999999954668
 21
26.5
 31
0.0
  0
ARC
  5
38E
100
AcDbEntity
  8
0
  6
CONTINUOUS
 62
               4
100
AcDbCircle
 10
36.399999999997988
 20
35.500000000002046
 30
0.0
 40
0.5
100
AcDbArc
 50
270.00000000000074
 51
0.0000000000013231
  0
ARC
  5
38F
100
AcDbEntity
  8
0
  6
CONTINUOUS
 62
               4
100
AcDbCircle
 10
36.399999999998002
 20
37.500000000002018
 30
0.0
 40
0.5
100
AcDbArc
 50
0.0000000000013231
 51
90.000000000001123
  0
LINE
  5
390
100
AcDbEntity
  8
0
  6
CONTINUOUS
 62
               4
100
AcDbLine
 10
35.799999999997993
 20
37.999999985762642
 30
0.0
 11
35.799999999997894
 21
39.999999985762585
 31
0.0
  0
LINE
  5
391
100
AcDbEntity
  8
0
  6
CONTINUOUS
 62
               4
100
AcDbLine
 10
35.799999999997993
 20
38.000000000001975
 30
0.0
 11
36.399999999997902
 21
38.000000000002018
 31
0.0
  0
LINE
  5
392
100
AcDbEntity
  8
0
  6
CONTINUOUS
 62
               4
100
AcDbLine
 10
35.799999999998079
 20
35.000000000001947
 30
0.0
 11
36.399999999998215
 21
35.000000000002046
 31
0.0
  0
LINE
  5
393
100
AcDbEntity
  8
0
  6
CONTINUOUS
 62
               4
100
AcDbLine
 10
4.8999999999971138
 20
39.999999999999986
 30
0.0
 11
7.8999999999977959
 21
39.999999999999986
 31
0.0
  0
LINE
  5
394
100
AcDbEntity
  8
0
  6
CONTINUOUS
 62
               4
100
AcDbLine
 10
2.0000000000011653
 20
8.1160795923630928
 30
0.0
 11
2.0000000000011653
 21
8.200000009393051
 31
0.0
  0
ARC
  5
395
100
AcDbEntity
  8
0
  6
CONTINUOUS
 62
               4
100
AcDbCircle
 10
-4.9124889263640039
 20
11.499999999999261
 30
0.0
 40
0.5
100
AcDbArc
 50
89.999999999999289
 51
194.99999999999901
  0
ARC
  5
396
100
AcDbEntity
  8
0
  6
CONTINUOUS
 62
               4
100
AcDbCircle
 10
6.9000000000127848
 20
13.29999999999967
 30
0.0
 40
1.0
100
AcDbArc
 50
197.45760312372391
 51
0.0000000000076333
  0
ARC
  5
397
100
AcDbEntity
  8
0
  6
CONTINUOUS
 62
               4
100
AcDbCircle
 10
-3.7785677023338931
 20
9.2000000093956089
 30
0.0
 40
1.0
100
AcDbArc
 50
194.99999981259751
 51
269.99999999999892
  0
ARC
  5
398
100
AcDbEntity
  8
0
  6
CONTINUOUS
 62
               4
100
AcDbCircle
 10
7.4000000000124473
 20
13.499999999999716
 30
0.0
 40
0.5
100
AcDbArc
 50
270.00000000000142
 51
0.0000000000020356
  0
LINE
  5
399
100
AcDbEntity
  8
0
  6
CONTINUOUS
 62
               4
100
AcDbLine
 10
-3.7785677023331061
 20
8.2000000093929941
 30
0.0
 11
7.1000000000036891
 21
8.2000000093931362
 31
0.0
  0
LINE
  5
39A
100
AcDbEntity
  8
0
  6
CONTINUOUS
 62
               4
100
AcDbLine
 10
-4.9124889263639986
 20
11.999999999999261
 30
0.0
 11
7.1000000000030425
 21
11.999999999999602
 31
0.0
  0
LINE
  5
39B
100
AcDbEntity
  8
0
  6
CONTINUOUS
 62
               4
100
AcDbLine
 10
0.500000000002224
 20
11.999999999999432
 30
0.0
 11
0.5000000000022311
 21
12.999999999999432
 31
0.0
  0
LINE
  5
39C
100
AcDbEntity
  8
0
  6
CONTINUOUS
 62
               4
100
AcDbLine
 10
1.500000000002224
 20
11.999999999999432
 30
0.0
 11
1.5000000000022311
 21
12.999999999999432
 31
0.0
  0
LINE
  5
39D
100
AcDbEntity
  8
0
  6
CONTINUOUS
 62
               4
100
AcDbLine
 10
7.6000000000036927
 20
8.7000000093932499
 30
0.0
 11
7.600000000003039
 21
11.499999999999716
 31
0.0
  0
ARC
  5
39E
100
AcDbEntity
  8
0
  6
CONTINUOUS
 62
               4
100
AcDbCircle
 10
7.100000000003039
 20
11.499999999999602
 30
0.0
 40
0.5
100
AcDbArc
 50
0.0000000000020356
 51
90.000000000001833
  0
ARC
  5
39F
100
AcDbEntity
  8
0
  6
CONTINUOUS
 62
               4
100
AcDbCircle
 10
7.1000000000036927
 20
8.7000000093931362
 30
0.0
 40
0.5
100
AcDbArc
 50
270.00000000000222
 51
0.0000000000020356
  0
LINE
  5
3A0
100
AcDbEntity
  8
0
  6
CONTINUOUS
 62
               4
100
AcDbLine
 10
0.0
 20
0.0
 30
0.0
 11
0.000000000000572
 21
5.299999999999045
 31
0.0
  0
LINE
  5
3A1
100
AcDbEntity
  8
0
  6
CONTINUOUS
 62
               4
100
AcDbLine
 10
5.0000000000003695
 20
8.2000000093934773
 30
0.0
 11
5.0000000000003659
 21
7.9999999999999432
 31
0.0
  0
LINE
  5
3A2
100
AcDbEntity
  8
0
  6
CONTINUOUS
 62
               4
100
AcDbLine
 10
0.750000000000469
 20
6.4999999999989768
 30
0.0
 11
5.250000000000469
 21
6.4999999999985789
 31
0.0
  0
LINE
  5
3A3
100
AcDbEntity
  8
0
  6
CONTINUOUS
 62
               4
100
AcDbLine
 10
3.10000000000759
 20
11.999999999999858
 30
0.0
 11
3.6535533905943787
 21
12.553553390586643
 31
0.0
  0
LINE
  5
3A4
100
AcDbEntity
  8
0
  6
CONTINUOUS
 62
               4
100
AcDbLine
 10
5.8000000000005869
 20
12.199999991713696
 30
0.0
 11
5.800000000000594
 21
12.699999999993622
 31
0.0
  0
LINE
  5
3A5
100
AcDbEntity
  8
0
  6
CONTINUOUS
 62
               4
100
AcDbLine
 10
4.0071067811874883
 20
12.69999999999331
 30
0.0
 11
5.800000000000594
 21
12.699999999993622
 31
0.0
  0
LINE
  5
3A6
100
AcDbEntity
  8
0
  6
CONTINUOUS
 62
               4
100
AcDbLine
 10
5.8000000000005869
 20
12.199999999993622
 30
0.0
 11
7.9000000000006096
 21
12.199999999993821
 31
0.0
  0
LINE
  5
3A7
100
AcDbEntity
  8
0
  6
CONTINUOUS
 62
               4
100
AcDbLine
 10
0.7500000000005862
 20
7.193745613096894
 30
0.0
 11
0.7500000000004619
 21
5.7999999999988177
 31
0.0
  0
LINE
  5
3A8
100
AcDbEntity
  8
0
  6
CONTINUOUS
 62
               4
100
AcDbLine
 10
5.2500000000005862
 20
7.1937456130964961
 30
0.0
 11
5.2500000000004619
 21
5.7999999999983061
 31
0.0
  0
ARC
  5
3A9
100
AcDbEntity
  8
0
  6
CONTINUOUS
 62
               4
100
AcDbCircle
 10
3.0000000000000888
 20
2.1999998092637441
 30
0.0
 40
6.0
100
AcDbArc
 50
73.808717374820958
 51
106.19135456952502
  0
ARC
  5
3AA
100
AcDbEntity
  8
0
  6
CONTINUOUS
 62
               4
100
AcDbCircle
 10
1.5500001907354495
 20
7.193745613096894
 30
0.0
 40
0.800000011920929
100
AcDbArc
 50
106.19135456952502
 51
180.00001798608344
  0
ARC
  5
3AB
100
AcDbEntity
  8
0
  6
CONTINUOUS
 62
               4
100
AcDbCircle
 10
4.4499998092657229
 20
7.1937456130966382
 30
0.0
 40
0.800000011920929
100
AcDbArc
 50
359.99998201390514
 51
73.808645430463599
  0
LINE
  5
3AC
100
AcDbEntity
  8
0
  6
CONTINUOUS
 62
               4
100
AcDbLine
 10
0.5000000000005755
 20
5.799999999999045
 30
0.0
 11
5.8000000000005301
 21
5.7999999999985334
 31
0.0
  0
ARC
  5
3AD
100
AcDbEntity
  8
0
  6
CONTINUOUS
 62
               4
100
AcDbCircle
 10
4.007106781188277
 20
12.199999999992514
 30
0.0
 40
0.5
100
AcDbArc
 50
89.999999999994301
 51
134.99999999999389
  0
LINE
  5
3AE
100
AcDbEntity
  8
0
  6
CONTINUOUS
 62
               4
100
AcDbLine
 10
5.0000000000008669
 20
12.699999999992599
 30
0.0
 11
5.0000000000008598
 21
11.999999999999943
 31
0.0
  0
ARC
  5
3AF
100
AcDbEntity
  8
0
  6
CONTINUOUS
 62
               4
100
AcDbCircle
 10
0.500000000000572
 20
5.299999999999045
 30
0.0
 40
0.5
100
AcDbArc
 50
89.999999999999289
 51
179.99999999999909
  0
LINE
  5
3B0
100
AcDbEntity
  8
0
  6
CONTINUOUS
 62
               4
100
AcDbLine
 10
5.8000000000005301
 20
5.7999999999985334
 30
0.0
 11
5.800000000000658
 21
7.4999999999993747
 31
0.0
  0
ARC
  5
3B1
100
AcDbEntity
  8
0
  6
CONTINUOUS
 62
               4
100
AcDbCircle
 10
6.300000000000658
 20
7.4999999999993747
 30
0.0
 40
0.5
100
AcDbArc
 50
89.999999999999289
 51
179.99999999999909
  0
LINE
  5
3B2
100
AcDbEntity
  8
0
  6
CONTINUOUS
 62
               4
100
AcDbLine
 10
4.5362284294552886
 20
7.9999999999994031
 30
0.0
 11
7.9000000000020485
 21
7.9999999999993463
 31
0.0
  0
LINE
  5
3B3
100
AcDbEntity
  8
0
  6
CONTINUOUS
 62
               4
100
AcDbLine
 10
-4.744493523639413
 20
8.9411809690149653
 30
0.0
 11
-6.0829629131460798
 21
13.936416735029695
 31
0.0
  0
LINE
  5
3B4
100
AcDbEntity
  8
0
  6
CONTINUOUS
 62
               4
100
AcDbLine
 10
7.9000000000018211
 20
8.0000000000000284
 30
0.0
 11
7.8999999999977959
 21
40.000000000000014
 31
0.0
  0
LINE
  5
3B5
100
AcDbEntity
  8
0
  6
CONTINUOUS
 62
               4
100
AcDbLine
 10
36.899999995467667
 20
0.0
 30
0.0
 11
36.899999995466814
 21
39.500000000000028
 31
0.0
  0
ARC
  5
3B6
100
AcDbEntity
  8
0
  6
CONTINUOUS
 62
               4
100
AcDbCircle
 10
-5.6000000000015326
 20
14.065826257580682
 30
0.0
 40
0.5
100
AcDbArc
 50
179.99999999999909
 51
194.99999999999864
  0
LINE
  5
3B7
100
AcDbEntity
  8
0
  6
CONTINUOUS
 62
               4
100
AcDbLine
 10
-6.1000000045206981
 20
14.131652503172234
 30
0.0
 11
-6.1000000045204974
 21
35.999999988357274
 31
0.0
  0
ARC
  5
3B8
100
AcDbEntity
  8
0
  6
CONTINUOUS
 62
               4
100
AcDbCircle
 10
-5.1000000045204974
 20
36.000000000000171
 30
0.0
 40
1.0
100
AcDbArc
 50
89.999999999999289
 51
179.99999999999909
  0
ARC
  5
3B9
100
AcDbEntity
  8
0
  6
CONTINUOUS
 62
               4
100
AcDbCircle
 10
4.8999999954789608
 20
39.000000000000071
 30
0.0
 40
1.0
100
AcDbArc
 50
89.999999999999289
 51
179.99999999999909
  0
LINE
  5
3BA
100
AcDbEntity
  8
0
  6
CONTINUOUS
 62
               4
100
AcDbLine
 10
3.8999999954789608
 20
39.000000000000085
 30
0.0
 11
3.8999999954789466
 21
37.500000000000085
 31
0.0
  0
ARC
  5
3BB
100
AcDbEntity
  8
0
  6
CONTINUOUS
 62
               4
100
AcDbCircle
 10
3.3999999954789466
 20
37.500000000000085
 30
0.0
 40
0.5
100
AcDbArc
 50
269.99999999999886
 51
359.99999999999869
  0
ARC
  5
3BC
100
AcDbEntity
  8
0
  6
CONTINUOUS
 62
               4
100
AcDbCircle
 10
-5.1000000045329763
 20
14.131652503172234
 30
0.0
 40
1.0
100
AcDbArc
 50
179.99999999999909
 51
194.99999999999903
  0
LINE
  5
3BD
100
AcDbEntity
  8
0
  6
CONTINUOUS
 62
               4
100
AcDbLine
 10
-5.1000000288906264
 20
36.999999991088714
 30
0.0
 11
3.399999995478943
 21
36.999999991088629
 31
0.0
  0
LINE
  5
3BE
100
AcDbEntity
  8
0
  6
CENTER
 62
             200
100
AcDbLine
 10
-5.0477954494984818
 20
18.999999999999936
 30
0.0
 11
-33.89954625888943
 21
19.000000000001066
 31
0.0
  0
ARC
  5
3BF
100
AcDbEntity
  8
0
  6
CONTINUOUS
 62
               4
100
AcDbCircle
 10
-6.6000000045206644
 20
15.099999999999923
 30
0.0
 40
0.5
100
AcDbArc
 50
0.0
 51
89.999999999999815
  0
ARC
  5
3C0
100
AcDbEntity
  8
0
  6
CONTINUOUS
 62
               4
100
AcDbCircle
 10
-6.6000000045206644
 20
22.89999999999992
 30
0.0
 40
0.5
100
AcDbArc
 50
269.99999999999937
 51
0.0
  0
LINE
  5
3C1
100
AcDbEntity
  8
0
  6
CONTINUOUS
 62
               4
100
AcDbLine
 10
-12.279118227423597
 20
17.000000000000277
 30
0.0
 11
-9.1000000045206644
 21
17.000000000000156
 31
0.0
  0
LINE
  5
3C2
100
AcDbEntity
  8
0
  6
CONTINUOUS
 62
               4
100
AcDbLine
 10
-12.882626999353365
 20
21.000000000000298
 30
0.0
 11
-9.1000000045206644
 21
21.000000000000156
 31
0.0
  0
LINE
  5
3C3
100
AcDbEntity
  8
0
  6
CONTINUOUS
 62
               4
100
AcDbLine
 10
-17.100000004520666
 20
17.000000000000462
 30
0.0
 11
-17.100000004520666
 21
21.000000000000462
 31
0.0
  0
ARC
  5
3C4
100
AcDbEntity
  8
0
  6
CONTINUOUS
 62
               4
100
AcDbCircle
 10
-8.6000000045206644
 20
16.100000000000009
 30
0.0
 40
0.5
100
AcDbArc
 50
179.99999999999963
 51
269.99999999999937
  0
ARC
  5
3C5
100
AcDbEntity
  8
0
  6
CONTINUOUS
 62
               4
100
AcDbCircle
 10
-8.6000000045206644
 20
21.900000000000006
 30
0.0
 40
0.5
100
AcDbArc
 50
89.999999999999815
 51
179.99999999999963
  0
LINE
  5
3C6
100
AcDbEntity
  8
0
  6
CONTINUOUS
 62
               4
100
AcDbLine
 10
-9.1000000045206644
 20
16.100000000000009
 30
0.0
 11
-9.1000000045206644
 21
21.900000000000006
 31
0.0
  0
LINE
  5
3C7
100
AcDbEntity
  8
0
  6
CONTINUOUS
 62
               4
100
AcDbLine
 10
-6.6000000045206928
 20
22.39999999999992
 30
0.0
 11
-8.600000004520636
 21
22.400000000000006
 31
0.0
  0
LINE
  5
3C8
100
AcDbEntity
  8
0
  6
CONTINUOUS
 62
               4
100
AcDbLine
 10
-6.600000004520636
 20
15.599999999999923
 30
0.0
 11
-8.6000000045206928
 21
15.600000000000009
 31
0.0
  0
LINE
  5
3C9
100
AcDbEntity
  8
0
  6
CONTINUOUS
 62
             200
100
AcDbLine
 10
-13.180872613388717
 20
16.150000000000134
 30
0.0
 11
-14.040872613388617
 21
21.850000000000179
 31
0.0
  0
LINE
  5
3CA
100
AcDbEntity
  8
0
  6
CONTINUOUS
 62
               4
100
AcDbLine
 10
-17.100000004520666
 20
17.000000000000462
 30
0.0
 11
-13.309118227423825
 21
17.000000000000313
 31
0.0
  0
LINE
  5
3CB
100
AcDbEntity
  8
0
  6
CONTINUOUS
 62
               4
100
AcDbLine
 10
-17.100000004520666
 20
21.000000000000462
 30
0.0
 11
-13.912626999353565
 21
21.000000000000341
 31
0.0
  0
LINE
  5
3CC
100
AcDbEntity
  8
0
  6
CONTINUOUS
 62
             200
100
AcDbLine
 10
-12.150872613388517
 20
16.150000000000134
 30
0.0
 11
-13.010872613388416
 21
21.850000000000179
 31
0.0
  0
LINE
  5
3CD
100
AcDbEntity
  8
0
  6
CENTER
 62
             200
100
AcDbLine
 10
-13.709090663925055
 20
18.644998419066738
 30
0.0
 11
-32.924301241639796
 21
23.793698575759393
 31
0.0
  0
LINE
  5
3CE
100
AcDbEntity
  8
0
  6
CENTER
 62
             200
100
AcDbLine
 10
-13.709090663925055
 20
19.355001580933518
 30
0.0
 11
-32.924301241640251
 21
14.206301424242376
 31
0.0
  0
LINE
  5
3CF
100
AcDbEntity
  8
0
  6
CONTINUOUS
 62
               4
100
AcDbLine
 10
-32.419517986421283
 20
14.600376734932205
 30
0.0
 11
-32.290108463870069
 21
14.117413821787657
 31
0.0
  0
LINE
  5
3D0
100
AcDbEntity
  8
0
  6
CONTINUOUS
 62
               4
100
AcDbLine
 10
-33.100000004520666
 20
19.250000000000306
 30
0.0
 11
-33.100000004520666
 21
18.750000000000306
 31
0.0
  0
LINE
  5
3D1
100
AcDbEntity
  8
0
  6
CONTINUOUS
 62
               4
100
AcDbLine
 10
-32.290108463870069
 20
23.882586178212897
 30
0.0
 11
-32.419517986421511
 21
23.39962326506835
 31
0.0
  0
LINE
  5
3D2
100
AcDbEntity
  8
0
  6
CONTINUOUS
 62
               4
100
AcDbLine
 10
-25.65803720239785
 20
16.412110050649879
 30
0.0
 11
-32.419517986421283
 21
14.600376734932205
 31
0.0
  0
LINE
  5
3D3
100
AcDbEntity
  8
0
  6
CONTINUOUS
 62
               4
100
AcDbLine
 10
-25.528627679846636
 20
15.929147137505332
 30
0.0
 11
-32.290108463870069
 21
14.117413821787657
 31
0.0
  0
LINE
  5
3D4
100
AcDbEntity
  8
0
  6
CONTINUOUS
 62
               4
100
AcDbLine
 10
-17.100000004520666
 20
17.669953026206507
 30
0.0
 11
-25.399218157295422
 21
15.446184224360785
 31
0.0
  0
LINE
  5
3D5
100
AcDbEntity
  8
0
  6
CONTINUOUS
 62
               4
100
AcDbLine
 10
-20.730790185280171
 20
18.250000000000306
 30
0.0
 11
-25.787446724949291
 21
16.895072963794426
 31
0.0
  0
LINE
  5
3D6
100
AcDbEntity
  8
0
  6
CONTINUOUS
 62
               4
100
AcDbLine
 10
-25.528627679846636
 20
22.070852862495279
 30
0.0
 11
-32.290108463870069
 21
23.882586178212897
 31
0.0
  0
LINE
  5
3D7
100
AcDbEntity
  8
0
  6
CONTINUOUS
 62
               4
100
AcDbLine
 10
-25.65803720239785
 20
21.587889949350732
 30
0.0
 11
-32.419517986421511
 21
23.39962326506835
 31
0.0
  0
LINE
  5
3D8
100
AcDbEntity
  8
0
  6
CONTINUOUS
 62
               4
100
AcDbLine
 10
-20.730790185280171
 20
19.750000000000306
 30
0.0
 11
-25.787446724949291
 21
21.104927036206185
 31
0.0
  0
LINE
  5
3D9
100
AcDbEntity
  8
0
  6
CONTINUOUS
 62
               4
100
AcDbLine
 10
-17.100000004520666
 20
20.330046973794104
 30
0.0
 11
-25.399218157295422
 21
22.553815775639769
 31
0.0
  0
LINE
  5
3DA
100
AcDbEntity
  8
0
  6
CONTINUOUS
 62
               4
100
AcDbLine
 10
-26.100000004520666
 20
18.750000000000306
 30
0.0
 11
-33.100000004520666
 21
18.750000000000306
 31
0.0
  0
LINE
  5
3DB
100
AcDbEntity
  8
0
  6
CONTINUOUS
 62
               4
100
AcDbLine
 10
-26.100000004520666
 20
19.250000000000306
 30
0.0
 11
-33.100000004520666
 21
19.250000000000306
 31
0.0
  0
LINE
  5
3DC
100
AcDbEntity
  8
0
  6
CONTINUOUS
 62
               4
100
AcDbLine
 10
-17.100000004520666
 20
18.250000000000306
 30
0.0
 11
-26.100000004520666
 21
18.250000000000306
 31
0.0
  0
LINE
  5
3DD
100
AcDbEntity
  8
0
  6
CONTINUOUS
 62
               4
100
AcDbLine
 10
-17.100000004520666
 20
19.750000000000306
 30
0.0
 11
-26.100000004520666
 21
19.750000000000306
 31
0.0
  0
LINE
  5
3DE
100
AcDbEntity
  8
0
  6
CONTINUOUS
 62
               4
100
AcDbLine
 10
-26.100000004520666
 20
18.250000000000306
 30
0.0
 11
-26.100000004520666
 21
19.750000000000306
 31
0.0
  0
LINE
  5
3DF
100
AcDbEntity
  8
0
  6
CONTINUOUS
 62
               4
100
AcDbLine
 10
-25.787446724949291
 20
21.104927036206185
 30
0.0
 11
-25.399218157295422
 21
22.553815775639769
 31
0.0
  0
LINE
  5
3E0
100
AcDbEntity
  8
0
  6
CONTINUOUS
 62
               4
100
AcDbLine
 10
-25.399218157295422
 20
15.446184224360785
 30
0.0
 11
-25.787446724949291
 21
16.895072963794426
 31
0.0
  0
ENDBLK
  5
3E1
100
AcDbEntity
  8
0
100
AcDbBlockEnd
  0
BLOCK
  5
3E2
100
AcDbEntity
  8
0
100
AcDbBlockBegin
  2
PA24F7-10
 70
               0
 10
0.0
 20
0.0
 30
0.0
  3
PA24F7-10
  1

  0
LINE
  5
3E3
100
AcDbEntity
  8
0
  6
CONTINUOUS
 62
             200
100
AcDbLine
 10
2.4583172050163284
 20
42.230920339889906
 30
0.0
 11
4.6483019023163763
 21
42.819478727289265
 31
0.0
  0
LINE
  5
3E4
100
AcDbEntity
  8
0
  6
CONTINUOUS
 62
             200
100
AcDbLine
 10
2.5134544788568576
 20
41.615738482234576
 30
0.0
 11
4.6889671703195575
 21
42.200407518065106
 31
0.0
  0
LINE
  5
3E5
100
AcDbEntity
  8
0
  6
CONTINUOUS
 62
               4
100
AcDbLine
 10
3.7500000000007105
 20
47.500872591041912
 30
0.0
 11
3.2500000000007105
 21
47.500872591041912
 31
0.0
  0
LINE
  5
3E6
100
AcDbEntity
  8
0
  6
CONTINUOUS
 62
               4
100
AcDbLine
 10
4.2500000000005969
 20
42.712435091041925
 30
0.0
 11
4.2500000000005969
 21
44.000872591041912
 31
0.0
  0
LINE
  5
3E7
100
AcDbEntity
  8
0
  6
CONTINUOUS
 62
               4
100
AcDbLine
 10
2.7500000000005969
 20
42.340872591041943
 30
0.0
 11
2.7500000000005969
 21
44.000872591041912
 31
0.0
  0
LINE
  5
3E8
100
AcDbEntity
  8
0
  6
CONTINUOUS
 62
               4
100
AcDbLine
 10
4.2500000000005969
 20
44.000872591041912
 30
0.0
 11
2.7500000000005969
 21
44.000872591041912
 31
0.0
  0
LINE
  5
3E9
100
AcDbEntity
  8
0
  6
CONTINUOUS
 62
               4
100
AcDbLine
 10
3.7500000000005969
 20
44.000872591041912
 30
0.0
 11
3.7500000000007105
 21
47.500872591041912
 31
0.0
  0
LINE
  5
3EA
100
AcDbEntity
  8
0
  6
CONTINUOUS
 62
               4
100
AcDbLine
 10
3.2500000000005969
 20
44.000872591041912
 30
0.0
 11
3.2500000000007105
 21
47.500872591041912
 31
0.0
  0
LINE
  5
3EB
100
AcDbEntity
  8
0
  6
CONTINUOUS
 62
             200
100
AcDbLine
 10
-4.5416827949836716
 20
42.230920339889963
 30
0.0
 11
-2.3516980976836237
 21
42.819478727289265
 31
0.0
  0
LINE
  5
3EC
100
AcDbEntity
  8
0
  6
CONTINUOUS
 62
             200
100
AcDbLine
 10
-4.4865455211431424
 20
41.615738482234633
 30
0.0
 11
-2.3110328296804425
 21
42.200407518065163
 31
0.0
  0
LINE
  5
3ED
100
AcDbEntity
  8
0
  6
CONTINUOUS
 62
               4
100
AcDbLine
 10
-3.2499999999992895
 20
47.500872591041912
 30
0.0
 11
-3.7499999999992895
 21
47.500872591041912
 31
0.0
  0
LINE
  5
3EE
100
AcDbEntity
  8
0
  6
CONTINUOUS
 62
               4
100
AcDbLine
 10
-2.7499999999994031
 20
42.712435091041925
 30
0.0
 11
-2.7499999999994031
 21
44.000872591041912
 31
0.0
  0
LINE
  5
3EF
100
AcDbEntity
  8
0
  6
CONTINUOUS
 62
               4
100
AcDbLine
 10
-4.2499999999994031
 20
42.340872591041943
 30
0.0
 11
-4.2499999999994031
 21
44.000872591041912
 31
0.0
  0
LINE
  5
3F0
100
AcDbEntity
  8
0
  6
CONTINUOUS
 62
               4
100
AcDbLine
 10
-2.7499999999994031
 20
44.000872591041912
 30
0.0
 11
-4.2499999999994031
 21
44.000872591041912
 31
0.0
  0
LINE
  5
3F1
100
AcDbEntity
  8
0
  6
CONTINUOUS
 62
               4
100
AcDbLine
 10
-3.2499999999994031
 20
44.000872591041912
 30
0.0
 11
-3.2499999999992895
 21
47.500872591041912
 31
0.0
  0
LINE
  5
3F2
100
AcDbEntity
  8
0
  6
CONTINUOUS
 62
               4
100
AcDbLine
 10
-3.7499999999994031
 20
44.000872591041912
 30
0.0
 11
-3.7499999999992895
 21
47.500872591041912
 31
0.0
  0
LINE
  5
3F3
100
AcDbEntity
  8
0
  6
CONTINUOUS
 62
               4
100
AcDbLine
 10
2.7500000000005969
 20
39.999999999998636
 30
0.0
 11
2.7500000000005969
 21
41.679310091041884
 31
0.0
  0
LINE
  5
3F4
100
AcDbEntity
  8
0
  6
CONTINUOUS
 62
               4
100
AcDbLine
 10
4.2500000000005969
 20
39.999999999998636
 30
0.0
 11
4.2500000000005969
 21
42.08243509104193
 31
0.0
  0
LINE
  5
3F5
100
AcDbEntity
  8
0
  6
CONTINUOUS
 62
               4
100
AcDbLine
 10
-4.2499999999994031
 20
39.999999999998636
 30
0.0
 11
-4.2499999999994031
 21
41.679310091041941
 31
0.0
  0
LINE
  5
3F6
100
AcDbEntity
  8
0
  6
CONTINUOUS
 62
               4
100
AcDbLine
 10
-2.7499999999994031
 20
39.999999999998636
 30
0.0
 11
-2.7499999999994031
 21
42.082435091041987
 31
0.0
  0
LINE
  5
3F7
100
AcDbEntity
  8
0
  6
CONTINUOUS
 62
               4
100
AcDbLine
 10
-3.9999999999998579
 20
7.8999999999998636
 30
0.0
 11
-8.7999999999999261
 21
7.8999999999998636
 31
0.0
  0
LINE
  5
3F8
100
AcDbEntity
  8
0
  6
CONTINUOUS
 62
               4
100
AcDbLine
 10
-2.0999999999997669
 20
26.599999999998658
 30
0.0
 11
-7.8999999999997215
 21
26.599999999998772
 31
0.0
  0
LINE
  5
3F9
100
AcDbEntity
  8
0
  6
CONTINUOUS
 62
               4
100
AcDbLine
 10
-2.0999999999996533
 20
33.399999999998613
 30
0.0
 11
-2.0999999999997669
 21
26.599999999998658
 31
0.0
  0
LINE
  5
3FA
100
AcDbEntity
  8
0
  6
CONTINUOUS
 62
               4
100
AcDbLine
 10
-7.8999999999996078
 20
33.399999999998727
 30
0.0
 11
-7.8999999999997215
 21
26.599999999998772
 31
0.0
  0
LINE
  5
3FB
100
AcDbEntity
  8
0
  6
CONTINUOUS
 62
               4
100
AcDbLine
 10
-2.0999999999996533
 20
33.399999999998613
 30
0.0
 11
-7.8999999999996078
 21
33.399999999998727
 31
0.0
  0
LINE
  5
3FC
100
AcDbEntity
  8
0
  6
CONTINUOUS
 62
               4
100
AcDbLine
 10
2.1000000000003922
 20
26.599999999998658
 30
0.0
 11
7.9000000000004604
 21
26.599999999998545
 31
0.0
  0
LINE
  5
3FD
100
AcDbEntity
  8
0
  6
CONTINUOUS
 62
               4
100
AcDbLine
 10
2.1000000000005059
 20
33.399999999998613
 30
0.0
 11
2.1000000000003922
 21
26.599999999998658
 31
0.0
  0
LINE
  5
3FE
100
AcDbEntity
  8
0
  6
CONTINUOUS
 62
               4
100
AcDbLine
 10
7.9000000000004604
 20
33.399999999998499
 30
0.0
 11
7.9000000000004604
 21
26.599999999998545
 31
0.0
  0
LINE
  5
3FF
100
AcDbEntity
  8
0
  6
CONTINUOUS
 62
               4
100
AcDbLine
 10
2.1000000000005059
 20
33.399999999998613
 30
0.0
 11
7.9000000000004604
 21
33.399999999998499
 31
0.0
  0
LINE
  5
400
100
AcDbEntity
  8
0
  6
CONTINUOUS
 62
               4
100
AcDbLine
 10
-7.9999999999996305
 20
33.499999999998749
 30
0.0
 11
-7.9999999999997442
 21
26.499999999998749
 31
0.0
  0
LINE
  5
401
100
AcDbEntity
  8
0
  6
CONTINUOUS
 62
               4
100
AcDbLine
 10
-1.9999999999996305
 20
33.499999999998636
 30
0.0
 11
-1.9999999999997442
 21
26.499999999998636
 31
0.0
  0
LINE
  5
402
100
AcDbEntity
  8
0
  6
CONTINUOUS
 62
               4
100
AcDbLine
 10
-1.9999999999997442
 20
26.499999999998636
 30
0.0
 11
-7.9999999999997442
 21
26.499999999998749
 31
0.0
  0
LINE
  5
403
100
AcDbEntity
  8
0
  6
CONTINUOUS
 62
               4
100
AcDbLine
 10
-1.9999999999996305
 20
33.499999999998636
 30
0.0
 11
-7.9999999999996305
 21
33.499999999998749
 31
0.0
  0
LINE
  5
404
100
AcDbEntity
  8
0
  6
CONTINUOUS
 62
               4
100
AcDbLine
 10
2.0000000000003695
 20
26.499999999998636
 30
0.0
 11
8.0000000000003695
 21
26.499999999998522
 31
0.0
  0
LINE
  5
405
100
AcDbEntity
  8
0
  6
CONTINUOUS
 62
               4
100
AcDbLine
 10
2.0000000000004832
 20
33.499999999998636
 30
0.0
 11
8.0000000000004832
 21
33.499999999998522
 31
0.0
  0
LINE
  5
406
100
AcDbEntity
  8
0
  6
CONTINUOUS
 62
               4
100
AcDbLine
 10
7.9000000000002331
 20
18.299999994247401
 30
0.0
 11
7.9000000000002331
 21
18.700207536078665
 31
0.0
  0
ARC
  5
407
100
AcDbEntity
  8
0
  6
CONTINUOUS
 62
               4
100
AcDbCircle
 10
7.6000000000001648
 20
18.299999994247401
 30
0.0
 40
0.3
100
AcDbArc
 50
269.9999999999979
 51
359.99999999999767
  0
LINE
  5
408
100
AcDbEntity
  8
0
  6
CONTINUOUS
 62
               4
100
AcDbLine
 10
7.9000000000002331
 20
18.700207536078665
 30
0.0
 11
9.2999999874520256
 21
18.700207536078665
 31
0.0
  0
ARC
  5
409
100
AcDbEntity
  8
0
  6
CONTINUOUS
 62
               4
100
AcDbCircle
 10
-7.5999999999997669
 20
18.299999994247628
 30
0.0
 40
0.3
100
AcDbArc
 50
179.99999999999963
 51
269.99999999999937
  0
LINE
  5
40A
100
AcDbEntity
  8
0
  6
CONTINUOUS
 62
               4
100
AcDbLine
 10
7.1000000000001648
 20
16.399999999999636
 30
0.0
 11
7.1000000000001648
 21
17.999999994247446
 31
0.0
  0
LINE
  5
40B
100
AcDbEntity
  8
0
  6
CONTINUOUS
 62
               4
100
AcDbLine
 10
-7.8999999999997215
 20
18.299999994247742
 30
0.0
 11
-7.8999999999997215
 21
18.700207536078892
 31
0.0
  0
LINE
  5
40C
100
AcDbEntity
  8
0
  6
CONTINUOUS
 62
               4
100
AcDbLine
 10
7.1000000000001648
 20
17.999999994247446
 30
0.0
 11
9.3000000000002103
 21
17.999999994247446
 31
0.0
  0
LINE
  5
40D
100
AcDbEntity
  8
0
  6
CONTINUOUS
 62
               4
100
AcDbLine
 10
-7.8999999999997215
 20
18.700207536078892
 30
0.0
 11
-9.2999999874516277
 21
18.700207536078892
 31
0.0
  0
LINE
  5
40E
100
AcDbEntity
  8
0
  6
CONTINUOUS
 62
               4
100
AcDbLine
 10
-7.0999999999997669
 20
17.999999994247673
 30
0.0
 11
-9.2999999999997556
 21
17.999999994247673
 31
0.0
  0
LINE
  5
40F
100
AcDbEntity
  8
0
  6
CONTINUOUS
 62
               4
100
AcDbLine
 10
9.3000000000000966
 20
8.3999999999998636
 30
0.0
 11
9.3000000000002103
 21
18.700207536078665
 31
0.0
  0
ARC
  5
410
100
AcDbEntity
  8
0
  6
CONTINUOUS
 62
               4
100
AcDbCircle
 10
-3.4999999999998579
 20
7.1999999999999318
 30
0.0
 40
0.5
100
AcDbArc
 50
179.99999999999807
 51
269.9999999999979
  0
LINE
  5
411
100
AcDbEntity
  8
0
  6
CONTINUOUS
 62
               4
100
AcDbLine
 10
-3.9999999999998579
 20
7.1999999999999318
 30
0.0
 11
-3.9999999999998579
 21
7.8999999999999773
 31
0.0
  0
ARC
  5
412
100
AcDbEntity
  8
0
  6
CONTINUOUS
 62
               4
100
AcDbCircle
 10
3.5000000000001421
 20
7.1999999999998181
 30
0.0
 40
0.5
100
AcDbArc
 50
269.99999999999937
 51
0.0
  0
LINE
  5
413
100
AcDbEntity
  8
0
  6
CONTINUOUS
 62
               4
100
AcDbLine
 10
4.0000000000001421
 20
7.1999999999998181
 30
0.0
 11
4.0000000000001421
 21
7.8999999999998636
 31
0.0
  0
LINE
  5
414
100
AcDbEntity
  8
0
  6
CONTINUOUS
 62
               4
100
AcDbLine
 10
3.5000000000001421
 20
6.6999999999998181
 30
0.0
 11
-3.4999999999998579
 21
6.6999999999998181
 31
0.0
  0
ARC
  5
415
100
AcDbEntity
  8
0
  6
CONTINUOUS
 62
               4
100
AcDbCircle
 10
6.6000000000001648
 20
16.399999999999864
 30
0.0
 40
0.5
100
AcDbArc
 50
270.00000000000023
 51
0.0
  0
ARC
  5
416
100
AcDbEntity
  8
0
  6
CONTINUOUS
 62
               4
100
AcDbCircle
 10
-6.5999999999997669
 20
16.399999999999864
 30
0.0
 40
0.5
100
AcDbArc
 50
179.99999999999963
 51
269.99999999999937
  0
LINE
  5
417
100
AcDbEntity
  8
0
  6
CONTINUOUS
 62
               4
100
AcDbLine
 10
-7.0999999999997669
 20
16.399999999999864
 30
0.0
 11
-7.0999999999997669
 21
17.999999994247673
 31
0.0
  0
ARC
  5
418
100
AcDbEntity
  8
0
  6
CONTINUOUS
 62
               4
100
AcDbCircle
 10
-8.7999999999999261
 20
8.3999999999998636
 30
0.0
 40
0.5
100
AcDbArc
 50
179.99999999999963
 51
269.99999999999937
  0
LINE
  5
419
100
AcDbEntity
  8
0
  6
CONTINUOUS
 62
               4
100
AcDbLine
 10
-9.2999999999999261
 20
8.4000000000000909
 30
0.0
 11
-9.2999999999997556
 21
18.700207536078892
 31
0.0
  0
ARC
  5
41A
100
AcDbEntity
  8
0
  6
CONTINUOUS
 62
               4
100
AcDbCircle
 10
8.8000000000000966
 20
8.3999999999998636
 30
0.0
 40
0.5
100
AcDbArc
 50
270.00000000000023
 51
0.0
  0
LINE
  5
41B
100
AcDbEntity
  8
0
  6
CONTINUOUS
 62
               4
100
AcDbLine
 10
8.8000000000000966
 20
7.8999999999998636
 30
0.0
 11
4.0000000000001421
 21
7.8999999999998636
 31
0.0
  0
LINE
  5
41C
100
AcDbEntity
  8
0
  6
CONTINUOUS
 62
               4
100
AcDbLine
 10
6.6000000000001648
 20
15.899999999999864
 30
0.0
 11
-6.5999999999997669
 21
15.899999999999864
 31
0.0
  0
LINE
  5
41D
100
AcDbEntity
  8
0
  6
CONTINUOUS
 62
               4
100
AcDbLine
 10
-10.699999999372523
 20
34.900000000001
 30
0.0
 11
-11.899999993412081
 21
34.900000000001
 31
0.0
  0
LINE
  5
41E
100
AcDbEntity
  8
0
  6
CONTINUOUS
 62
               4
100
AcDbLine
 10
-10.699999999999505
 20
34.900000000001
 30
0.0
 11
-10.699999999999505
 21
38.100000000001046
 31
0.0
  0
LINE
  5
41F
100
AcDbEntity
  8
0
  6
CONTINUOUS
 62
               4
100
AcDbLine
 10
2.0000000000004832
 20
33.499999999998636
 30
0.0
 11
2.0000000000003695
 21
26.499999999998636
 31
0.0
  0
LINE
  5
420
100
AcDbEntity
  8
0
  6
CONTINUOUS
 62
               4
100
AcDbLine
 10
8.0000000000004832
 20
33.499999999998522
 30
0.0
 11
8.0000000000003695
 21
26.499999999998522
 31
0.0
  0
LINE
  5
421
100
AcDbEntity
  8
0
  6
CONTINUOUS
 62
               4
100
AcDbLine
 10
-10.699999999372523
 20
38.100000000001046
 30
0.0
 11
-11.899999993412081
 21
38.100000000001046
 31
0.0
  0
ARC
  5
422
100
AcDbEntity
  8
0
  6
CONTINUOUS
 62
               4
100
AcDbCircle
 10
-10.899999999999437
 20
38.999999999998749
 30
0.0
 40
1.0
100
AcDbArc
 50
89.999999999999815
 51
179.99999999999963
  0
LINE
  5
423
100
AcDbEntity
  8
0
  6
CONTINUOUS
 62
               4
100
AcDbLine
 10
10.700000000000415
 20
34.900000000000773
 30
0.0
 11
10.700000000000529
 21
38.100000000000819
 31
0.0
  0
LINE
  5
424
100
AcDbEntity
  8
0
  6
CONTINUOUS
 62
               4
100
AcDbLine
 10
-10.899999999999437
 20
39.999999999998749
 30
0.0
 11
10.900000000000574
 21
39.999999999998522
 31
0.0
  0
ARC
  5
425
100
AcDbEntity
  8
0
  6
CONTINUOUS
 62
               4
100
AcDbCircle
 10
10.90000000000046
 20
38.999999999998408
 30
0.0
 40
1.0
100
AcDbArc
 50
359.99999999999847
 51
89.999999999998266
  0
LINE
  5
426
100
AcDbEntity
  8
0
  6
CONTINUOUS
 62
               4
100
AcDbLine
 10
10.699999999373546
 20
38.100000000000819
 30
0.0
 11
11.899999993413104
 21
38.100000000000705
 31
0.0
  0
LINE
  5
427
100
AcDbEntity
  8
0
  6
CONTINUOUS
 62
               4
100
AcDbLine
 10
10.699999999373546
 20
34.900000000000773
 30
0.0
 11
11.89999999341299
 21
34.900000000000659
 31
0.0
  0
ARC
  5
428
100
AcDbEntity
  8
0
  6
CONTINUOUS
 62
               4
100
AcDbCircle
 10
3.5171572868646592
 20
9.6999999999985675
 30
0.0
 40
0.2
100
AcDbArc
 50
269.99999999999937
 51
45.000000000000966
  0
ARC
  5
429
100
AcDbEntity
  8
0
  6
CONTINUOUS
 62
               4
100
AcDbCircle
 10
-3.5171572868644887
 20
9.6999999999985675
 30
0.0
 40
0.2
100
AcDbArc
 50
134.99999999999793
 51
269.99999999999937
  0
ARC
  5
42A
100
AcDbEntity
  8
0
  6
CONTINUOUS
 62
               4
100
AcDbCircle
 10
0.0000000000001421
 20
13.217157286862971
 30
0.0
 40
0.2
100
AcDbArc
 50
44.99999999999919
 51
134.99999999999898
  0
LINE
  5
42B
100
AcDbEntity
  8
0
  6
CONTINUOUS
 62
               4
100
AcDbLine
 10
0.14142135623743
 20
13.358578643100259
 30
0.0
 11
3.6585786431019471
 21
9.8414213562358555
 31
0.0
  0
LINE
  5
42C
100
AcDbEntity
  8
0
  6
CONTINUOUS
 62
               4
100
AcDbLine
 10
-0.1414213562371458
 20
13.358578643100259
 30
0.0
 11
-3.6585786431017766
 21
9.8414213562358555
 31
0.0
  0
LINE
  5
42D
100
AcDbEntity
  8
0
  6
CONTINUOUS
 62
               4
100
AcDbLine
 10
3.5171572868646592
 20
9.4999999999985221
 30
0.0
 11
-3.5171572868644887
 21
9.4999999999985221
 31
0.0
  0
LINE
  5
42E
100
AcDbEntity
  8
0
  6
CONTINUOUS
 62
               4
100
AcDbLine
 10
-7.8999999999998352
 20
15.799999999998704
 30
0.0
 11
-7.8999999999997215
 21
17.899999999998613
 31
0.0
  0
LINE
  5
42F
100
AcDbEntity
  8
0
  6
CONTINUOUS
 62
               4
100
AcDbLine
 10
-7.8999999999997215
 20
17.899999999998613
 30
0.0
 11
-9.2999999999997556
 21
17.899999999998613
 31
0.0
  0
ARC
  5
430
100
AcDbEntity
  8
0
  6
CONTINUOUS
 62
               4
100
AcDbCircle
 10
-8.7999999999999261
 20
8.4999999999985221
 30
0.0
 40
0.5
100
AcDbArc
 50
179.99999999999963
 51
269.99999999999937
  0
LINE
  5
431
100
AcDbEntity
  8
0
  6
CONTINUOUS
 62
               4
100
AcDbLine
 10
8.8000000000000966
 20
7.9999999999985221
 30
0.0
 11
-8.7999999999999261
 21
7.9999999999985221
 31
0.0
  0
ARC
  5
432
100
AcDbEntity
  8
0
  6
CONTINUOUS
 62
               4
100
AcDbCircle
 10
8.8000000000000966
 20
8.4999999999982947
 30
0.0
 40
0.5
100
AcDbArc
 50
269.9999999999979
 51
359.99999999999767
  0
LINE
  5
433
100
AcDbEntity
  8
0
  6
CONTINUOUS
 62
               4
100
AcDbLine
 10
7.9000000000002331
 20
15.799999999998704
 30
0.0
 11
7.9000000000002331
 21
17.899999999998158
 31
0.0
  0
LINE
  5
434
100
AcDbEntity
  8
0
  6
CONTINUOUS
 62
               4
100
AcDbLine
 10
7.9000000000002331
 20
17.899999999998158
 30
0.0
 11
9.3000000000002103
 21
17.899999999998158
 31
0.0
  0
LINE
  5
435
100
AcDbEntity
  8
0
  6
CONTINUOUS
 62
               4
100
AcDbLine
 10
9.3000000000001783
 20
15.799999999998704
 30
0.0
 11
-9.2999999999998124
 21
15.799999999998704
 31
0.0
  0
LINE
  5
436
100
AcDbEntity
  8
0
  6
DASHED
 62
               2
100
AcDbLine
 10
-11.900000000003558
 20
0.0
 30
0.0
 11
11.899999999998528
 21
0.0
 31
0.0
  0
LINE
  5
437
100
AcDbEntity
  8
0
  6
CENTER
 62
             200
100
AcDbLine
 10
-0.0000000000000568
 20
-4.9708179906839405
 30
0.0
 11
0.0000000000006769
 21
47.752597575708258
 31
0.0
  0
LINE
  5
438
100
AcDbEntity
  8
0
  6
CONTINUOUS
 62
               4
100
AcDbLine
 10
11.899999999998528
 20
0.0
 30
0.0
 11
11.900000000018224
 21
38.999999991078425
 31
0.0
  0
LINE
  5
439
100
AcDbEntity
  8
0
  6
CONTINUOUS
 62
               4
100
AcDbLine
 10
-11.899999999981503
 20
39.000000000006821
 30
0.0
 11
-11.900000000003558
 21
0.0
 31
0.0
  0
LINE
  5
43A
100
AcDbEntity
  8
0
  6
CONTINUOUS
 62
               4
100
AcDbLine
 10
-0.7499999999994031
 20
39.999999999998636
 30
0.0
 11
-0.7499999999994031
 21
41.679310091041941
 31
0.0
  0
LINE
  5
43B
100
AcDbEntity
  8
0
  6
CONTINUOUS
 62
               4
100
AcDbLine
 10
0.7500000000005969
 20
39.999999999998636
 30
0.0
 11
0.7500000000005969
 21
42.082435091041987
 31
0.0
  0
LINE
  5
43C
100
AcDbEntity
  8
0
  6
CONTINUOUS
 62
               4
100
AcDbLine
 10
-0.2499999999994031
 20
44.000872591041912
 30
0.0
 11
-0.2499999999992895
 21
47.500872591041912
 31
0.0
  0
LINE
  5
43D
100
AcDbEntity
  8
0
  6
CONTINUOUS
 62
               4
100
AcDbLine
 10
0.2500000000005969
 20
44.000872591041912
 30
0.0
 11
0.2500000000007105
 21
47.500872591041912
 31
0.0
  0
LINE
  5
43E
100
AcDbEntity
  8
0
  6
CONTINUOUS
 62
               4
100
AcDbLine
 10
0.7500000000005969
 20
44.000872591041912
 30
0.0
 11
-0.7499999999994031
 21
44.000872591041912
 31
0.0
  0
LINE
  5
43F
100
AcDbEntity
  8
0
  6
CONTINUOUS
 62
               4
100
AcDbLine
 10
-0.7499999999994031
 20
42.340872591041943
 30
0.0
 11
-0.7499999999994031
 21
44.000872591041912
 31
0.0
  0
LINE
  5
440
100
AcDbEntity
  8
0
  6
CONTINUOUS
 62
               4
100
AcDbLine
 10
0.7500000000005969
 20
42.712435091041925
 30
0.0
 11
0.7500000000005969
 21
44.000872591041912
 31
0.0
  0
LINE
  5
441
100
AcDbEntity
  8
0
  6
CONTINUOUS
 62
               4
100
AcDbLine
 10
0.2500000000007105
 20
47.500872591041912
 30
0.0
 11
-0.2499999999992895
 21
47.500872591041912
 31
0.0
  0
LINE
  5
442
100
AcDbEntity
  8
0
  6
CONTINUOUS
 62
             200
100
AcDbLine
 10
-0.9865455211431424
 20
41.615738482234633
 30
0.0
 11
1.1889671703195575
 21
42.200407518065163
 31
0.0
  0
LINE
  5
443
100
AcDbEntity
  8
0
  6
CONTINUOUS
 62
             200
100
AcDbLine
 10
-1.0416827949836716
 20
42.230920339889963
 30
0.0
 11
1.1483019023163763
 21
42.819478727289265
 31
0.0
  0
LINE
  5
444
100
AcDbEntity
  8
0
  6
CENTER
 62
             200
100
AcDbLine
 10
3.5000000000005596
 20
39.318431997096397
 30
0.0
 11
3.5000000000006768
 21
47.752597575708258
 31
0.0
  0
LINE
  5
445
100
AcDbEntity
  8
0
  6
CENTER
 62
             200
100
AcDbLine
 10
-3.4999999999994404
 20
39.318431997096496
 30
0.0
 11
-3.4999999999993232
 21
47.752597575708258
 31
0.0
  0
ENDBLK
  5
446
100
AcDbEntity
  8
0
100
AcDbBlockEnd
  0
BLOCK
  5
46C
100
AcDbEntity
  8
0
  6
ByBlock
 62
               0
100
AcDbBlockBegin
  2
_OPEN30
 70
               2
 10
0.0
 20
0.0
 30
0.0
  3
_OPEN30
  1

  0
LINE
  5
46D
100
AcDbEntity
  8
0
  6
ByBlock
 62
               0
100
AcDbLine
 10
-1.0
 20
0.267949
 30
0.0
 11
0.0
 21
0.0
 31
0.0
  0
LINE
  5
46E
100
AcDbEntity
  8
0
  6
ByBlock
 62
               0
100
AcDbLine
 10
0.0
 20
0.0
 30
0.0
 11
-1.0
 21
-0.267949
 31
0.0
  0
LINE
  5
46F
100
AcDbEntity
  8
0
  6
ByBlock
 62
               0
100
AcDbLine
 10
0.0
 20
0.0
 30
0.0
 11
-1.0
 21
0.0
 31
0.0
  0
ENDBLK
  5
470
100
AcDbEntity
  8
0
  6
ByBlock
 62
               0
100
AcDbBlockEnd
  0
ENDSEC
  0
SECTION
  2
ENTITIES
  0
INSERT
  5
447
100
AcDbEntity
  8
0
  6
ByBlock
100
AcDbBlockReference
  2
PA24F7-1
 10
110.97615683536233
 20
117.00654017040115
 30
0.0
  0
INSERT
  5
448
100
AcDbEntity
  8
0
  6
ByBlock
100
AcDbBlockReference
  2
PA24F7-3
 10
-2.9977208654041925
 20
117.00654017040755
 30
0.0
 50
359.99999999999841
  0
INSERT
  5
449
100
AcDbEntity
  8
0
  6
ByBlock
100
AcDbBlockReference
  2
PA24F7-4
 10
110.97615683536233
 20
-40.593459829603376
 30
0.0
  0
INSERT
  5
44A
100
AcDbEntity
  8
0
  6
ByBlock
100
AcDbBlockReference
  2
PA24F7-5
 10
-84.971598566206552
 20
117.00654016149595
 30
0.0
 50
359.99999999996794
  0
INSERT
  5
44B
100
AcDbEntity
  8
0
  6
ByBlock
100
AcDbBlockReference
  2
PA24F7-6
 10
-81.331235660298901
 20
-143.49999999999977
 30
0.0
  0
INSERT
  5
44C
100
AcDbEntity
  8
0
  6
ByBlock
100
AcDbBlockReference
  2
PA24F7-7
 10
-170.83637472814257
 20
-143.50000000000023
 30
0.0
  0
INSERT
  5
44D
100
AcDbEntity
  8
0
  6
ByBlock
100
AcDbBlockReference
  2
PA24F7-8
 10
-236.4979083083158
 20
-143.5
 30
0.0
  0
INSERT
  5
44E
100
AcDbEntity
  8
0
  6
ByBlock
100
AcDbBlockReference
  2
PA24F7-9
 10
17.755732950831391
 20
-143.50000000000034
 30
0.0
  0
INSERT
  5
44F
100
AcDbEntity
  8
0
  6
ByBlock
100
AcDbBlockReference
  2
PA24F7-10
 10
228.69589922977605
 20
-143.50000000000023
 30
0.0
  0
INSERT
  5
450
100
AcDbEntity
  8
0
  6
ByBlock
100
AcDbBlockReference
  2
PA24F7-2
 10
136.83190131077333
 20
-143.50000000000034
 30
0.0
  0
MTEXT
  5
451
100
AcDbEntity
  8
0
  6
CONTINUOUS
 62
               7
100
AcDbMText
 10
-268.26393445176882
 20
160.5
 30
0.0
 40
6.3000001907348633
 41
0.0
 71
               4
 72
               1
  1
\W1.082;\A1;MODEL:PA24F7-03(02)-G2
  0
MTEXT
  5
452
100
AcDbEntity
  8
0
  6
CONTINUOUS
 62
               7
100
AcDbMText
 10
-257.93165789425552
 20
185.5
 30
0.0
 40
6.3000001907348633
 41
0.0
 71
               4
 72
               1
  1
\W1.065;\A1;PA/PB SERIES
  0
MTEXT
  5
453
100
AcDbEntity
  8
0
  6
CONTINUOUS
 62
               7
100
AcDbMText
 10
170.28099805280428
 20
-185.0
 30
0.0
 40
9.0
 41
0.0
 71
               4
 72
               1
  1
\W1.121;\A1;KOGANEI CORP.
  0
MTEXT
  5
454
100
AcDbEntity
  8
0
  6
CONTINUOUS
 62
               7
100
AcDbMText
 10
198.27702406779611
 20
185.5
 30
0.0
 40
6.3000001907348633
 41
0.0
 71
               4
 72
               1
  1
\W1.311;\A1;Ver. 1.0
  0
LINE
  5
455
100
AcDbEntity
  8
0
  6
CONTINUOUS
 62
               7
100
AcDbLine
 10
-161.25
 20
195.5
 30
0.0
 11
-161.25
 21
175.5
 31
0.0
  0
LINE
  5
456
100
AcDbEntity
  8
0
  6
CONTINUOUS
 62
               7
100
AcDbLine
 10
162.0999755859375
 20
195.5
 30
0.0
 11
162.0999755859375
 21
175.5
 31
0.0
  0
LINE
  5
457
100
AcDbEntity
  8
0
  6
CONTINUOUS
 62
               7
100
AcDbLine
 10
-281.25
 20
175.5
 30
0.0
 11
-161.25
 21
175.5
 31
0.0
  0
LINE
  5
458
100
AcDbEntity
  8
0
  6
CONTINUOUS
 62
               7
100
AcDbLine
 10
162.0999755859375
 20
175.5
 30
0.0
 11
282.099853515625
 21
175.5
 31
0.0
  0
LINE
  5
459
100
AcDbEntity
  8
0
  6
CONTINUOUS
 62
               7
100
AcDbLine
 10
162.0999755859375
 20
-175.0
 30
0.0
 11
282.099853515625
 21
-175.0
 31
0.0
  0
LINE
  5
45A
100
AcDbEntity
  8
0
  6
CONTINUOUS
 62
               7
100
AcDbLine
 10
162.0999755859375
 20
-175.0
 30
0.0
 11
162.0999755859375
 21
-195.0
 31
0.0
  0
LINE
  5
45B
100
AcDbEntity
  8
0
  6
CONTINUOUS
 62
               7
100
AcDbLine
 10
-281.25
 20
-195.0
 30
0.0
 11
282.099853515625
 21
-195.0
 31
0.0
  0
LINE
  5
45C
100
AcDbEntity
  8
0
  6
CONTINUOUS
 62
               7
100
AcDbLine
 10
-281.25
 20
195.5
 30
0.0
 11
-281.25
 21
-195.0
 31
0.0
  0
LINE
  5
45D
100
AcDbEntity
  8
0
  6
CONTINUOUS
 62
               7
100
AcDbLine
 10
-281.25
 20
195.5
 30
0.0
 11
282.099853515625
 21
195.5
 31
0.0
  0
LINE
  5
45E
100
AcDbEntity
  8
0
  6
CONTINUOUS
 62
               7
100
AcDbLine
 10
282.099853515625
 20
195.5
 30
0.0
 11
282.099853515625
 21
-195.0
 31
0.0
  0
MTEXT
  5
45F
100
AcDbEntity
  8
0
  6
CONTINUOUS
 62
               7
100
AcDbMText
 10
-230.48436819415886
 20
150.5
 30
0.0
 40
6.3000001907348633
 41
0.0
 71
               4
 72
               1
  1
\W1.063;\A1;PA24HF7-03(02)-G2
  0
MTEXT
  5
460
100
AcDbEntity
  8
0
  6
CONTINUOUS
 62
               7
100
AcDbMText
 10
-230.47999320839247
 20
140.5
 30
0.0
 40
6.3000001907348633
 41
0.0
 71
               4
 72
               1
  1
\W1.067;\A1;PA24F8-03(02)-G2
  0
MTEXT
  5
461
100
AcDbEntity
  8
0
  6
CONTINUOUS
 62
               7
100
AcDbMText
 10
-230.48436819415886
 20
130.5
 30
0.0
 40
6.3000001907348633
 41
0.0
 71
               4
 72
               1
  1
\W1.063;\A1;PA24HF8-03(02)-G2
  0
MTEXT
  5
462
100
AcDbEntity
  8
0
  6
CONTINUOUS
 62
               7
100
AcDbMText
 10
-230.47999320839247
 20
120.5
 30
0.0
 40
6.3000001907348633
 41
0.0
 71
               4
 72
               1
  1
\W1.067;\A1;PA24F9-03(02)-G2
  0
MTEXT
  5
463
100
AcDbEntity
  8
0
  6
CONTINUOUS
 62
               7
100
AcDbMText
 10
-230.48436819415886
 20
110.5
 30
0.0
 40
6.3000001907348633
 41
0.0
 71
               4
 72
               1
  1
\W1.063;\A1;PA24HF9-03(02)-G2
  0
LINE
  5
464
100
AcDbEntity
  8
0
  6
CONTINUOUS
 62
               7
100
AcDbLine
 10
-281.25
 20
-72.073045889549689
 30
0.0
 11
282.099853515625
 21
-72.073045889549689
 31
0.0
  0
LINE
  5
465
100
AcDbEntity
  8
0
  6
CONTINUOUS
 62
               7
100
AcDbLine
 10
-26.520894368489579
 20
-72.073045889549689
 30
0.0
 11
-26.520894368489579
 21
-195.0
 31
0.0
  0
LINE
  5
466
100
AcDbEntity
  8
0
  6
CONTINUOUS
 62
               7
100
AcDbLine
 10
94.316569010416686
 20
-72.073045889549689
 30
0.0
 11
94.316569010416686
 21
-195.0
 31
0.0
  0
MTEXT
  5
467
100
AcDbEntity
  8
0
  6
CONTINUOUS
 62
               1
100
AcDbMText
 10
108.41031899784383
 20
-92.073045889549689
 30
0.0
 40
4.5
 41
0.0
 71
               4
 72
               1
  1
\W1.125;\A1;-G1
  0
MTEXT
  5
468
100
AcDbEntity
  8
0
  6
CONTINUOUS
 62
               1
100
AcDbMText
 10
-17.520894368489564
 20
-92.073045889549689
 30
0.0
 40
4.5
 41
0.0
 71
               4
 72
               1
  1
\A1;-G3
  0
MTEXT
  5
469
100
AcDbEntity
  8
0
  6
CONTINUOUS
 62
               1
100
AcDbMText
 10
-267.25
 20
-92.073045889549689
 30
0.0
 40
4.5
 41
0.0
 71
               4
 72
               1
  1
\A1;-39
  0
MTEXT
  5
46A
100
AcDbEntity
  8
0
  6
CONTINUOUS
 62
               2
100
AcDbMText
 10
-147.21567323600755
 20
40.662789684658662
 30
0.0
 40
4.5
 41
0.0
 71
               4
 72
               1
  1
\W1.050;\A1;2-RC1/4
  0
LEADER
  5
471
100
AcDbEntity
  8
0
  6
CONTINUOUS
 62
               2
100
AcDbLeader
  3
MXDIMSTYLE
 73
               3
 74
               0
 75
               0
 40
0.0
 76
               3
 10
-97.521598566237017
 20
60.377375036888623
 30
0.0
 10
-111.59210664192096
 20
36.00654016149582
 30
0.0
 10
-147.21567326942341
 20
36.00654016149582
 30
0.0
 77
               2
1001
ACAD
1000
DSTYLE
1002
{
1070
               6
1000
_OPEN30
1070
               7
1000
_OPEN30
1070
              41
1040
2.77
1070
             173
1070
               1
1070
             341
1005
46B
1002
}
  0
MTEXT
  5
472
100
AcDbEntity
  8
0
  6
CONTINUOUS
 62
               2
100
AcDbMText
 10
-178.91497453963794
 20
63.662789684660666
 30
0.0
 40
4.5
 41
0.0
 71
               4
 72
               1
  1
\W1.077;\A1;3-Rc3/8(Rc1/4)
  0
LEADER
  5
473
100
AcDbEntity
  8
0
  6
CONTINUOUS
 62
               2
100
AcDbLeader
  3
MXDIMSTYLE
 73
               3
 74
               0
 75
               0
 40
0.0
 76
               3
 10
-98.421598613911186
 20
81.818529227493457
 30
0.0
 10
-111.59210664191458
 20
59.006540161497824
 30
0.0
 10
-178.91497451224541
 20
59.006540161497824
 30
0.0
 77
               2
1001
ACAD
1000
DSTYLE
1002
{
1070
               6
1000
_OPEN30
1070
               7
1000
_OPEN30
1070
              41
1040
2.77
1070
             173
1070
               1
1070
             341
1005
46B
1002
}
  0
ENDSEC
  0
SECTION
  2
OBJECTS
  0
DICTIONARY
  5
19
100
AcDbDictionary
  3
ACAD_GROUP
350
1A
  3
ACAD_MLINESTYLE
350
1B
  0
DICTIONARY
  5
1A
102
{ACAD_REACTORS
330
19
102
}
100
AcDbDictionary
  0
DICTIONARY
  5
1B
102
{ACAD_REACTORS
330
19
102
}
100
AcDbDictionary
  3
STANDARD
350
1C
  0
MLINESTYLE
  5
1C
102
{ACAD_REACTORS
330
1B
102
}
100
AcDbMlineStyle
  2
Standard
 70
               0
  3

 62
               0
 51
90.0
 52
90.0
 71
               2
 49
0.5
 62
             256
  6
ByLayer
 49
-0.5
 62
             256
  6
ByLayer
  0
ENDSEC
  0
EOF
